  0
SECTION
  2
HEADER
  9
$ACADVER
  1
AC1014
  9
$ACADMAINTVER
 70
     9
  9
$DWGCODEPAGE
  3
ANSI_1250
  9
$INSBASE
 10
0.0
 20
0.0
 30
0.0
  9
$EXTMIN
 10
-23.2506
 20
-33.855
 30
0.0
  9
$EXTMAX
 10
23.8281
 20
33.855
 30
0.0
  9
$LIMMIN
 10
0.0
 20
0.0
  9
$LIMMAX
 10
12.0
 20
9.0
  9
$ORTHOMODE
 70
     0
  9
$REGENMODE
 70
     1
  9
$FILLMODE
 70
     1
  9
$QTEXTMODE
 70
     0
  9
$MIRRTEXT
 70
     1
  9
$DRAGMODE
 70
     2
  9
$LTSCALE
 40
1.0
  9
$OSMODE
 70
    37
  9
$ATTMODE
 70
     1
  9
$TEXTSIZE
 40
0.2
  9
$TRACEWID
 40
0.05
  9
$TEXTSTYLE
  7
STANDARD
  9
$CLAYER
  8
0
  9
$CELTYPE
  6
BYLAYER
  9
$CECOLOR
 62
   256
  9
$CELTSCALE
 40
1.0
  9
$DELOBJ
 70
     1
  9
$DISPSILH
 70
     0
  9
$DIMSCALE
 40
1.0
  9
$DIMASZ
 40
0.18
  9
$DIMEXO
 40
0.0625
  9
$DIMDLI
 40
0.38
  9
$DIMRND
 40
0.0
  9
$DIMDLE
 40
0.0
  9
$DIMEXE
 40
0.18
  9
$DIMTP
 40
0.0
  9
$DIMTM
 40
0.0
  9
$DIMTXT
 40
0.18
  9
$DIMCEN
 40
0.09
  9
$DIMTSZ
 40
0.0
  9
$DIMTOL
 70
     0
  9
$DIMLIM
 70
     0
  9
$DIMTIH
 70
     1
  9
$DIMTOH
 70
     1
  9
$DIMSE1
 70
     0
  9
$DIMSE2
 70
     0
  9
$DIMTAD
 70
     0
  9
$DIMZIN
 70
     0
  9
$DIMBLK
  1

  9
$DIMASO
 70
     1
  9
$DIMSHO
 70
     1
  9
$DIMPOST
  1

  9
$DIMAPOST
  1

  9
$DIMALT
 70
     0
  9
$DIMALTD
 70
     2
  9
$DIMALTF
 40
25.4
  9
$DIMLFAC
 40
1.0
  9
$DIMTOFL
 70
     0
  9
$DIMTVP
 40
0.0
  9
$DIMTIX
 70
     0
  9
$DIMSOXD
 70
     0
  9
$DIMSAH
 70
     0
  9
$DIMBLK1
  1

  9
$DIMBLK2
  1

  9
$DIMSTYLE
  2
STANDARD
  9
$DIMCLRD
 70
     0
  9
$DIMCLRE
 70
     0
  9
$DIMCLRT
 70
     0
  9
$DIMTFAC
 40
1.0
  9
$DIMGAP
 40
0.09
  9
$DIMJUST
 70
     0
  9
$DIMSD1
 70
     0
  9
$DIMSD2
 70
     0
  9
$DIMTOLJ
 70
     1
  9
$DIMTZIN
 70
     0
  9
$DIMALTZ
 70
     0
  9
$DIMALTTZ
 70
     0
  9
$DIMFIT
 70
     3
  9
$DIMUPT
 70
     0
  9
$DIMUNIT
 70
     2
  9
$DIMDEC
 70
     4
  9
$DIMTDEC
 70
     4
  9
$DIMALTU
 70
     2
  9
$DIMALTTD
 70
     2
  9
$DIMTXSTY
  7
STANDARD
  9
$DIMAUNIT
 70
     0
  9
$LUNITS
 70
     2
  9
$LUPREC
 70
     4
  9
$SKETCHINC
 40
0.1
  9
$FILLETRAD
 40
0.5
  9
$AUNITS
 70
     0
  9
$AUPREC
 70
     0
  9
$MENU
  1
.
  9
$ELEVATION
 40
0.0
  9
$PELEVATION
 40
0.0
  9
$THICKNESS
 40
0.0
  9
$LIMCHECK
 70
     0
  9
$CHAMFERA
 40
0.5
  9
$CHAMFERB
 40
0.5
  9
$CHAMFERC
 40
1.0
  9
$CHAMFERD
 40
0.0
  9
$SKPOLY
 70
     0
  9
$TDCREATE
 40
2456220.561412477
  9
$TDUPDATE
 40
2456220.561412489
  9
$TDINDWG
 40
0.0000000116
  9
$TDUSRTIMER
 40
0.0000000116
  9
$USRTIMER
 70
     1
  9
$ANGBASE
 50
0.0
  9
$ANGDIR
 70
     0
  9
$PDMODE
 70
     0
  9
$PDSIZE
 40
0.0
  9
$PLINEWID
 40
0.0
  9
$COORDS
 70
     1
  9
$SPLFRAME
 70
     0
  9
$SPLINETYPE
 70
     6
  9
$SPLINESEGS
 70
     8
  9
$ATTDIA
 70
     0
  9
$ATTREQ
 70
     1
  9
$HANDLING
 70
     1
  9
$HANDSEED
  5
9B
  9
$SURFTAB1
 70
     6
  9
$SURFTAB2
 70
     6
  9
$SURFTYPE
 70
     6
  9
$SURFU
 70
     6
  9
$SURFV
 70
     6
  9
$UCSNAME
  2

  9
$UCSORG
 10
0.0
 20
0.0
 30
0.0
  9
$UCSXDIR
 10
1.0
 20
0.0
 30
0.0
  9
$UCSYDIR
 10
0.0
 20
1.0
 30
0.0
  9
$PUCSNAME
  2

  9
$PUCSORG
 10
0.0
 20
0.0
 30
0.0
  9
$PUCSXDIR
 10
1.0
 20
0.0
 30
0.0
  9
$PUCSYDIR
 10
0.0
 20
1.0
 30
0.0
  9
$USERI1
 70
     0
  9
$USERI2
 70
     0
  9
$USERI3
 70
     0
  9
$USERI4
 70
     0
  9
$USERI5
 70
     0
  9
$USERR1
 40
0.0
  9
$USERR2
 40
0.0
  9
$USERR3
 40
0.0
  9
$USERR4
 40
0.0
  9
$USERR5
 40
0.0
  9
$WORLDVIEW
 70
     1
  9
$SHADEDGE
 70
     3
  9
$SHADEDIF
 70
    70
  9
$TILEMODE
 70
     1
  9
$MAXACTVP
 70
    64
  9
$PINSBASE
 10
0.0
 20
0.0
 30
0.0
  9
$PLIMCHECK
 70
     0
  9
$PEXTMIN
 10
1.000000000000000E+20
 20
1.000000000000000E+20
 30
1.000000000000000E+20
  9
$PEXTMAX
 10
-1.000000000000000E+20
 20
-1.000000000000000E+20
 30
-1.000000000000000E+20
  9
$PLIMMIN
 10
0.0
 20
0.0
  9
$PLIMMAX
 10
12.0
 20
9.0
  9
$UNITMODE
 70
     0
  9
$VISRETAIN
 70
     1
  9
$PLINEGEN
 70
     0
  9
$PSLTSCALE
 70
     1
  9
$TREEDEPTH
 70
  3020
  9
$PICKSTYLE
 70
     1
  9
$CMLSTYLE
  2
STANDARD
  9
$CMLJUST
 70
     0
  9
$CMLSCALE
 40
1.0
  9
$PROXYGRAPHICS
 70
     1
  9
$MEASUREMENT
 70
     0
  0
ENDSEC
  0
SECTION
  2
CLASSES
  0
CLASS
  1
ACDBDICTIONARYWDFLT
  2
AcDbDictionaryWithDefault
  3
ObjectDBX Classes
 90
        0
280
     0
281
     0
  0
CLASS
  1
VISUALSTYLE
  2
AcDbVisualStyle
  3
ObjectDBX Classes
 90
     4095
280
     0
281
     0
  0
CLASS
  1
MATERIAL
  2
AcDbMaterial
  3
ObjectDBX Classes
 90
     1153
280
     0
281
     0
  0
CLASS
  1
DICTIONARYVAR
  2
AcDbDictionaryVar
  3
ObjectDBX Classes
 90
        0
280
     0
281
     0
  0
CLASS
  1
XRECORD
  2
AcDbXrecord
  3
AutoCAD 2000
 90
        0
280
     0
281
     0
  0
CLASS
  1
LWPOLYLINE
  2
AcDbPolyline
  3
AutoCAD 2000
 90
        0
280
     0
281
     1
  0
CLASS
  1
HATCH
  2
AcDbHatch
  3
AutoCAD 2000
 90
        0
280
     0
281
     1
  0
CLASS
  1
ACDBPLACEHOLDER
  2
AcDbPlaceHolder
  3
ObjectDBX Classes
 90
        0
280
     0
281
     0
  0
CLASS
  1
LAYOUT
  2
AcDbLayout
  3
ObjectDBX Classes
 90
        0
280
     0
281
     0
  0
ENDSEC
  0
SECTION
  2
TABLES
  0
TABLE
  2
VPORT
  5
8
330
0
100
AcDbSymbolTable
 70
     1
  0
VPORT
  5
29
330
8
100
AcDbSymbolTableRecord
100
AcDbViewportTableRecord
  2
*ACTIVE
 70
     0
 10
0.0
 20
0.0
 11
1.0
 21
1.0
 12
10.42990654205607
 22
4.5
 13
0.0
 23
0.0
 14
0.5
 24
0.5
 15
0.5
 25
0.5
 16
0.0
 26
0.0
 36
1.0
 17
0.0
 27
0.0
 37
0.0
 40
9.0
 41
1.972972972850329
 42
50.0
 43
0.0
 44
0.0
 50
0.0
 51
0.0
 71
     0
 72
   100
 73
     1
 74
     3
 75
     0
 76
     0
 77
     0
 78
     0
  0
ENDTAB
  0
TABLE
  2
LTYPE
  5
5
330
0
100
AcDbSymbolTable
 70
     3
  0
LTYPE
  5
14
330
5
100
AcDbSymbolTableRecord
100
AcDbLinetypeTableRecord
  2
BYBLOCK
 70
     0
  3

 72
    65
 73
     0
 40
0.0
  0
LTYPE
  5
15
330
5
100
AcDbSymbolTableRecord
100
AcDbLinetypeTableRecord
  2
BYLAYER
 70
     0
  3

 72
    65
 73
     0
 40
0.0
  0
LTYPE
  5
16
330
5
100
AcDbSymbolTableRecord
100
AcDbLinetypeTableRecord
  2
CONTINUOUS
 70
     0
  3
Solid line
 72
    65
 73
     0
 40
0.0
  0
LTYPE
  5
65
330
5
100
AcDbSymbolTableRecord
100
AcDbLinetypeTableRecord
  2
NEW_LINE1
 70
     0
  3

 72
    65
 73
     4
 40
1.2
 49
0.5
 74
     4
 75
     0
340
0
 46
1.0
 50
0.0
 44
0.0
 45
0.0
 49
-0.3
 74
     4
 75
     0
340
0
 46
1.0
 50
0.0
 44
0.0
 45
0.0
 49
0.1
 74
     4
 75
     0
340
0
 46
1.0
 50
0.0
 44
0.0
 45
0.0
 49
-0.3
 74
     4
 75
     0
340
0
 46
1.0
 50
0.0
 44
0.0
 45
0.0
  0
LTYPE
  5
67
330
5
100
AcDbSymbolTableRecord
100
AcDbLinetypeTableRecord
  2
NEW_LINE2
 70
     0
  3

 72
    65
 73
     4
 40
1.2
 49
0.5
 74
     4
 75
     0
340
0
 46
1.0
 50
0.0
 44
0.0
 45
0.0
 49
-0.3
 74
     4
 75
     0
340
0
 46
1.0
 50
0.0
 44
0.0
 45
0.0
 49
0.1
 74
     4
 75
     0
340
0
 46
1.0
 50
0.0
 44
0.0
 45
0.0
 49
-0.3
 74
     4
 75
     0
340
0
 46
1.0
 50
0.0
 44
0.0
 45
0.0
  0
ENDTAB
  0
TABLE
  2
LAYER
  5
2
330
0
100
AcDbSymbolTable
 70
     2
  0
LAYER
  5
10
330
2
100
AcDbSymbolTableRecord
100
AcDbLayerTableRecord
  2
0
 70
     0
 62
     7
  6
CONTINUOUS
  0
LAYER
  5
40
330
2
100
AcDbSymbolTableRecord
100
AcDbLayerTableRecord
  2
DEFAULT_2
 70
     0
 62
     7
  6
CONTINUOUS
  0
ENDTAB
  0
TABLE
  2
STYLE
  5
3
330
0
100
AcDbSymbolTable
 70
     1
  0
STYLE
  5
11
330
3
100
AcDbSymbolTableRecord
100
AcDbTextStyleTableRecord
  2
STANDARD
 70
     0
 40
0.0
 41
1.0
 50
0.0
 71
     0
 42
0.2
  3
txt
  4

  0
ENDTAB
  0
TABLE
  2
VIEW
  5
6
330
0
100
AcDbSymbolTable
 70
     0
  0
ENDTAB
  0
TABLE
  2
UCS
  5
7
330
0
100
AcDbSymbolTable
 70
     0
  0
ENDTAB
  0
TABLE
  2
APPID
  5
9
330
0
100
AcDbSymbolTable
 70
     2
  0
APPID
  5
12
330
9
100
AcDbSymbolTableRecord
100
AcDbRegAppTableRecord
  2
ACAD
 70
     0
  0
APPID
  5
3F
330
9
100
AcDbSymbolTableRecord
100
AcDbRegAppTableRecord
  2
ODA
 70
     0
  0
ENDTAB
  0
TABLE
  2
DIMSTYLE
  5
A
330
0
100
AcDbSymbolTable
 70
     1
  0
DIMSTYLE
105
27
330
A
100
AcDbSymbolTableRecord
100
AcDbDimStyleTableRecord
  2
STANDARD
 70
     0
  3

  4

  5

  6

  7

 40
1.0
 41
0.18
 42
0.0625
 43
0.38
 44
0.18
 45
0.0
 46
0.0
 47
0.0
 48
0.0
140
0.18
141
0.09
142
0.0
143
25.4
144
1.0
145
0.0
146
1.0
147
0.09
 71
     0
 72
     0
 73
     1
 74
     1
 75
     0
 76
     0
 77
     0
 78
     0
170
     0
171
     2
172
     0
173
     0
174
     0
175
     0
176
     0
177
     0
178
     0
270
     2
271
     4
272
     4
273
     2
274
     2
340
11
275
     0
280
     0
281
     0
282
     0
283
     1
284
     0
285
     0
286
     0
287
     3
288
     0
  0
ENDTAB
  0
TABLE
  2
BLOCK_RECORD
  5
1
330
0
100
AcDbSymbolTable
 70
     1
  0
BLOCK_RECORD
  5
1F
330
1
100
AcDbSymbolTableRecord
100
AcDbBlockTableRecord
  2
*MODEL_SPACE
  0
BLOCK_RECORD
  5
1B
330
1
100
AcDbSymbolTableRecord
100
AcDbBlockTableRecord
  2
*PAPER_SPACE
  0
ENDTAB
  0
ENDSEC
  0
SECTION
  2
BLOCKS
  0
BLOCK
  5
20
330
1F
100
AcDbEntity
  8
0
100
AcDbBlockBegin
  2
*MODEL_SPACE
 70
     0
 10
0.0
 20
0.0
 30
0.0
  3
*MODEL_SPACE
  1

  0
ENDBLK
  5
21
330
1F
100
AcDbEntity
  8
0
100
AcDbBlockEnd
  0
BLOCK
  5
1C
330
1B
100
AcDbEntity
 67
     1
  8
0
100
AcDbBlockBegin
  2
*PAPER_SPACE
 70
     0
 10
0.0
 20
0.0
 30
0.0
  3
*PAPER_SPACE
  1

  0
ENDBLK
  5
1D
330
1B
100
AcDbEntity
 67
     1
  8
0
100
AcDbBlockEnd
  0
ENDSEC
  0
SECTION
  2
ENTITIES
  0
SPLINE
  5
41
330
1F
100
AcDbEntity
  8
DEFAULT_2
 62
   250
100
AcDbSpline
210
0.0
220
0.0
230
1.0
 70
    11
 71
     3
 72
    92
 73
    88
 74
     0
 42
0.0000000001
 43
0.0000000001
 40
0.0
 40
0.0
 40
0.0
 40
0.0
 40
0.0434782608695652
 40
0.0434782608695652
 40
0.0434782608695652
 40
0.0434782608695652
 40
0.0869565217391304
 40
0.0869565217391304
 40
0.0869565217391304
 40
0.0869565217391304
 40
0.1304347826086956
 40
0.1304347826086956
 40
0.1304347826086956
 40
0.1304347826086956
 40
0.1739130434782609
 40
0.1739130434782609
 40
0.1739130434782609
 40
0.1739130434782609
 40
0.2173913043478261
 40
0.2173913043478261
 40
0.2173913043478261
 40
0.2173913043478261
 40
0.2608695652173913
 40
0.2608695652173913
 40
0.2608695652173913
 40
0.2608695652173913
 40
0.3043478260869565
 40
0.3043478260869565
 40
0.3043478260869565
 40
0.3043478260869565
 40
0.3478260869565217
 40
0.3478260869565217
 40
0.3478260869565217
 40
0.3478260869565217
 40
0.391304347826087
 40
0.391304347826087
 40
0.391304347826087
 40
0.391304347826087
 40
0.4347826086956522
 40
0.4347826086956522
 40
0.4347826086956522
 40
0.4347826086956522
 40
0.4782608695652174
 40
0.4782608695652174
 40
0.4782608695652174
 40
0.4782608695652174
 40
0.5217391304347826
 40
0.5217391304347826
 40
0.5217391304347826
 40
0.5217391304347826
 40
0.5652173913043478
 40
0.5652173913043478
 40
0.5652173913043478
 40
0.5652173913043478
 40
0.6086956521739131
 40
0.6086956521739131
 40
0.6086956521739131
 40
0.6086956521739131
 40
0.6521739130434783
 40
0.6521739130434783
 40
0.6521739130434783
 40
0.6521739130434783
 40
0.6956521739130435
 40
0.6956521739130435
 40
0.6956521739130435
 40
0.6956521739130435
 40
0.7391304347826086
 40
0.7391304347826086
 40
0.7391304347826086
 40
0.7391304347826086
 40
0.782608695652174
 40
0.782608695652174
 40
0.782608695652174
 40
0.782608695652174
 40
0.8260869565217391
 40
0.8260869565217391
 40
0.8260869565217391
 40
0.8260869565217391
 40
0.8695652173913043
 40
0.8695652173913043
 40
0.8695652173913043
 40
0.8695652173913043
 40
0.9130434782608695
 40
0.9130434782608695
 40
0.9130434782608695
 40
0.9130434782608695
 40
1.0
 40
1.0
 40
1.0
 40
1.0
 10
-3.2606
 20
-32.4979
 30
0.0
 10
-3.2606
 20
-32.4979
 30
0.0
 10
-3.2606
 20
-32.7364
 30
0.0
 10
-3.2606
 20
-32.7364
 30
0.0
 10
-3.2606
 20
-32.7364
 30
0.0
 10
-3.2606
 20
-32.7364
 30
0.0
 10
-4.596
 20
-32.7364
 30
0.0
 10
-4.596
 20
-32.7364
 30
0.0
 10
-4.596
 20
-32.7364
 30
0.0
 10
-4.5979
 20
-32.6767
 30
0.0
 10
-4.5885
 20
-32.6193
 30
0.0
 10
-4.5673
 20
-32.5643
 30
0.0
 10
-4.5673
 20
-32.5643
 30
0.0
 10
-4.5334
 20
-32.473
 30
0.0
 10
-4.4789
 20
-32.3836
 30
0.0
 10
-4.4041
 20
-32.2952
 30
0.0
 10
-4.4041
 20
-32.2952
 30
0.0
 10
-4.3288
 20
-32.2072
 30
0.0
 10
-4.2206
 20
-32.1052
 30
0.0
 10
-4.0795
 20
-31.9895
 30
0.0
 10
-4.0795
 20
-31.9895
 30
0.0
 10
-3.8599
 20
-31.8093
 30
0.0
 10
-3.7112
 20
-31.6668
 30
0.0
 10
-3.6341
 20
-31.5614
 30
0.0
 10
-3.6341
 20
-31.5614
 30
0.0
 10
-3.557
 20
-31.4566
 30
0.0
 10
-3.5184
 20
-31.3568
 30
0.0
 10
-3.5184
 20
-31.2632
 30
0.0
 10
-3.5184
 20
-31.2632
 30
0.0
 10
-3.5184
 20
-31.1649
 30
0.0
 10
-3.5537
 20
-31.0821
 30
0.0
 10
-3.6238
 20
-31.0144
 30
0.0
 10
-3.6238
 20
-31.0144
 30
0.0
 10
-3.6943
 20
-30.9472
 30
0.0
 10
-3.786
 20
-30.9133
 30
0.0
 10
-3.8989
 20
-30.9133
 30
0.0
 10
-3.8989
 20
-30.9133
 30
0.0
 10
-4.0184
 20
-30.9133
 30
0.0
 10
-4.1139
 20
-30.949
 30
0.0
 10
-4.1854
 20
-31.021
 30
0.0
 10
-4.1854
 20
-31.021
 30
0.0
 10
-4.2573
 20
-31.0925
 30
0.0
 10
-4.2936
 20
-31.1917
 30
0.0
 10
-4.2945
 20
-31.3183
 30
0.0
 10
-4.2945
 20
-31.3183
 30
0.0
 10
-4.2945
 20
-31.3183
 30
0.0
 10
-4.5494
 20
-31.2924
 30
0.0
 10
-4.5494
 20
-31.2924
 30
0.0
 10
-4.5494
 20
-31.2924
 30
0.0
 10
-4.532
 20
-31.1019
 30
0.0
 10
-4.4662
 20
-30.957
 30
0.0
 10
-4.3524
 20
-30.8573
 30
0.0
 10
-4.3524
 20
-30.8573
 30
0.0
 10
-4.2385
 20
-30.7576
 30
0.0
 10
-4.0852
 20
-30.7077
 30
0.0
 10
-3.8933
 20
-30.7077
 30
0.0
 10
-3.8933
 20
-30.7077
 30
0.0
 10
-3.6995
 20
-30.7077
 30
0.0
 10
-3.5461
 20
-30.7618
 30
0.0
 10
-3.4333
 20
-30.8691
 30
0.0
 10
-3.4333
 20
-30.8691
 30
0.0
 10
-3.3199
 20
-30.9768
 30
0.0
 10
-3.2635
 20
-31.1099
 30
0.0
 10
-3.2635
 20
-31.2689
 30
0.0
 10
-3.2635
 20
-31.2689
 30
0.0
 10
-3.2635
 20
-31.3498
 30
0.0
 10
-3.2799
 20
-31.4293
 30
0.0
 10
-3.3133
 20
-31.5073
 30
0.0
 10
-3.3133
 20
-31.5073
 30
0.0
 10
-3.3462
 20
-31.5854
 30
0.0
 10
-3.4013
 20
-31.6677
 30
0.0
 10
-3.4779
 20
-31.7538
 30
0.0
 10
-3.4779
 20
-31.7538
 30
0.0
 10
-3.5546
 20
-31.8404
 30
0.0
 10
-3.6821
 20
-31.9589
 30
0.0
 10
-3.8603
 20
-32.1094
 30
0.0
 10
-3.8603
 20
-32.1094
 30
0.0
 10
-4.009
 20
-32.2345
 30
0.0
 10
-4.1045
 20
-32.3192
 30
0.0
 10
-4.1468
 20
-32.3639
 30
0.0
 10
-4.1468
 20
-32.3639
 30
0.0
 10
-4.1891
 20
-32.4081
 30
0.0
 10
-4.2239
 20
-32.4528
 30
0.0
 10
-4.2517
 20
-32.4979
 30
0.0
 10
-4.2517
 20
-32.4979
 30
0.0
 10
-4.2517
 20
-32.4979
 30
0.0
 10
-3.2606
 20
-32.4979
 30
0.0
 10
-3.2606
 20
-32.4979
 30
0.0
  0
SPLINE
  5
42
330
1F
100
AcDbEntity
  8
DEFAULT_2
 62
   250
100
AcDbSpline
210
0.0
220
0.0
230
1.0
 70
    11
 71
     3
 72
    68
 73
    64
 74
     0
 42
0.0000000001
 43
0.0000000001
 40
0.0
 40
0.0
 40
0.0
 40
0.0
 40
0.0588235294117647
 40
0.0588235294117647
 40
0.0588235294117647
 40
0.0588235294117647
 40
0.1176470588235294
 40
0.1176470588235294
 40
0.1176470588235294
 40
0.1176470588235294
 40
0.1764705882352941
 40
0.1764705882352941
 40
0.1764705882352941
 40
0.1764705882352941
 40
0.2352941176470588
 40
0.2352941176470588
 40
0.2352941176470588
 40
0.2352941176470588
 40
0.2941176470588235
 40
0.2941176470588235
 40
0.2941176470588235
 40
0.2941176470588235
 40
0.3529411764705883
 40
0.3529411764705883
 40
0.3529411764705883
 40
0.3529411764705883
 40
0.4117647058823529
 40
0.4117647058823529
 40
0.4117647058823529
 40
0.4117647058823529
 40
0.4705882352941176
 40
0.4705882352941176
 40
0.4705882352941176
 40
0.4705882352941176
 40
0.5294117647058824
 40
0.5294117647058824
 40
0.5294117647058824
 40
0.5294117647058824
 40
0.5882352941176471
 40
0.5882352941176471
 40
0.5882352941176471
 40
0.5882352941176471
 40
0.6470588235294118
 40
0.6470588235294118
 40
0.6470588235294118
 40
0.6470588235294118
 40
0.7058823529411765
 40
0.7058823529411765
 40
0.7058823529411765
 40
0.7058823529411765
 40
0.7647058823529411
 40
0.7647058823529411
 40
0.7647058823529411
 40
0.7647058823529411
 40
0.8235294117647058
 40
0.8235294117647058
 40
0.8235294117647058
 40
0.8235294117647058
 40
0.8823529411764706
 40
0.8823529411764706
 40
0.8823529411764706
 40
0.8823529411764706
 40
1.0
 40
1.0
 40
1.0
 40
1.0
 10
-2.6129
 20
-31.6409
 30
0.0
 10
-2.716
 20
-31.6033
 30
0.0
 10
-2.7922
 20
-31.5497
 30
0.0
 10
-2.842
 20
-31.4796
 30
0.0
 10
-2.842
 20
-31.4796
 30
0.0
 10
-2.8914
 20
-31.41
 30
0.0
 10
-2.9163
 20
-31.3263
 30
0.0
 10
-2.9163
 20
-31.2289
 30
0.0
 10
-2.9163
 20
-31.2289
 30
0.0
 10
-2.9163
 20
-31.0817
 30
0.0
 10
-2.8636
 20
-30.9584
 30
0.0
 10
-2.7578
 20
-30.8582
 30
0.0
 10
-2.7578
 20
-30.8582
 30
0.0
 10
-2.652
 20
-30.7581
 30
0.0
 10
-2.5118
 20
-30.7077
 30
0.0
 10
-2.3364
 20
-30.7077
 30
0.0
 10
-2.3364
 20
-30.7077
 30
0.0
 10
-2.16
 20
-30.7077
 30
0.0
 10
-2.0179
 20
-30.759
 30
0.0
 10
-1.9102
 20
-30.8615
 30
0.0
 10
-1.9102
 20
-30.8615
 30
0.0
 10
-1.803
 20
-30.9641
 30
0.0
 10
-1.7494
 20
-31.0887
 30
0.0
 10
-1.7494
 20
-31.236
 30
0.0
 10
-1.7494
 20
-31.236
 30
0.0
 10
-1.7494
 20
-31.3296
 30
0.0
 10
-1.7738
 20
-31.4109
 30
0.0
 10
-1.8227
 20
-31.4805
 30
0.0
 10
-1.8227
 20
-31.4805
 30
0.0
 10
-1.8721
 20
-31.5497
 30
0.0
 10
-1.9464
 20
-31.6033
 30
0.0
 10
-2.0466
 20
-31.6409
 30
0.0
 10
-2.0466
 20
-31.6409
 30
0.0
 10
-1.9229
 20
-31.6814
 30
0.0
 10
-1.8284
 20
-31.7463
 30
0.0
 10
-1.7635
 20
-31.8366
 30
0.0
 10
-1.7635
 20
-31.8366
 30
0.0
 10
-1.699
 20
-31.9264
 30
0.0
 10
-1.6666
 20
-32.0342
 30
0.0
 10
-1.6666
 20
-32.1588
 30
0.0
 10
-1.6666
 20
-32.1588
 30
0.0
 10
-1.6666
 20
-32.3319
 30
0.0
 10
-1.7277
 20
-32.4768
 30
0.0
 10
-1.8495
 20
-32.5944
 30
0.0
 10
-1.8495
 20
-32.5944
 30
0.0
 10
-1.9718
 20
-32.7119
 30
0.0
 10
-2.1327
 20
-32.7707
 30
0.0
 10
-2.3321
 20
-32.7707
 30
0.0
 10
-2.3321
 20
-32.7707
 30
0.0
 10
-2.5316
 20
-32.7707
 30
0.0
 10
-2.692
 20
-32.7119
 30
0.0
 10
-2.8143
 20
-32.5939
 30
0.0
 10
-2.8143
 20
-32.5939
 30
0.0
 10
-2.9366
 20
-32.4758
 30
0.0
 10
-2.9977
 20
-32.3286
 30
0.0
 10
-2.9977
 20
-32.1522
 30
0.0
 10
-2.9977
 20
-32.1522
 30
0.0
 10
-2.9977
 20
-32.021
 30
0.0
 10
-2.9643
 20
-31.9109
 30
0.0
 10
-2.8975
 20
-31.822
 30
0.0
 10
-2.8975
 20
-31.822
 30
0.0
 10
-2.8312
 20
-31.7336
 30
0.0
 10
-2.7362
 20
-31.6729
 30
0.0
 10
-2.6129
 20
-31.6409
 30
0.0
  0
SPLINE
  5
43
330
1F
100
AcDbEntity
  8
DEFAULT_2
 62
   250
100
AcDbSpline
210
0.0
220
0.0
230
1.0
 70
    11
 71
     3
 72
    36
 73
    32
 74
     0
 42
0.0000000001
 43
0.0000000001
 40
0.0
 40
0.0
 40
0.0
 40
0.0
 40
0.1111111111111111
 40
0.1111111111111111
 40
0.1111111111111111
 40
0.1111111111111111
 40
0.2222222222222222
 40
0.2222222222222222
 40
0.2222222222222222
 40
0.2222222222222222
 40
0.3333333333333333
 40
0.3333333333333333
 40
0.3333333333333333
 40
0.3333333333333333
 40
0.4444444444444444
 40
0.4444444444444444
 40
0.4444444444444444
 40
0.4444444444444444
 40
0.5555555555555556
 40
0.5555555555555556
 40
0.5555555555555556
 40
0.5555555555555556
 40
0.6666666666666666
 40
0.6666666666666666
 40
0.6666666666666666
 40
0.6666666666666666
 40
0.7777777777777778
 40
0.7777777777777778
 40
0.7777777777777778
 40
0.7777777777777778
 40
1.0
 40
1.0
 40
1.0
 40
1.0
 10
-2.6628
 20
-31.2204
 30
0.0
 10
-2.6628
 20
-31.3159
 30
0.0
 10
-2.6318
 20
-31.394
 30
0.0
 10
-2.5706
 20
-31.4547
 30
0.0
 10
-2.5706
 20
-31.4547
 30
0.0
 10
-2.509
 20
-31.5153
 30
0.0
 10
-2.429
 20
-31.5459
 30
0.0
 10
-2.3307
 20
-31.5459
 30
0.0
 10
-2.3307
 20
-31.5459
 30
0.0
 10
-2.2352
 20
-31.5459
 30
0.0
 10
-2.1567
 20
-31.5158
 30
0.0
 10
-2.0955
 20
-31.4556
 30
0.0
 10
-2.0955
 20
-31.4556
 30
0.0
 10
-2.0344
 20
-31.3954
 30
0.0
 10
-2.0043
 20
-31.3216
 30
0.0
 10
-2.0043
 20
-31.2345
 30
0.0
 10
-2.0043
 20
-31.2345
 30
0.0
 10
-2.0043
 20
-31.1433
 30
0.0
 10
-2.0353
 20
-31.0671
 30
0.0
 10
-2.0984
 20
-31.005
 30
0.0
 10
-2.0984
 20
-31.005
 30
0.0
 10
-2.1614
 20
-30.9429
 30
0.0
 10
-2.2395
 20
-30.9119
 30
0.0
 10
-2.3336
 20
-30.9119
 30
0.0
 10
-2.3336
 20
-30.9119
 30
0.0
 10
-2.4281
 20
-30.9119
 30
0.0
 10
-2.5066
 20
-30.9424
 30
0.0
 10
-2.5692
 20
-31.0027
 30
0.0
 10
-2.5692
 20
-31.0027
 30
0.0
 10
-2.6318
 20
-31.0633
 30
0.0
 10
-2.6628
 20
-31.1362
 30
0.0
 10
-2.6628
 20
-31.2204
 30
0.0
  0
SPLINE
  5
44
330
1F
100
AcDbEntity
  8
DEFAULT_2
 62
   250
100
AcDbSpline
210
0.0
220
0.0
230
1.0
 70
    11
 71
     3
 72
    40
 73
    36
 74
     0
 42
0.0000000001
 43
0.0000000001
 40
0.0
 40
0.0
 40
0.0
 40
0.0
 40
0.1
 40
0.1
 40
0.1
 40
0.1
 40
0.2
 40
0.2
 40
0.2
 40
0.2
 40
0.3
 40
0.3
 40
0.3
 40
0.3
 40
0.4
 40
0.4
 40
0.4
 40
0.4
 40
0.5
 40
0.5
 40
0.5
 40
0.5
 40
0.6
 40
0.6
 40
0.6
 40
0.6
 40
0.7
 40
0.7
 40
0.7
 40
0.7
 40
0.8
 40
0.8
 40
0.8
 40
0.8
 40
1.0
 40
1.0
 40
1.0
 40
1.0
 10
-2.7428
 20
-32.1536
 30
0.0
 10
-2.7428
 20
-32.2242
 30
0.0
 10
-2.7258
 20
-32.2928
 30
0.0
 10
-2.6924
 20
-32.3587
 30
0.0
 10
-2.6924
 20
-32.3587
 30
0.0
 10
-2.659
 20
-32.425
 30
0.0
 10
-2.6092
 20
-32.4763
 30
0.0
 10
-2.5429
 20
-32.5125
 30
0.0
 10
-2.5429
 20
-32.5125
 30
0.0
 10
-2.4765
 20
-32.5487
 30
0.0
 10
-2.4055
 20
-32.5671
 30
0.0
 10
-2.3293
 20
-32.5671
 30
0.0
 10
-2.3293
 20
-32.5671
 30
0.0
 10
-2.2108
 20
-32.5671
 30
0.0
 10
-2.113
 20
-32.529
 30
0.0
 10
-2.0358
 20
-32.4523
 30
0.0
 10
-2.0358
 20
-32.4523
 30
0.0
 10
-1.9587
 20
-32.3761
 30
0.0
 10
-1.9201
 20
-32.2792
 30
0.0
 10
-1.9201
 20
-32.1616
 30
0.0
 10
-1.9201
 20
-32.1616
 30
0.0
 10
-1.9201
 20
-32.0421
 30
0.0
 10
-1.9596
 20
-31.9434
 30
0.0
 10
-2.0391
 20
-31.8653
 30
0.0
 10
-2.0391
 20
-31.8653
 30
0.0
 10
-2.1186
 20
-31.7872
 30
0.0
 10
-2.2183
 20
-31.7482
 30
0.0
 10
-2.3378
 20
-31.7482
 30
0.0
 10
-2.3378
 20
-31.7482
 30
0.0
 10
-2.4544
 20
-31.7482
 30
0.0
 10
-2.5509
 20
-31.7867
 30
0.0
 10
-2.6275
 20
-31.8639
 30
0.0
 10
-2.6275
 20
-31.8639
 30
0.0
 10
-2.7042
 20
-31.9415
 30
0.0
 10
-2.7428
 20
-32.0379
 30
0.0
 10
-2.7428
 20
-32.1536
 30
0.0
  0
SPLINE
  5
45
330
1F
100
AcDbEntity
  8
DEFAULT_2
 62
   250
100
AcDbSpline
210
0.0
220
0.0
230
1.0
 70
    11
 71
     3
 72
    52
 73
    48
 74
     0
 42
0.0000000001
 43
0.0000000001
 40
0.0
 40
0.0
 40
0.0
 40
0.0
 40
0.0769230769230769
 40
0.0769230769230769
 40
0.0769230769230769
 40
0.0769230769230769
 40
0.1538461538461539
 40
0.1538461538461539
 40
0.1538461538461539
 40
0.1538461538461539
 40
0.2307692307692308
 40
0.2307692307692308
 40
0.2307692307692308
 40
0.2307692307692308
 40
0.3076923076923077
 40
0.3076923076923077
 40
0.3076923076923077
 40
0.3076923076923077
 40
0.3846153846153846
 40
0.3846153846153846
 40
0.3846153846153846
 40
0.3846153846153846
 40
0.4615384615384616
 40
0.4615384615384616
 40
0.4615384615384616
 40
0.4615384615384616
 40
0.5384615384615384
 40
0.5384615384615384
 40
0.5384615384615384
 40
0.5384615384615384
 40
0.6153846153846154
 40
0.6153846153846154
 40
0.6153846153846154
 40
0.6153846153846154
 40
0.6923076923076923
 40
0.6923076923076923
 40
0.6923076923076923
 40
0.6923076923076923
 40
0.7692307692307693
 40
0.7692307692307693
 40
0.7692307692307693
 40
0.7692307692307693
 40
0.8461538461538461
 40
0.8461538461538461
 40
0.8461538461538461
 40
0.8461538461538461
 40
1.0
 40
1.0
 40
1.0
 40
1.0
 10
-1.4253
 20
-31.7402
 30
0.0
 10
-1.4253
 20
-31.5012
 30
0.0
 10
-1.4008
 20
-31.3088
 30
0.0
 10
-1.3514
 20
-31.1635
 30
0.0
 10
-1.3514
 20
-31.1635
 30
0.0
 10
-1.3025
 20
-31.0177
 30
0.0
 10
-1.2291
 20
-30.9053
 30
0.0
 10
-1.1322
 20
-30.8263
 30
0.0
 10
-1.1322
 20
-30.8263
 30
0.0
 10
-1.0353
 20
-30.7472
 30
0.0
 10
-0.9135
 20
-30.7077
 30
0.0
 10
-0.7668
 20
-30.7077
 30
0.0
 10
-0.7668
 20
-30.7077
 30
0.0
 10
-0.6581
 20
-30.7077
 30
0.0
 10
-0.5631
 20
-30.7298
 30
0.0
 10
-0.4813
 20
-30.7736
 30
0.0
 10
-0.4813
 20
-30.7736
 30
0.0
 10
-0.3994
 20
-30.8169
 30
0.0
 10
-0.3322
 20
-30.8799
 30
0.0
 10
-0.2785
 20
-30.9622
 30
0.0
 10
-0.2785
 20
-30.9622
 30
0.0
 10
-0.2254
 20
-31.0445
 30
0.0
 10
-0.1835
 20
-31.1447
 30
0.0
 10
-0.1534
 20
-31.2628
 30
0.0
 10
-0.1534
 20
-31.2628
 30
0.0
 10
-0.1228
 20
-31.3808
 30
0.0
 10
-0.1078
 20
-31.5398
 30
0.0
 10
-0.1078
 20
-31.7402
 30
0.0
 10
-0.1078
 20
-31.7402
 30
0.0
 10
-0.1078
 20
-31.9772
 30
0.0
 10
-0.1323
 20
-32.1682
 30
0.0
 10
-0.1807
 20
-32.314
 30
0.0
 10
-0.1807
 20
-32.314
 30
0.0
 10
-0.2296
 20
-32.4598
 30
0.0
 10
-0.3025
 20
-32.5723
 30
0.0
 10
-0.3994
 20
-32.6517
 30
0.0
 10
-0.3994
 20
-32.6517
 30
0.0
 10
-0.4963
 20
-32.7312
 30
0.0
 10
-0.6186
 20
-32.7707
 30
0.0
 10
-0.7668
 20
-32.7707
 30
0.0
 10
-0.7668
 20
-32.7707
 30
0.0
 10
-0.9615
 20
-32.7707
 30
0.0
 10
-1.1144
 20
-32.7011
 30
0.0
 10
-1.2254
 20
-32.5614
 30
0.0
 10
-1.2254
 20
-32.5614
 30
0.0
 10
-1.3585
 20
-32.3935
 30
0.0
 10
-1.4253
 20
-32.1193
 30
0.0
 10
-1.4253
 20
-31.7402
 30
0.0
  0
SPLINE
  5
46
330
1F
100
AcDbEntity
  8
DEFAULT_2
 62
   250
100
AcDbSpline
210
0.0
220
0.0
230
1.0
 70
    11
 71
     3
 72
    36
 73
    32
 74
     0
 42
0.0000000001
 43
0.0000000001
 40
0.0
 40
0.0
 40
0.0
 40
0.0
 40
0.1111111111111111
 40
0.1111111111111111
 40
0.1111111111111111
 40
0.1111111111111111
 40
0.2222222222222222
 40
0.2222222222222222
 40
0.2222222222222222
 40
0.2222222222222222
 40
0.3333333333333333
 40
0.3333333333333333
 40
0.3333333333333333
 40
0.3333333333333333
 40
0.4444444444444444
 40
0.4444444444444444
 40
0.4444444444444444
 40
0.4444444444444444
 40
0.5555555555555556
 40
0.5555555555555556
 40
0.5555555555555556
 40
0.5555555555555556
 40
0.6666666666666666
 40
0.6666666666666666
 40
0.6666666666666666
 40
0.6666666666666666
 40
0.7777777777777778
 40
0.7777777777777778
 40
0.7777777777777778
 40
0.7777777777777778
 40
1.0
 40
1.0
 40
1.0
 40
1.0
 10
-1.1703
 20
-31.7402
 30
0.0
 10
-1.1703
 20
-32.0718
 30
0.0
 10
-1.1313
 20
-32.2924
 30
0.0
 10
-1.0537
 20
-32.4024
 30
0.0
 10
-1.0537
 20
-32.4024
 30
0.0
 10
-0.9761
 20
-32.512
 30
0.0
 10
-0.8806
 20
-32.5671
 30
0.0
 10
-0.7668
 20
-32.5671
 30
0.0
 10
-0.7668
 20
-32.5671
 30
0.0
 10
-0.6525
 20
-32.5671
 30
0.0
 10
-0.557
 20
-32.5116
 30
0.0
 10
-0.4794
 20
-32.4015
 30
0.0
 10
-0.4794
 20
-32.4015
 30
0.0
 10
-0.4018
 20
-32.2914
 30
0.0
 10
-0.3627
 20
-32.0708
 30
0.0
 10
-0.3627
 20
-31.7402
 30
0.0
 10
-0.3627
 20
-31.7402
 30
0.0
 10
-0.3627
 20
-31.4076
 30
0.0
 10
-0.4018
 20
-31.1866
 30
0.0
 10
-0.4794
 20
-31.0774
 30
0.0
 10
-0.4794
 20
-31.0774
 30
0.0
 10
-0.557
 20
-30.9678
 30
0.0
 10
-0.6534
 20
-30.9133
 30
0.0
 10
-0.7691
 20
-30.9133
 30
0.0
 10
-0.7691
 20
-30.9133
 30
0.0
 10
-0.8834
 20
-30.9133
 30
0.0
 10
-0.9742
 20
-30.9617
 30
0.0
 10
-1.0424
 20
-31.0581
 30
0.0
 10
-1.0424
 20
-31.0581
 30
0.0
 10
-1.1275
 20
-31.1809
 30
0.0
 10
-1.1703
 20
-31.4086
 30
0.0
 10
-1.1703
 20
-31.7402
 30
0.0
  0
SPLINE
  5
47
330
1F
100
AcDbEntity
  8
DEFAULT_2
 62
   250
100
AcDbSpline
210
0.0
220
0.0
230
1.0
 70
    11
 71
     3
 72
    20
 73
    16
 74
     0
 42
0.0000000001
 43
0.0000000001
 40
0.0
 40
0.0
 40
0.0
 40
0.0
 40
0.2
 40
0.2
 40
0.2
 40
0.2
 40
0.4
 40
0.4
 40
0.4
 40
0.4
 40
0.6
 40
0.6
 40
0.6
 40
0.6
 40
1.0
 40
1.0
 40
1.0
 40
1.0
 10
7.7748
 20
-32.7765
 30
0.0
 10
7.7748
 20
-32.7765
 30
0.0
 10
10.7748
 20
-33.1998
 30
0.0
 10
10.7748
 20
-33.1998
 30
0.0
 10
10.7748
 20
-33.1998
 30
0.0
 10
10.7748
 20
-33.1998
 30
0.0
 10
10.7748
 20
-33.2939
 30
0.0
 10
10.7748
 20
-33.2939
 30
0.0
 10
10.7748
 20
-33.2939
 30
0.0
 10
10.7748
 20
-33.2939
 30
0.0
 10
7.7748
 20
-33.7454
 30
0.0
 10
7.7748
 20
-33.7454
 30
0.0
 10
7.7748
 20
-33.7454
 30
0.0
 10
7.7748
 20
-33.7454
 30
0.0
 10
7.7748
 20
-32.7765
 30
0.0
 10
7.7748
 20
-32.7765
 30
0.0
  0
SPLINE
  5
48
330
1F
100
AcDbEntity
  8
DEFAULT_2
 62
   250
100
AcDbSpline
210
0.0
220
0.0
230
1.0
 70
    11
 71
     3
 72
    20
 73
    16
 74
     0
 42
0.0000000001
 43
0.0000000001
 40
0.0
 40
0.0
 40
0.0
 40
0.0
 40
0.2
 40
0.2
 40
0.2
 40
0.2
 40
0.4
 40
0.4
 40
0.4
 40
0.4
 40
0.6
 40
0.6
 40
0.6
 40
0.6
 40
1.0
 40
1.0
 40
1.0
 40
1.0
 10
-12.9051
 20
-33.6777
 30
0.0
 10
-12.9051
 20
-33.6777
 30
0.0
 10
-15.9051
 20
-33.2543
 30
0.0
 10
-15.9051
 20
-33.2543
 30
0.0
 10
-15.9051
 20
-33.2543
 30
0.0
 10
-15.9051
 20
-33.2543
 30
0.0
 10
-15.9051
 20
-33.1602
 30
0.0
 10
-15.9051
 20
-33.1602
 30
0.0
 10
-15.9051
 20
-33.1602
 30
0.0
 10
-15.9051
 20
-33.1602
 30
0.0
 10
-12.9051
 20
-32.7087
 30
0.0
 10
-12.9051
 20
-32.7087
 30
0.0
 10
-12.9051
 20
-32.7087
 30
0.0
 10
-12.9051
 20
-32.7087
 30
0.0
 10
-12.9051
 20
-33.6777
 30
0.0
 10
-12.9051
 20
-33.6777
 30
0.0
  0
SPLINE
  5
49
330
1F
100
AcDbEntity
  8
DEFAULT_2
 62
   250
100
AcDbSpline
210
0.0
220
0.0
230
1.0
 70
    11
 71
     3
 72
    20
 73
    16
 74
     0
 42
0.0000000001
 43
0.0000000001
 40
0.0
 40
0.0
 40
0.0
 40
0.0
 40
0.2
 40
0.2
 40
0.2
 40
0.2
 40
0.4
 40
0.4
 40
0.4
 40
0.4
 40
0.6
 40
0.6
 40
0.6
 40
0.6
 40
1.0
 40
1.0
 40
1.0
 40
1.0
 10
-20.0834
 20
-22.1525
 30
0.0
 10
-20.0834
 20
-22.1525
 30
0.0
 10
-20.5067
 20
-25.1525
 30
0.0
 10
-20.5067
 20
-25.1525
 30
0.0
 10
-20.5067
 20
-25.1525
 30
0.0
 10
-20.5067
 20
-25.1525
 30
0.0
 10
-20.6008
 20
-25.1525
 30
0.0
 10
-20.6008
 20
-25.1525
 30
0.0
 10
-20.6008
 20
-25.1525
 30
0.0
 10
-20.6008
 20
-25.1525
 30
0.0
 10
-21.0523
 20
-22.1525
 30
0.0
 10
-21.0523
 20
-22.1525
 30
0.0
 10
-21.0523
 20
-22.1525
 30
0.0
 10
-21.0523
 20
-22.1525
 30
0.0
 10
-20.0834
 20
-22.1525
 30
0.0
 10
-20.0834
 20
-22.1525
 30
0.0
  0
SPLINE
  5
4A
330
1F
100
AcDbEntity
  8
DEFAULT_2
 62
   250
100
AcDbSpline
210
0.0
220
0.0
230
1.0
 70
    11
 71
     3
 72
    20
 73
    16
 74
     0
 42
0.0000000001
 43
0.0000000001
 40
0.0
 40
0.0
 40
0.0
 40
0.0
 40
0.2
 40
0.2
 40
0.2
 40
0.2
 40
0.4
 40
0.4
 40
0.4
 40
0.4
 40
0.6
 40
0.6
 40
0.6
 40
0.6
 40
1.0
 40
1.0
 40
1.0
 40
1.0
 10
-21.0806
 20
29.3836
 30
0.0
 10
-21.0806
 20
29.3836
 30
0.0
 10
-20.6571
 20
32.3836
 30
0.0
 10
-20.6571
 20
32.3836
 30
0.0
 10
-20.6571
 20
32.3836
 30
0.0
 10
-20.6571
 20
32.3836
 30
0.0
 10
-20.5631
 20
32.3836
 30
0.0
 10
-20.5631
 20
32.3836
 30
0.0
 10
-20.5631
 20
32.3836
 30
0.0
 10
-20.5631
 20
32.3836
 30
0.0
 10
-20.1115
 20
29.3836
 30
0.0
 10
-20.1115
 20
29.3836
 30
0.0
 10
-20.1115
 20
29.3836
 30
0.0
 10
-20.1115
 20
29.3836
 30
0.0
 10
-21.0806
 20
29.3836
 30
0.0
 10
-21.0806
 20
29.3836
 30
0.0
  0
SPLINE
  5
4B
330
1F
100
AcDbEntity
  8
DEFAULT_2
 62
   250
100
AcDbSpline
210
0.0
220
0.0
230
1.0
 70
    11
 71
     3
 72
    80
 73
    76
 74
     0
 42
0.0000000001
 43
0.0000000001
 40
0.0
 40
0.0
 40
0.0
 40
0.0
 40
0.05
 40
0.05
 40
0.05
 40
0.05
 40
0.1
 40
0.1
 40
0.1
 40
0.1
 40
0.15
 40
0.15
 40
0.15
 40
0.15
 40
0.2
 40
0.2
 40
0.2
 40
0.2
 40
0.25
 40
0.25
 40
0.25
 40
0.25
 40
0.3
 40
0.3
 40
0.3
 40
0.3
 40
0.35
 40
0.35
 40
0.35
 40
0.35
 40
0.4
 40
0.4
 40
0.4
 40
0.4
 40
0.45
 40
0.45
 40
0.45
 40
0.45
 40
0.5
 40
0.5
 40
0.5
 40
0.5
 40
0.55
 40
0.55
 40
0.55
 40
0.55
 40
0.6
 40
0.6
 40
0.6
 40
0.6
 40
0.65
 40
0.65
 40
0.65
 40
0.65
 40
0.7
 40
0.7
 40
0.7
 40
0.7
 40
0.75
 40
0.75
 40
0.75
 40
0.75
 40
0.8
 40
0.8
 40
0.8
 40
0.8
 40
0.85
 40
0.85
 40
0.85
 40
0.85
 40
0.9
 40
0.9
 40
0.9
 40
0.9
 40
1.0
 40
1.0
 40
1.0
 40
1.0
 10
-22.7473
 20
2.9672
 30
0.0
 10
-22.7473
 20
2.9672
 30
0.0
 10
-22.728
 20
2.7208
 30
0.0
 10
-22.728
 20
2.7208
 30
0.0
 10
-22.728
 20
2.7208
 30
0.0
 10
-22.8254
 20
2.6987
 30
0.0
 10
-22.8964
 20
2.6676
 30
0.0
 10
-22.9401
 20
2.6272
 30
0.0
 10
-22.9401
 20
2.6272
 30
0.0
 10
-23.0111
 20
2.5599
 30
0.0
 10
-23.0464
 20
2.4771
 30
0.0
 10
-23.0464
 20
2.3788
 30
0.0
 10
-23.0464
 20
2.3788
 30
0.0
 10
-23.0464
 20
2.2998
 30
0.0
 10
-23.0243
 20
2.2306
 30
0.0
 10
-22.9801
 20
2.1709
 30
0.0
 10
-22.9801
 20
2.1709
 30
0.0
 10
-22.9232
 20
2.0928
 30
0.0
 10
-22.84
 20
2.0312
 30
0.0
 10
-22.7308
 20
1.986
 30
0.0
 10
-22.7308
 20
1.986
 30
0.0
 10
-22.6217
 20
1.9414
 30
0.0
 10
-22.466
 20
1.9178
 30
0.0
 10
-22.2638
 20
1.916
 30
0.0
 10
-22.2638
 20
1.916
 30
0.0
 10
-22.3545
 20
1.9757
 30
0.0
 10
-22.4223
 20
2.0486
 30
0.0
 10
-22.4665
 20
2.1352
 30
0.0
 10
-22.4665
 20
2.1352
 30
0.0
 10
-22.5102
 20
2.2212
 30
0.0
 10
-22.5323
 20
2.312
 30
0.0
 10
-22.5323
 20
2.4066
 30
0.0
 10
-22.5323
 20
2.4066
 30
0.0
 10
-22.5323
 20
2.5721
 30
0.0
 10
-22.4716
 20
2.7128
 30
0.0
 10
-22.3498
 20
2.8289
 30
0.0
 10
-22.3498
 20
2.8289
 30
0.0
 10
-22.228
 20
2.9451
 30
0.0
 10
-22.0709
 20
3.0034
 30
0.0
 10
-21.8781
 20
3.0034
 30
0.0
 10
-21.8781
 20
3.0034
 30
0.0
 10
-21.7511
 20
3.0034
 30
0.0
 10
-21.6335
 20
2.9757
 30
0.0
 10
-21.5243
 20
2.9211
 30
0.0
 10
-21.5243
 20
2.9211
 30
0.0
 10
-21.4157
 20
2.8666
 30
0.0
 10
-21.332
 20
2.7913
 30
0.0
 10
-21.2741
 20
2.6958
 30
0.0
 10
-21.2741
 20
2.6958
 30
0.0
 10
-21.2163
 20
2.6003
 30
0.0
 10
-21.1876
 20
2.4922
 30
0.0
 10
-21.1876
 20
2.3708
 30
0.0
 10
-21.1876
 20
2.3708
 30
0.0
 10
-21.1876
 20
2.1639
 30
0.0
 10
-21.2633
 20
1.9955
 30
0.0
 10
-21.4157
 20
1.8652
 30
0.0
 10
-21.4157
 20
1.8652
 30
0.0
 10
-21.5676
 20
1.7344
 30
0.0
 10
-21.8183
 20
1.6695
 30
0.0
 10
-22.1673
 20
1.6695
 30
0.0
 10
-22.1673
 20
1.6695
 30
0.0
 10
-22.5577
 20
1.6695
 30
0.0
 10
-22.8414
 20
1.7415
 30
0.0
 10
-23.0187
 20
1.8859
 30
0.0
 10
-23.0187
 20
1.8859
 30
0.0
 10
-23.173
 20
2.0114
 30
0.0
 10
-23.2506
 20
2.1808
 30
0.0
 10
-23.2506
 20
2.3943
 30
0.0
 10
-23.2506
 20
2.3943
 30
0.0
 10
-23.2506
 20
2.5528
 30
0.0
 10
-23.2059
 20
2.6831
 30
0.0
 10
-23.1165
 20
2.7847
 30
0.0
 10
-23.1165
 20
2.7847
 30
0.0
 10
-23.0276
 20
2.8863
 30
0.0
 10
-22.9044
 20
2.947
 30
0.0
 10
-22.7473
 20
2.9672
 30
0.0
  0
SPLINE
  5
4C
330
1F
100
AcDbEntity
  8
DEFAULT_2
 62
   250
100
AcDbSpline
210
0.0
220
0.0
230
1.0
 70
    11
 71
     3
 72
    40
 73
    36
 74
     0
 42
0.0000000001
 43
0.0000000001
 40
0.0
 40
0.0
 40
0.0
 40
0.0
 40
0.1
 40
0.1
 40
0.1
 40
0.1
 40
0.2
 40
0.2
 40
0.2
 40
0.2
 40
0.3
 40
0.3
 40
0.3
 40
0.3
 40
0.4
 40
0.4
 40
0.4
 40
0.4
 40
0.5
 40
0.5
 40
0.5
 40
0.5
 40
0.6
 40
0.6
 40
0.6
 40
0.6
 40
0.7
 40
0.7
 40
0.7
 40
0.7
 40
0.8
 40
0.8
 40
0.8
 40
0.8
 40
1.0
 40
1.0
 40
1.0
 40
1.0
 10
-21.8766
 20
1.9545
 30
0.0
 10
-21.791
 20
1.9545
 30
0.0
 10
-21.7092
 20
1.9729
 30
0.0
 10
-21.6311
 20
2.0091
 30
0.0
 10
-21.6311
 20
2.0091
 30
0.0
 10
-21.553
 20
2.0453
 30
0.0
 10
-21.4938
 20
2.0961
 30
0.0
 10
-21.4528
 20
2.161
 30
0.0
 10
-21.4528
 20
2.161
 30
0.0
 10
-21.4119
 20
2.2264
 30
0.0
 10
-21.3912
 20
2.2951
 30
0.0
 10
-21.3912
 20
2.3666
 30
0.0
 10
-21.3912
 20
2.3666
 30
0.0
 10
-21.3912
 20
2.4715
 30
0.0
 10
-21.4336
 20
2.5613
 30
0.0
 10
-21.5182
 20
2.6366
 30
0.0
 10
-21.5182
 20
2.6366
 30
0.0
 10
-21.6029
 20
2.7118
 30
0.0
 10
-21.7177
 20
2.7494
 30
0.0
 10
-21.8625
 20
2.7494
 30
0.0
 10
-21.8625
 20
2.7494
 30
0.0
 10
-22.0022
 20
2.7494
 30
0.0
 10
-22.1123
 20
2.7123
 30
0.0
 10
-22.1927
 20
2.638
 30
0.0
 10
-22.1927
 20
2.638
 30
0.0
 10
-22.2732
 20
2.5637
 30
0.0
 10
-22.3131
 20
2.4701
 30
0.0
 10
-22.3131
 20
2.3572
 30
0.0
 10
-22.3131
 20
2.3572
 30
0.0
 10
-22.3131
 20
2.2448
 30
0.0
 10
-22.2732
 20
2.1497
 30
0.0
 10
-22.1927
 20
2.0717
 30
0.0
 10
-22.1927
 20
2.0717
 30
0.0
 10
-22.1123
 20
1.9936
 30
0.0
 10
-22.0069
 20
1.9545
 30
0.0
 10
-21.8766
 20
1.9545
 30
0.0
  0
SPLINE
  5
4D
330
1F
100
AcDbEntity
  8
DEFAULT_2
 62
   250
100
AcDbSpline
210
0.0
220
0.0
230
1.0
 70
    11
 71
     3
 72
    52
 73
    48
 74
     0
 42
0.0000000001
 43
0.0000000001
 40
0.0
 40
0.0
 40
0.0
 40
0.0
 40
0.0769230769230769
 40
0.0769230769230769
 40
0.0769230769230769
 40
0.0769230769230769
 40
0.1538461538461539
 40
0.1538461538461539
 40
0.1538461538461539
 40
0.1538461538461539
 40
0.2307692307692308
 40
0.2307692307692308
 40
0.2307692307692308
 40
0.2307692307692308
 40
0.3076923076923077
 40
0.3076923076923077
 40
0.3076923076923077
 40
0.3076923076923077
 40
0.3846153846153846
 40
0.3846153846153846
 40
0.3846153846153846
 40
0.3846153846153846
 40
0.4615384615384616
 40
0.4615384615384616
 40
0.4615384615384616
 40
0.4615384615384616
 40
0.5384615384615384
 40
0.5384615384615384
 40
0.5384615384615384
 40
0.5384615384615384
 40
0.6153846153846154
 40
0.6153846153846154
 40
0.6153846153846154
 40
0.6153846153846154
 40
0.6923076923076923
 40
0.6923076923076923
 40
0.6923076923076923
 40
0.6923076923076923
 40
0.7692307692307693
 40
0.7692307692307693
 40
0.7692307692307693
 40
0.7692307692307693
 40
0.8461538461538461
 40
0.8461538461538461
 40
0.8461538461538461
 40
0.8461538461538461
 40
1.0
 40
1.0
 40
1.0
 40
1.0
 10
-22.2181
 20
3.2499
 30
0.0
 10
-22.4571
 20
3.2499
 30
0.0
 10
-22.6495
 20
3.2744
 30
0.0
 10
-22.7948
 20
3.3238
 30
0.0
 10
-22.7948
 20
3.3238
 30
0.0
 10
-22.9406
 20
3.3727
 30
0.0
 10
-23.053
 20
3.4461
 30
0.0
 10
-23.132
 20
3.543
 30
0.0
 10
-23.132
 20
3.543
 30
0.0
 10
-23.2111
 20
3.6399
 30
0.0
 10
-23.2506
 20
3.7617
 30
0.0
 10
-23.2506
 20
3.9084
 30
0.0
 10
-23.2506
 20
3.9084
 30
0.0
 10
-23.2506
 20
4.0171
 30
0.0
 10
-23.2285
 20
4.1121
 30
0.0
 10
-23.1847
 20
4.1939
 30
0.0
 10
-23.1847
 20
4.1939
 30
0.0
 10
-23.1414
 20
4.2758
 30
0.0
 10
-23.0784
 20
4.343
 30
0.0
 10
-22.9961
 20
4.3967
 30
0.0
 10
-22.9961
 20
4.3967
 30
0.0
 10
-22.9138
 20
4.4498
 30
0.0
 10
-22.8136
 20
4.4917
 30
0.0
 10
-22.6955
 20
4.5218
 30
0.0
 10
-22.6955
 20
4.5218
 30
0.0
 10
-22.5775
 20
4.5524
 30
0.0
 10
-22.4185
 20
4.5674
 30
0.0
 10
-22.2181
 20
4.5674
 30
0.0
 10
-22.2181
 20
4.5674
 30
0.0
 10
-21.9811
 20
4.5674
 30
0.0
 10
-21.7901
 20
4.5429
 30
0.0
 10
-21.6443
 20
4.4945
 30
0.0
 10
-21.6443
 20
4.4945
 30
0.0
 10
-21.4985
 20
4.4456
 30
0.0
 10
-21.386
 20
4.3727
 30
0.0
 10
-21.3066
 20
4.2758
 30
0.0
 10
-21.3066
 20
4.2758
 30
0.0
 10
-21.2271
 20
4.1789
 30
0.0
 10
-21.1876
 20
4.0566
 30
0.0
 10
-21.1876
 20
3.9084
 30
0.0
 10
-21.1876
 20
3.9084
 30
0.0
 10
-21.1876
 20
3.7137
 30
0.0
 10
-21.2572
 20
3.5608
 30
0.0
 10
-21.3969
 20
3.4498
 30
0.0
 10
-21.3969
 20
3.4498
 30
0.0
 10
-21.5648
 20
3.3167
 30
0.0
 10
-21.839
 20
3.2499
 30
0.0
 10
-22.2181
 20
3.2499
 30
0.0
  0
SPLINE
  5
4E
330
1F
100
AcDbEntity
  8
DEFAULT_2
 62
   250
100
AcDbSpline
210
0.0
220
0.0
230
1.0
 70
    11
 71
     3
 72
    36
 73
    32
 74
     0
 42
0.0000000001
 43
0.0000000001
 40
0.0
 40
0.0
 40
0.0
 40
0.0
 40
0.1111111111111111
 40
0.1111111111111111
 40
0.1111111111111111
 40
0.1111111111111111
 40
0.2222222222222222
 40
0.2222222222222222
 40
0.2222222222222222
 40
0.2222222222222222
 40
0.3333333333333333
 40
0.3333333333333333
 40
0.3333333333333333
 40
0.3333333333333333
 40
0.4444444444444444
 40
0.4444444444444444
 40
0.4444444444444444
 40
0.4444444444444444
 40
0.5555555555555556
 40
0.5555555555555556
 40
0.5555555555555556
 40
0.5555555555555556
 40
0.6666666666666666
 40
0.6666666666666666
 40
0.6666666666666666
 40
0.6666666666666666
 40
0.7777777777777778
 40
0.7777777777777778
 40
0.7777777777777778
 40
0.7777777777777778
 40
1.0
 40
1.0
 40
1.0
 40
1.0
 10
-22.2181
 20
3.5049
 30
0.0
 10
-21.8865
 20
3.5049
 30
0.0
 10
-21.6659
 20
3.5439
 30
0.0
 10
-21.5559
 20
3.6215
 30
0.0
 10
-21.5559
 20
3.6215
 30
0.0
 10
-21.4463
 20
3.6991
 30
0.0
 10
-21.3912
 20
3.7946
 30
0.0
 10
-21.3912
 20
3.9084
 30
0.0
 10
-21.3912
 20
3.9084
 30
0.0
 10
-21.3912
 20
4.0227
 30
0.0
 10
-21.4467
 20
4.1182
 30
0.0
 10
-21.5568
 20
4.1958
 30
0.0
 10
-21.5568
 20
4.1958
 30
0.0
 10
-21.6669
 20
4.2734
 30
0.0
 10
-21.8875
 20
4.3125
 30
0.0
 10
-22.2181
 20
4.3125
 30
0.0
 10
-22.2181
 20
4.3125
 30
0.0
 10
-22.5507
 20
4.3125
 30
0.0
 10
-22.7717
 20
4.2734
 30
0.0
 10
-22.8809
 20
4.1958
 30
0.0
 10
-22.8809
 20
4.1958
 30
0.0
 10
-22.9905
 20
4.1182
 30
0.0
 10
-23.045
 20
4.0218
 30
0.0
 10
-23.045
 20
3.9061
 30
0.0
 10
-23.045
 20
3.9061
 30
0.0
 10
-23.045
 20
3.7918
 30
0.0
 10
-22.9966
 20
3.701
 30
0.0
 10
-22.9002
 20
3.6328
 30
0.0
 10
-22.9002
 20
3.6328
 30
0.0
 10
-22.7774
 20
3.5477
 30
0.0
 10
-22.5497
 20
3.5049
 30
0.0
 10
-22.2181
 20
3.5049
 30
0.0
  0
SPLINE
  5
4F
330
1F
100
AcDbEntity
  8
DEFAULT_2
 62
   250
100
AcDbSpline
210
0.0
220
0.0
230
1.0
 70
    11
 71
     3
 72
    52
 73
    48
 74
     0
 42
0.0000000001
 43
0.0000000001
 40
0.0
 40
0.0
 40
0.0
 40
0.0
 40
0.0769230769230769
 40
0.0769230769230769
 40
0.0769230769230769
 40
0.0769230769230769
 40
0.1538461538461539
 40
0.1538461538461539
 40
0.1538461538461539
 40
0.1538461538461539
 40
0.2307692307692308
 40
0.2307692307692308
 40
0.2307692307692308
 40
0.2307692307692308
 40
0.3076923076923077
 40
0.3076923076923077
 40
0.3076923076923077
 40
0.3076923076923077
 40
0.3846153846153846
 40
0.3846153846153846
 40
0.3846153846153846
 40
0.3846153846153846
 40
0.4615384615384616
 40
0.4615384615384616
 40
0.4615384615384616
 40
0.4615384615384616
 40
0.5384615384615384
 40
0.5384615384615384
 40
0.5384615384615384
 40
0.5384615384615384
 40
0.6153846153846154
 40
0.6153846153846154
 40
0.6153846153846154
 40
0.6153846153846154
 40
0.6923076923076923
 40
0.6923076923076923
 40
0.6923076923076923
 40
0.6923076923076923
 40
0.7692307692307693
 40
0.7692307692307693
 40
0.7692307692307693
 40
0.7692307692307693
 40
0.8461538461538461
 40
0.8461538461538461
 40
0.8461538461538461
 40
0.8461538461538461
 40
1.0
 40
1.0
 40
1.0
 40
1.0
 10
-22.2181
 20
4.8195
 30
0.0
 10
-22.4571
 20
4.8195
 30
0.0
 10
-22.6495
 20
4.844
 30
0.0
 10
-22.7948
 20
4.8934
 30
0.0
 10
-22.7948
 20
4.8934
 30
0.0
 10
-22.9406
 20
4.9423
 30
0.0
 10
-23.053
 20
5.0157
 30
0.0
 10
-23.132
 20
5.1126
 30
0.0
 10
-23.132
 20
5.1126
 30
0.0
 10
-23.2111
 20
5.2095
 30
0.0
 10
-23.2506
 20
5.3313
 30
0.0
 10
-23.2506
 20
5.478
 30
0.0
 10
-23.2506
 20
5.478
 30
0.0
 10
-23.2506
 20
5.5867
 30
0.0
 10
-23.2285
 20
5.6817
 30
0.0
 10
-23.1847
 20
5.7635
 30
0.0
 10
-23.1847
 20
5.7635
 30
0.0
 10
-23.1414
 20
5.8454
 30
0.0
 10
-23.0784
 20
5.9126
 30
0.0
 10
-22.9961
 20
5.9663
 30
0.0
 10
-22.9961
 20
5.9663
 30
0.0
 10
-22.9138
 20
6.0194
 30
0.0
 10
-22.8136
 20
6.0613
 30
0.0
 10
-22.6955
 20
6.0914
 30
0.0
 10
-22.6955
 20
6.0914
 30
0.0
 10
-22.5775
 20
6.122
 30
0.0
 10
-22.4185
 20
6.137
 30
0.0
 10
-22.2181
 20
6.137
 30
0.0
 10
-22.2181
 20
6.137
 30
0.0
 10
-21.9811
 20
6.137
 30
0.0
 10
-21.7901
 20
6.1125
 30
0.0
 10
-21.6443
 20
6.0641
 30
0.0
 10
-21.6443
 20
6.0641
 30
0.0
 10
-21.4985
 20
6.0152
 30
0.0
 10
-21.386
 20
5.9423
 30
0.0
 10
-21.3066
 20
5.8454
 30
0.0
 10
-21.3066
 20
5.8454
 30
0.0
 10
-21.2271
 20
5.7485
 30
0.0
 10
-21.1876
 20
5.6262
 30
0.0
 10
-21.1876
 20
5.478
 30
0.0
 10
-21.1876
 20
5.478
 30
0.0
 10
-21.1876
 20
5.2833
 30
0.0
 10
-21.2572
 20
5.1304
 30
0.0
 10
-21.3969
 20
5.0194
 30
0.0
 10
-21.3969
 20
5.0194
 30
0.0
 10
-21.5648
 20
4.8863
 30
0.0
 10
-21.839
 20
4.8195
 30
0.0
 10
-22.2181
 20
4.8195
 30
0.0
  0
SPLINE
  5
50
330
1F
100
AcDbEntity
  8
DEFAULT_2
 62
   250
100
AcDbSpline
210
0.0
220
0.0
230
1.0
 70
    11
 71
     3
 72
    36
 73
    32
 74
     0
 42
0.0000000001
 43
0.0000000001
 40
0.0
 40
0.0
 40
0.0
 40
0.0
 40
0.1111111111111111
 40
0.1111111111111111
 40
0.1111111111111111
 40
0.1111111111111111
 40
0.2222222222222222
 40
0.2222222222222222
 40
0.2222222222222222
 40
0.2222222222222222
 40
0.3333333333333333
 40
0.3333333333333333
 40
0.3333333333333333
 40
0.3333333333333333
 40
0.4444444444444444
 40
0.4444444444444444
 40
0.4444444444444444
 40
0.4444444444444444
 40
0.5555555555555556
 40
0.5555555555555556
 40
0.5555555555555556
 40
0.5555555555555556
 40
0.6666666666666666
 40
0.6666666666666666
 40
0.6666666666666666
 40
0.6666666666666666
 40
0.7777777777777778
 40
0.7777777777777778
 40
0.7777777777777778
 40
0.7777777777777778
 40
1.0
 40
1.0
 40
1.0
 40
1.0
 10
-22.2181
 20
5.0745
 30
0.0
 10
-21.8865
 20
5.0745
 30
0.0
 10
-21.6659
 20
5.1135
 30
0.0
 10
-21.5559
 20
5.1911
 30
0.0
 10
-21.5559
 20
5.1911
 30
0.0
 10
-21.4463
 20
5.2687
 30
0.0
 10
-21.3912
 20
5.3642
 30
0.0
 10
-21.3912
 20
5.478
 30
0.0
 10
-21.3912
 20
5.478
 30
0.0
 10
-21.3912
 20
5.5923
 30
0.0
 10
-21.4467
 20
5.6878
 30
0.0
 10
-21.5568
 20
5.7654
 30
0.0
 10
-21.5568
 20
5.7654
 30
0.0
 10
-21.6669
 20
5.843
 30
0.0
 10
-21.8875
 20
5.8821
 30
0.0
 10
-22.2181
 20
5.8821
 30
0.0
 10
-22.2181
 20
5.8821
 30
0.0
 10
-22.5507
 20
5.8821
 30
0.0
 10
-22.7717
 20
5.843
 30
0.0
 10
-22.8809
 20
5.7654
 30
0.0
 10
-22.8809
 20
5.7654
 30
0.0
 10
-22.9905
 20
5.6878
 30
0.0
 10
-23.045
 20
5.5914
 30
0.0
 10
-23.045
 20
5.4757
 30
0.0
 10
-23.045
 20
5.4757
 30
0.0
 10
-23.045
 20
5.3614
 30
0.0
 10
-22.9966
 20
5.2706
 30
0.0
 10
-22.9002
 20
5.2024
 30
0.0
 10
-22.9002
 20
5.2024
 30
0.0
 10
-22.7774
 20
5.1173
 30
0.0
 10
-22.5497
 20
5.0745
 30
0.0
 10
-22.2181
 20
5.0745
 30
0.0
  0
SPLINE
  5
51
330
1F
100
AcDbEntity
  8
DEFAULT_2
 62
   250
100
AcDbSpline
210
0.0
220
0.0
230
1.0
 70
    11
 71
     3
 72
    92
 73
    88
 74
     0
 42
0.0000000001
 43
0.0000000001
 40
0.0
 40
0.0
 40
0.0
 40
0.0
 40
0.0434782608695652
 40
0.0434782608695652
 40
0.0434782608695652
 40
0.0434782608695652
 40
0.0869565217391304
 40
0.0869565217391304
 40
0.0869565217391304
 40
0.0869565217391304
 40
0.1304347826086956
 40
0.1304347826086956
 40
0.1304347826086956
 40
0.1304347826086956
 40
0.1739130434782609
 40
0.1739130434782609
 40
0.1739130434782609
 40
0.1739130434782609
 40
0.2173913043478261
 40
0.2173913043478261
 40
0.2173913043478261
 40
0.2173913043478261
 40
0.2608695652173913
 40
0.2608695652173913
 40
0.2608695652173913
 40
0.2608695652173913
 40
0.3043478260869565
 40
0.3043478260869565
 40
0.3043478260869565
 40
0.3043478260869565
 40
0.3478260869565217
 40
0.3478260869565217
 40
0.3478260869565217
 40
0.3478260869565217
 40
0.391304347826087
 40
0.391304347826087
 40
0.391304347826087
 40
0.391304347826087
 40
0.4347826086956522
 40
0.4347826086956522
 40
0.4347826086956522
 40
0.4347826086956522
 40
0.4782608695652174
 40
0.4782608695652174
 40
0.4782608695652174
 40
0.4782608695652174
 40
0.5217391304347826
 40
0.5217391304347826
 40
0.5217391304347826
 40
0.5217391304347826
 40
0.5652173913043478
 40
0.5652173913043478
 40
0.5652173913043478
 40
0.5652173913043478
 40
0.6086956521739131
 40
0.6086956521739131
 40
0.6086956521739131
 40
0.6086956521739131
 40
0.6521739130434783
 40
0.6521739130434783
 40
0.6521739130434783
 40
0.6521739130434783
 40
0.6956521739130435
 40
0.6956521739130435
 40
0.6956521739130435
 40
0.6956521739130435
 40
0.7391304347826086
 40
0.7391304347826086
 40
0.7391304347826086
 40
0.7391304347826086
 40
0.782608695652174
 40
0.782608695652174
 40
0.782608695652174
 40
0.782608695652174
 40
0.8260869565217391
 40
0.8260869565217391
 40
0.8260869565217391
 40
0.8260869565217391
 40
0.8695652173913043
 40
0.8695652173913043
 40
0.8695652173913043
 40
0.8695652173913043
 40
0.9130434782608695
 40
0.9130434782608695
 40
0.9130434782608695
 40
0.9130434782608695
 40
1.0
 40
1.0
 40
1.0
 40
1.0
 10
13.2904
 20
31.0183
 30
0.0
 10
13.2904
 20
31.0183
 30
0.0
 10
13.551
 20
31.0404
 30
0.0
 10
13.551
 20
31.0404
 30
0.0
 10
13.551
 20
31.0404
 30
0.0
 10
13.5703
 20
30.9134
 30
0.0
 10
13.615
 20
30.8183
 30
0.0
 10
13.685
 20
30.7544
 30
0.0
 10
13.685
 20
30.7544
 30
0.0
 10
13.7556
 20
30.6904
 30
0.0
 10
13.8403
 20
30.6584
 30
0.0
 10
13.9395
 20
30.6584
 30
0.0
 10
13.9395
 20
30.6584
 30
0.0
 10
14.059
 20
30.6584
 30
0.0
 10
14.1601
 20
30.7036
 30
0.0
 10
14.2424
 20
30.7934
 30
0.0
 10
14.2424
 20
30.7934
 30
0.0
 10
14.3252
 20
30.8837
 30
0.0
 10
14.3666
 20
31.0032
 30
0.0
 10
14.3666
 20
31.1518
 30
0.0
 10
14.3666
 20
31.1518
 30
0.0
 10
14.3666
 20
31.2934
 30
0.0
 10
14.3271
 20
31.4049
 30
0.0
 10
14.2476
 20
31.4867
 30
0.0
 10
14.2476
 20
31.4867
 30
0.0
 10
14.1681
 20
31.5686
 30
0.0
 10
14.0642
 20
31.6095
 30
0.0
 10
13.9353
 20
31.6095
 30
0.0
 10
13.9353
 20
31.6095
 30
0.0
 10
13.8553
 20
31.6095
 30
0.0
 10
13.7833
 20
31.5912
 30
0.0
 10
13.7189
 20
31.5549
 30
0.0
 10
13.7189
 20
31.5549
 30
0.0
 10
13.6545
 20
31.5187
 30
0.0
 10
13.6042
 20
31.4717
 30
0.0
 10
13.5675
 20
31.4138
 30
0.0
 10
13.5675
 20
31.4138
 30
0.0
 10
13.5675
 20
31.4138
 30
0.0
 10
13.3346
 20
31.4439
 30
0.0
 10
13.3346
 20
31.4439
 30
0.0
 10
13.3346
 20
31.4439
 30
0.0
 10
13.3346
 20
31.4439
 30
0.0
 10
13.5303
 20
32.4816
 30
0.0
 10
13.5303
 20
32.4816
 30
0.0
 10
13.5303
 20
32.4816
 30
0.0
 10
13.5303
 20
32.4816
 30
0.0
 10
14.535
 20
32.4816
 30
0.0
 10
14.535
 20
32.4816
 30
0.0
 10
14.535
 20
32.4816
 30
0.0
 10
14.535
 20
32.4816
 30
0.0
 10
14.535
 20
32.2445
 30
0.0
 10
14.535
 20
32.2445
 30
0.0
 10
14.535
 20
32.2445
 30
0.0
 10
14.535
 20
32.2445
 30
0.0
 10
13.7288
 20
32.2445
 30
0.0
 10
13.7288
 20
32.2445
 30
0.0
 10
13.7288
 20
32.2445
 30
0.0
 10
13.7288
 20
32.2445
 30
0.0
 10
13.6197
 20
31.7017
 30
0.0
 10
13.6197
 20
31.7017
 30
0.0
 10
13.6197
 20
31.7017
 30
0.0
 10
13.741
 20
31.7864
 30
0.0
 10
13.8685
 20
31.8287
 30
0.0
 10
14.0016
 20
31.8287
 30
0.0
 10
14.0016
 20
31.8287
 30
0.0
 10
14.178
 20
31.8287
 30
0.0
 10
14.3266
 20
31.7675
 30
0.0
 10
14.448
 20
31.6452
 30
0.0
 10
14.448
 20
31.6452
 30
0.0
 10
14.5693
 20
31.523
 30
0.0
 10
14.63
 20
31.3659
 30
0.0
 10
14.63
 20
31.1739
 30
0.0
 10
14.63
 20
31.1739
 30
0.0
 10
14.63
 20
30.991
 30
0.0
 10
14.5764
 20
30.8329
 30
0.0
 10
14.4701
 20
30.6998
 30
0.0
 10
14.4701
 20
30.6998
 30
0.0
 10
14.3403
 20
30.5366
 30
0.0
 10
14.1634
 20
30.4548
 30
0.0
 10
13.9395
 20
30.4548
 30
0.0
 10
13.9395
 20
30.4548
 30
0.0
 10
13.7556
 20
30.4548
 30
0.0
 10
13.6056
 20
30.506
 30
0.0
 10
13.4894
 20
30.609
 30
0.0
 10
13.4894
 20
30.609
 30
0.0
 10
13.3732
 20
30.7121
 30
0.0
 10
13.3069
 20
30.8484
 30
0.0
 10
13.2904
 20
31.0183
 30
0.0
  0
SPLINE
  5
52
330
1F
100
AcDbEntity
  8
DEFAULT_2
 62
   250
100
AcDbSpline
210
0.0
220
0.0
230
1.0
 70
    11
 71
     3
 72
    20
 73
    16
 74
     0
 42
0.0000000001
 43
0.0000000001
 40
0.0
 40
0.0
 40
0.0
 40
0.0
 40
0.2
 40
0.2
 40
0.2
 40
0.2
 40
0.4
 40
0.4
 40
0.4
 40
0.4
 40
0.6
 40
0.6
 40
0.6
 40
0.6
 40
1.0
 40
1.0
 40
1.0
 40
1.0
 10
15.4561
 20
30.5396
 30
0.0
 10
15.4561
 20
30.5396
 30
0.0
 10
18.4561
 20
30.1163
 30
0.0
 10
18.4561
 20
30.1163
 30
0.0
 10
18.4561
 20
30.1163
 30
0.0
 10
18.4561
 20
30.1163
 30
0.0
 10
18.4561
 20
30.0222
 30
0.0
 10
18.4561
 20
30.0222
 30
0.0
 10
18.4561
 20
30.0222
 30
0.0
 10
18.4561
 20
30.0222
 30
0.0
 10
15.4561
 20
29.5707
 30
0.0
 10
15.4561
 20
29.5707
 30
0.0
 10
15.4561
 20
29.5707
 30
0.0
 10
15.4561
 20
29.5707
 30
0.0
 10
15.4561
 20
30.5396
 30
0.0
 10
15.4561
 20
30.5396
 30
0.0
  0
SPLINE
  5
53
330
1F
100
AcDbEntity
  8
DEFAULT_2
 62
   250
100
AcDbSpline
210
0.0
220
0.0
230
1.0
 70
    11
 71
     3
 72
    20
 73
    16
 74
     0
 42
0.0000000001
 43
0.0000000001
 40
0.0
 40
0.0
 40
0.0
 40
0.0
 40
0.2
 40
0.2
 40
0.2
 40
0.2
 40
0.4
 40
0.4
 40
0.4
 40
0.4
 40
0.6
 40
0.6
 40
0.6
 40
0.6
 40
1.0
 40
1.0
 40
1.0
 40
1.0
 10
22.1504
 20
29.6015
 30
0.0
 10
22.1504
 20
29.6015
 30
0.0
 10
19.1504
 20
30.0249
 30
0.0
 10
19.1504
 20
30.0249
 30
0.0
 10
19.1504
 20
30.0249
 30
0.0
 10
19.1504
 20
30.0249
 30
0.0
 10
19.1504
 20
30.119
 30
0.0
 10
19.1504
 20
30.119
 30
0.0
 10
19.1504
 20
30.119
 30
0.0
 10
19.1504
 20
30.119
 30
0.0
 10
22.1504
 20
30.5705
 30
0.0
 10
22.1504
 20
30.5705
 30
0.0
 10
22.1504
 20
30.5705
 30
0.0
 10
22.1504
 20
30.5705
 30
0.0
 10
22.1504
 20
29.6015
 30
0.0
 10
22.1504
 20
29.6015
 30
0.0
  0
SPLINE
  5
54
330
1F
100
AcDbEntity
  8
DEFAULT_2
 62
   250
100
AcDbSpline
210
0.0
220
0.0
230
1.0
 70
    11
 71
     3
 72
    84
 73
    80
 74
     0
 42
0.0000000001
 43
0.0000000001
 40
0.0
 40
0.0
 40
0.0
 40
0.0
 40
0.0476190476190476
 40
0.0476190476190476
 40
0.0476190476190476
 40
0.0476190476190476
 40
0.0952380952380952
 40
0.0952380952380952
 40
0.0952380952380952
 40
0.0952380952380952
 40
0.1428571428571428
 40
0.1428571428571428
 40
0.1428571428571428
 40
0.1428571428571428
 40
0.1904761904761905
 40
0.1904761904761905
 40
0.1904761904761905
 40
0.1904761904761905
 40
0.2380952380952381
 40
0.2380952380952381
 40
0.2380952380952381
 40
0.2380952380952381
 40
0.2857142857142857
 40
0.2857142857142857
 40
0.2857142857142857
 40
0.2857142857142857
 40
0.3333333333333333
 40
0.3333333333333333
 40
0.3333333333333333
 40
0.3333333333333333
 40
0.3809523809523809
 40
0.3809523809523809
 40
0.3809523809523809
 40
0.3809523809523809
 40
0.4285714285714285
 40
0.4285714285714285
 40
0.4285714285714285
 40
0.4285714285714285
 40
0.4761904761904762
 40
0.4761904761904762
 40
0.4761904761904762
 40
0.4761904761904762
 40
0.5238095238095238
 40
0.5238095238095238
 40
0.5238095238095238
 40
0.5238095238095238
 40
0.5714285714285714
 40
0.5714285714285714
 40
0.5714285714285714
 40
0.5714285714285714
 40
0.6190476190476191
 40
0.6190476190476191
 40
0.6190476190476191
 40
0.6190476190476191
 40
0.6666666666666666
 40
0.6666666666666666
 40
0.6666666666666666
 40
0.6666666666666666
 40
0.7142857142857143
 40
0.7142857142857143
 40
0.7142857142857143
 40
0.7142857142857143
 40
0.7619047619047619
 40
0.7619047619047619
 40
0.7619047619047619
 40
0.7619047619047619
 40
0.8095238095238095
 40
0.8095238095238095
 40
0.8095238095238095
 40
0.8095238095238095
 40
0.8571428571428571
 40
0.8571428571428571
 40
0.8571428571428571
 40
0.8571428571428571
 40
0.9047619047619048
 40
0.9047619047619048
 40
0.9047619047619048
 40
0.9047619047619048
 40
1.0
 40
1.0
 40
1.0
 40
1.0
 10
6.3661
 20
15.3622
 30
0.0
 10
6.3661
 20
15.3622
 30
0.0
 10
6.7131
 20
15.3818
 30
0.0
 10
6.7131
 20
15.3818
 30
0.0
 10
6.7131
 20
15.3818
 30
0.0
 10
6.7131
 20
15.3818
 30
0.0
 10
6.7277
 20
15.2035
 30
0.0
 10
6.7277
 20
15.2035
 30
0.0
 10
6.7277
 20
15.2035
 30
0.0
 10
6.7277
 20
15.2035
 30
0.0
 10
6.3635
 20
15.1819
 30
0.0
 10
6.3635
 20
15.1819
 30
0.0
 10
6.3635
 20
15.1819
 30
0.0
 10
6.3362
 20
15.0429
 30
0.0
 10
6.301
 20
14.9324
 30
0.0
 10
6.2584
 20
14.8506
 30
0.0
 10
6.2584
 20
14.8506
 30
0.0
 10
6.2025
 20
14.7428
 30
0.0
 10
6.1237
 20
14.6381
 30
0.0
 10
6.0226
 20
14.537
 30
0.0
 10
6.0226
 20
14.537
 30
0.0
 10
5.8762
 20
14.3906
 30
0.0
 10
5.7162
 20
14.2898
 30
0.0
 10
5.5429
 20
14.2349
 30
0.0
 10
5.5429
 20
14.2349
 30
0.0
 10
5.3693
 20
14.1797
 30
0.0
 10
5.2
 20
14.1761
 30
0.0
 10
5.0347
 20
14.2243
 30
0.0
 10
5.0347
 20
14.2243
 30
0.0
 10
4.8694
 20
14.2732
 30
0.0
 10
4.7267
 20
14.3573
 30
0.0
 10
4.6066
 20
14.4774
 30
0.0
 10
4.6066
 20
14.4774
 30
0.0
 10
4.5168
 20
14.5672
 30
0.0
 10
4.4483
 20
14.661
 30
0.0
 10
4.4007
 20
14.7591
 30
0.0
 10
4.4007
 20
14.7591
 30
0.0
 10
4.3645
 20
14.8346
 30
0.0
 10
4.3365
 20
14.9371
 30
0.0
 10
4.3169
 20
15.0671
 30
0.0
 10
4.3169
 20
15.0671
 30
0.0
 10
4.3169
 20
15.0671
 30
0.0
 10
3.97
 20
15.0475
 30
0.0
 10
3.97
 20
15.0475
 30
0.0
 10
3.97
 20
15.0475
 30
0.0
 10
3.97
 20
15.0475
 30
0.0
 10
3.9554
 20
15.2258
 30
0.0
 10
3.9554
 20
15.2258
 30
0.0
 10
3.9554
 20
15.2258
 30
0.0
 10
3.9554
 20
15.2258
 30
0.0
 10
4.3189
 20
15.2461
 30
0.0
 10
4.3189
 20
15.2461
 30
0.0
 10
4.3189
 20
15.2461
 30
0.0
 10
4.3518
 20
15.4067
 30
0.0
 10
4.3921
 20
15.5321
 30
0.0
 10
4.4393
 20
15.6219
 30
0.0
 10
4.4393
 20
15.6219
 30
0.0
 10
4.4866
 20
15.7117
 30
0.0
 10
4.5581
 20
15.8052
 30
0.0
 10
4.6542
 20
15.9013
 30
0.0
 10
4.6542
 20
15.9013
 30
0.0
 10
4.8009
 20
16.048
 30
0.0
 10
4.9609
 20
16.1494
 30
0.0
 10
5.1341
 20
16.2057
 30
0.0
 10
5.1341
 20
16.2057
 30
0.0
 10
5.3074
 20
16.2619
 30
0.0
 10
5.4761
 20
16.2669
 30
0.0
 10
5.6411
 20
16.2203
 30
0.0
 10
5.6411
 20
16.2203
 30
0.0
 10
5.8054
 20
16.1738
 30
0.0
 10
5.9524
 20
16.0859
 30
0.0
 10
6.0818
 20
15.9566
 30
0.0
 10
6.0818
 20
15.9566
 30
0.0
 10
6.1689
 20
15.8694
 30
0.0
 10
6.2338
 20
15.7819
 30
0.0
 10
6.2757
 20
15.6935
 30
0.0
 10
6.2757
 20
15.6935
 30
0.0
 10
6.3179
 20
15.6053
 30
0.0
 10
6.3482
 20
15.4945
 30
0.0
 10
6.3661
 20
15.3622
 30
0.0
  0
SPLINE
  5
55
330
1F
100
AcDbEntity
  8
DEFAULT_2
 62
   250
100
AcDbSpline
210
0.0
220
0.0
230
1.0
 70
    11
 71
     3
 72
    32
 73
    28
 74
     0
 42
0.0000000001
 43
0.0000000001
 40
0.0
 40
0.0
 40
0.0
 40
0.0
 40
0.125
 40
0.125
 40
0.125
 40
0.125
 40
0.25
 40
0.25
 40
0.25
 40
0.25
 40
0.375
 40
0.375
 40
0.375
 40
0.375
 40
0.5
 40
0.5
 40
0.5
 40
0.5
 40
0.625
 40
0.625
 40
0.625
 40
0.625
 40
0.75
 40
0.75
 40
0.75
 40
0.75
 40
1.0
 40
1.0
 40
1.0
 40
1.0
 10
6.118
 20
15.3475
 30
0.0
 10
6.1047
 20
15.4566
 30
0.0
 10
6.0841
 20
15.5431
 30
0.0
 10
6.0562
 20
15.6063
 30
0.0
 10
6.0562
 20
15.6063
 30
0.0
 10
6.0276
 20
15.6695
 30
0.0
 10
5.9827
 20
15.7324
 30
0.0
 10
5.9211
 20
15.7939
 30
0.0
 10
5.9211
 20
15.7939
 30
0.0
 10
5.7788
 20
15.9363
 30
0.0
 10
5.6131
 20
16.0055
 30
0.0
 10
5.4235
 20
16.0021
 30
0.0
 10
5.4235
 20
16.0021
 30
0.0
 10
5.2343
 20
15.9984
 30
0.0
 10
5.0437
 20
15.901
 30
0.0
 10
4.8518
 20
15.7091
 30
0.0
 10
4.8518
 20
15.7091
 30
0.0
 10
4.7766
 20
15.6339
 30
0.0
 10
4.717
 20
15.5597
 30
0.0
 10
4.6728
 20
15.4869
 30
0.0
 10
4.6728
 20
15.4869
 30
0.0
 10
4.6395
 20
15.433
 30
0.0
 10
4.6076
 20
15.3578
 30
0.0
 10
4.5773
 20
15.2611
 30
0.0
 10
4.5773
 20
15.2611
 30
0.0
 10
4.5773
 20
15.2611
 30
0.0
 10
6.118
 20
15.3475
 30
0.0
 10
6.118
 20
15.3475
 30
0.0
  0
SPLINE
  5
56
330
1F
100
AcDbEntity
  8
DEFAULT_2
 62
   250
100
AcDbSpline
210
0.0
220
0.0
230
1.0
 70
    11
 71
     3
 72
    28
 73
    24
 74
     0
 42
0.0000000001
 43
0.0000000001
 40
0.0
 40
0.0
 40
0.0
 40
0.0
 40
0.1428571428571428
 40
0.1428571428571428
 40
0.1428571428571428
 40
0.1428571428571428
 40
0.2857142857142857
 40
0.2857142857142857
 40
0.2857142857142857
 40
0.2857142857142857
 40
0.4285714285714285
 40
0.4285714285714285
 40
0.4285714285714285
 40
0.4285714285714285
 40
0.5714285714285714
 40
0.5714285714285714
 40
0.5714285714285714
 40
0.5714285714285714
 40
0.7142857142857143
 40
0.7142857142857143
 40
0.7142857142857143
 40
0.7142857142857143
 40
1.0
 40
1.0
 40
1.0
 40
1.0
 10
6.0974
 20
15.1673
 30
0.0
 10
6.0974
 20
15.1673
 30
0.0
 10
4.5627
 20
15.0808
 30
0.0
 10
4.5627
 20
15.0808
 30
0.0
 10
4.5627
 20
15.0808
 30
0.0
 10
4.5717
 20
14.99
 30
0.0
 10
4.5893
 20
14.9151
 30
0.0
 10
4.6153
 20
14.8566
 30
0.0
 10
4.6153
 20
14.8566
 30
0.0
 10
4.6489
 20
14.7798
 30
0.0
 10
4.6981
 20
14.7092
 30
0.0
 10
4.7623
 20
14.6451
 30
0.0
 10
4.7623
 20
14.6451
 30
0.0
 10
4.904
 20
14.5034
 30
0.0
 10
5.0706
 20
14.4365
 30
0.0
 10
5.2632
 20
14.4441
 30
0.0
 10
5.2632
 20
14.4441
 30
0.0
 10
5.4555
 20
14.4521
 30
0.0
 10
5.642
 20
14.5463
 30
0.0
 10
5.8227
 20
14.7269
 30
0.0
 10
5.8227
 20
14.7269
 30
0.0
 10
5.9577
 20
14.8619
 30
0.0
 10
6.0495
 20
15.0089
 30
0.0
 10
6.0974
 20
15.1673
 30
0.0
  0
SPLINE
  5
57
330
1F
100
AcDbEntity
  8
DEFAULT_2
 62
   250
100
AcDbSpline
210
0.0
220
0.0
230
1.0
 70
    11
 71
     3
 72
    40
 73
    36
 74
     0
 42
0.0000000001
 43
0.0000000001
 40
0.0
 40
0.0
 40
0.0
 40
0.0
 40
0.1
 40
0.1
 40
0.1
 40
0.1
 40
0.2
 40
0.2
 40
0.2
 40
0.2
 40
0.3
 40
0.3
 40
0.3
 40
0.3
 40
0.4
 40
0.4
 40
0.4
 40
0.4
 40
0.5
 40
0.5
 40
0.5
 40
0.5
 40
0.6
 40
0.6
 40
0.6
 40
0.6
 40
0.7
 40
0.7
 40
0.7
 40
0.7
 40
0.8
 40
0.8
 40
0.8
 40
0.8
 40
1.0
 40
1.0
 40
1.0
 40
1.0
 10
6.146
 20
12.9866
 30
0.0
 10
6.146
 20
12.9866
 30
0.0
 10
5.9707
 20
13.1619
 30
0.0
 10
5.9707
 20
13.1619
 30
0.0
 10
5.9707
 20
13.1619
 30
0.0
 10
5.9707
 20
13.1619
 30
0.0
 10
7.0883
 20
14.2795
 30
0.0
 10
7.0883
 20
14.2795
 30
0.0
 10
7.0883
 20
14.2795
 30
0.0
 10
7.0058
 20
14.2815
 30
0.0
 10
6.9103
 20
14.2965
 30
0.0
 10
6.8015
 20
14.3248
 30
0.0
 10
6.8015
 20
14.3248
 30
0.0
 10
6.6924
 20
14.3534
 30
0.0
 10
6.6006
 20
14.3846
 30
0.0
 10
6.5261
 20
14.4192
 30
0.0
 10
6.5261
 20
14.4192
 30
0.0
 10
6.5261
 20
14.4192
 30
0.0
 10
6.6954
 20
14.5885
 30
0.0
 10
6.6954
 20
14.5885
 30
0.0
 10
6.6954
 20
14.5885
 30
0.0
 10
6.8398
 20
14.5366
 30
0.0
 10
6.9815
 20
14.5067
 30
0.0
 10
7.1205
 20
14.4987
 30
0.0
 10
7.1205
 20
14.4987
 30
0.0
 10
7.2595
 20
14.4914
 30
0.0
 10
7.3753
 20
14.5027
 30
0.0
 10
7.4678
 20
14.534
 30
0.0
 10
7.4678
 20
14.534
 30
0.0
 10
7.4678
 20
14.534
 30
0.0
 10
7.5805
 20
14.4212
 30
0.0
 10
7.5805
 20
14.4212
 30
0.0
 10
7.5805
 20
14.4212
 30
0.0
 10
7.5805
 20
14.4212
 30
0.0
 10
6.146
 20
12.9866
 30
0.0
 10
6.146
 20
12.9866
 30
0.0
  0
SPLINE
  5
58
330
1F
100
AcDbEntity
  8
DEFAULT_2
 62
   250
100
AcDbSpline
210
0.0
220
0.0
230
1.0
 70
    11
 71
     3
 72
   124
 73
   120
 74
     0
 42
0.0000000001
 43
0.0000000001
 40
0.0
 40
0.0
 40
0.0
 40
0.0
 40
0.032258064516129
 40
0.032258064516129
 40
0.032258064516129
 40
0.032258064516129
 40
0.0645161290322581
 40
0.0645161290322581
 40
0.0645161290322581
 40
0.0645161290322581
 40
0.0967741935483871
 40
0.0967741935483871
 40
0.0967741935483871
 40
0.0967741935483871
 40
0.1290322580645161
 40
0.1290322580645161
 40
0.1290322580645161
 40
0.1290322580645161
 40
0.1612903225806452
 40
0.1612903225806452
 40
0.1612903225806452
 40
0.1612903225806452
 40
0.1935483870967742
 40
0.1935483870967742
 40
0.1935483870967742
 40
0.1935483870967742
 40
0.2258064516129032
 40
0.2258064516129032
 40
0.2258064516129032
 40
0.2258064516129032
 40
0.2580645161290323
 40
0.2580645161290323
 40
0.2580645161290323
 40
0.2580645161290323
 40
0.2903225806451613
 40
0.2903225806451613
 40
0.2903225806451613
 40
0.2903225806451613
 40
0.3225806451612903
 40
0.3225806451612903
 40
0.3225806451612903
 40
0.3225806451612903
 40
0.3548387096774194
 40
0.3548387096774194
 40
0.3548387096774194
 40
0.3548387096774194
 40
0.3870967741935484
 40
0.3870967741935484
 40
0.3870967741935484
 40
0.3870967741935484
 40
0.4193548387096774
 40
0.4193548387096774
 40
0.4193548387096774
 40
0.4193548387096774
 40
0.4516129032258064
 40
0.4516129032258064
 40
0.4516129032258064
 40
0.4516129032258064
 40
0.4838709677419355
 40
0.4838709677419355
 40
0.4838709677419355
 40
0.4838709677419355
 40
0.5161290322580645
 40
0.5161290322580645
 40
0.5161290322580645
 40
0.5161290322580645
 40
0.5483870967741935
 40
0.5483870967741935
 40
0.5483870967741935
 40
0.5483870967741935
 40
0.5806451612903226
 40
0.5806451612903226
 40
0.5806451612903226
 40
0.5806451612903226
 40
0.6129032258064516
 40
0.6129032258064516
 40
0.6129032258064516
 40
0.6129032258064516
 40
0.6451612903225806
 40
0.6451612903225806
 40
0.6451612903225806
 40
0.6451612903225806
 40
0.6774193548387096
 40
0.6774193548387096
 40
0.6774193548387096
 40
0.6774193548387096
 40
0.7096774193548387
 40
0.7096774193548387
 40
0.7096774193548387
 40
0.7096774193548387
 40
0.7419354838709677
 40
0.7419354838709677
 40
0.7419354838709677
 40
0.7419354838709677
 40
0.7741935483870968
 40
0.7741935483870968
 40
0.7741935483870968
 40
0.7741935483870968
 40
0.8064516129032258
 40
0.8064516129032258
 40
0.8064516129032258
 40
0.8064516129032258
 40
0.8387096774193549
 40
0.8387096774193549
 40
0.8387096774193549
 40
0.8387096774193549
 40
0.8709677419354839
 40
0.8709677419354839
 40
0.8709677419354839
 40
0.8709677419354839
 40
0.9032258064516129
 40
0.9032258064516129
 40
0.9032258064516129
 40
0.9032258064516129
 40
0.9354838709677419
 40
0.9354838709677419
 40
0.9354838709677419
 40
0.9354838709677419
 40
1.0
 40
1.0
 40
1.0
 40
1.0
 10
6.9735
 20
12.9135
 30
0.0
 10
6.9735
 20
12.9135
 30
0.0
 10
7.1721
 20
12.7615
 30
0.0
 10
7.1721
 20
12.7615
 30
0.0
 10
7.1721
 20
12.7615
 30
0.0
 10
7.0929
 20
12.6417
 30
0.0
 10
7.0557
 20
12.5359
 30
0.0
 10
7.06
 20
12.4438
 30
0.0
 10
7.06
 20
12.4438
 30
0.0
 10
7.0646
 20
12.3514
 30
0.0
 10
7.1016
 20
12.2705
 30
0.0
 10
7.1711
 20
12.201
 30
0.0
 10
7.1711
 20
12.201
 30
0.0
 10
7.2536
 20
12.1185
 30
0.0
 10
7.352
 20
12.0773
 30
0.0
 10
7.4661
 20
12.0776
 30
0.0
 10
7.4661
 20
12.0776
 30
0.0
 10
7.5799
 20
12.0783
 30
0.0
 10
7.6793
 20
12.1205
 30
0.0
 10
7.7638
 20
12.205
 30
0.0
 10
7.7638
 20
12.205
 30
0.0
 10
7.8443
 20
12.2855
 30
0.0
 10
7.8845
 20
12.3783
 30
0.0
 10
7.8842
 20
12.4831
 30
0.0
 10
7.8842
 20
12.4831
 30
0.0
 10
7.8835
 20
12.5882
 30
0.0
 10
7.843
 20
12.6813
 30
0.0
 10
7.7618
 20
12.7625
 30
0.0
 10
7.7618
 20
12.7625
 30
0.0
 10
7.7285
 20
12.7957
 30
0.0
 10
7.6807
 20
12.8303
 30
0.0
 10
7.6184
 20
12.8666
 30
0.0
 10
7.6184
 20
12.8666
 30
0.0
 10
7.6184
 20
12.8666
 30
0.0
 10
7.7921
 20
13.0009
 30
0.0
 10
7.7921
 20
13.0009
 30
0.0
 10
7.7921
 20
13.0009
 30
0.0
 10
7.8024
 20
12.988
 30
0.0
 10
7.811
 20
12.978
 30
0.0
 10
7.8183
 20
12.9707
 30
0.0
 10
7.8183
 20
12.9707
 30
0.0
 10
7.8928
 20
12.8962
 30
0.0
 10
7.9797
 20
12.8486
 30
0.0
 10
8.0785
 20
12.8277
 30
0.0
 10
8.0785
 20
12.8277
 30
0.0
 10
8.1772
 20
12.8067
 30
0.0
 10
8.2674
 20
12.837
 30
0.0
 10
8.3485
 20
12.9181
 30
0.0
 10
8.3485
 20
12.9181
 30
0.0
 10
8.4127
 20
12.9823
 30
0.0
 10
8.4443
 20
13.0578
 30
0.0
 10
8.4427
 20
13.1433
 30
0.0
 10
8.4427
 20
13.1433
 30
0.0
 10
8.4413
 20
13.2291
 30
0.0
 10
8.4064
 20
13.3066
 30
0.0
 10
8.3376
 20
13.3755
 30
0.0
 10
8.3376
 20
13.3755
 30
0.0
 10
8.2694
 20
13.4437
 30
0.0
 10
8.1909
 20
13.4789
 30
0.0
 10
8.1031
 20
13.4816
 30
0.0
 10
8.1031
 20
13.4816
 30
0.0
 10
8.0146
 20
13.4842
 30
0.0
 10
7.9208
 20
13.449
 30
0.0
 10
7.822
 20
13.3761
 30
0.0
 10
7.822
 20
13.3761
 30
0.0
 10
7.822
 20
13.3761
 30
0.0
 10
7.678
 20
13.5827
 30
0.0
 10
7.678
 20
13.5827
 30
0.0
 10
7.678
 20
13.5827
 30
0.0
 10
7.817
 20
13.6791
 30
0.0
 10
7.957
 20
13.7214
 30
0.0
 10
8.0974
 20
13.7101
 30
0.0
 10
8.0974
 20
13.7101
 30
0.0
 10
8.2381
 20
13.6984
 30
0.0
 10
8.3652
 20
13.6366
 30
0.0
 10
8.4782
 20
13.5235
 30
0.0
 10
8.4782
 20
13.5235
 30
0.0
 10
8.5561
 20
13.4457
 30
0.0
 10
8.611
 20
13.3568
 30
0.0
 10
8.6432
 20
13.2581
 30
0.0
 10
8.6432
 20
13.2581
 30
0.0
 10
8.6751
 20
13.1589
 30
0.0
 10
8.6798
 20
13.0632
 30
0.0
 10
8.6569
 20
12.9703
 30
0.0
 10
8.6569
 20
12.9703
 30
0.0
 10
8.6336
 20
12.8779
 30
0.0
 10
8.59
 20
12.799
 30
0.0
 10
8.5248
 20
12.7339
 30
0.0
 10
8.5248
 20
12.7339
 30
0.0
 10
8.4633
 20
12.6723
 30
0.0
 10
8.3904
 20
12.6327
 30
0.0
 10
8.3063
 20
12.6151
 30
0.0
 10
8.3063
 20
12.6151
 30
0.0
 10
8.2225
 20
12.5978
 30
0.0
 10
8.1333
 20
12.6065
 30
0.0
 10
8.0385
 20
12.6414
 30
0.0
 10
8.0385
 20
12.6414
 30
0.0
 10
8.1037
 20
12.5376
 30
0.0
 10
8.1287
 20
12.4315
 30
0.0
 10
8.114
 20
12.3231
 30
0.0
 10
8.114
 20
12.3231
 30
0.0
 10
8.0994
 20
12.2153
 30
0.0
 10
8.0459
 20
12.1152
 30
0.0
 10
7.9537
 20
12.0231
 30
0.0
 10
7.9537
 20
12.0231
 30
0.0
 10
7.829
 20
11.8983
 30
0.0
 10
7.678
 20
11.8378
 30
0.0
 10
7.5
 20
11.8421
 30
0.0
 10
7.5
 20
11.8421
 30
0.0
 10
7.3224
 20
11.8461
 30
0.0
 10
7.1641
 20
11.918
 30
0.0
 10
7.0251
 20
12.057
 30
0.0
 10
7.0251
 20
12.057
 30
0.0
 10
6.8997
 20
12.1824
 30
0.0
 10
6.8328
 20
12.3237
 30
0.0
 10
6.8248
 20
12.4814
 30
0.0
 10
6.8248
 20
12.4814
 30
0.0
 10
6.8165
 20
12.6387
 30
0.0
 10
6.8661
 20
12.7827
 30
0.0
 10
6.9735
 20
12.9135
 30
0.0
  0
SPLINE
  5
59
330
1F
100
AcDbEntity
  8
DEFAULT_2
 62
   250
100
AcDbSpline
210
0.0
220
0.0
230
1.0
 70
    11
 71
     3
 72
    52
 73
    48
 74
     0
 42
0.0000000001
 43
0.0000000001
 40
0.0
 40
0.0
 40
0.0
 40
0.0
 40
0.0769230769230769
 40
0.0769230769230769
 40
0.0769230769230769
 40
0.0769230769230769
 40
0.1538461538461539
 40
0.1538461538461539
 40
0.1538461538461539
 40
0.1538461538461539
 40
0.2307692307692308
 40
0.2307692307692308
 40
0.2307692307692308
 40
0.2307692307692308
 40
0.3076923076923077
 40
0.3076923076923077
 40
0.3076923076923077
 40
0.3076923076923077
 40
0.3846153846153846
 40
0.3846153846153846
 40
0.3846153846153846
 40
0.3846153846153846
 40
0.4615384615384616
 40
0.4615384615384616
 40
0.4615384615384616
 40
0.4615384615384616
 40
0.5384615384615384
 40
0.5384615384615384
 40
0.5384615384615384
 40
0.5384615384615384
 40
0.6153846153846154
 40
0.6153846153846154
 40
0.6153846153846154
 40
0.6153846153846154
 40
0.6923076923076923
 40
0.6923076923076923
 40
0.6923076923076923
 40
0.6923076923076923
 40
0.7692307692307693
 40
0.7692307692307693
 40
0.7692307692307693
 40
0.7692307692307693
 40
0.8461538461538461
 40
0.8461538461538461
 40
0.8461538461538461
 40
0.8461538461538461
 40
1.0
 40
1.0
 40
1.0
 40
1.0
 10
8.4097
 20
12.1318
 30
0.0
 10
8.5787
 20
12.3008
 30
0.0
 10
8.732
 20
12.4195
 30
0.0
 10
8.8697
 20
12.4874
 30
0.0
 10
8.8697
 20
12.4874
 30
0.0
 10
9.0074
 20
12.5559
 30
0.0
 10
9.1388
 20
12.5835
 30
0.0
 10
9.2632
 20
12.5709
 30
0.0
 10
9.2632
 20
12.5709
 30
0.0
 10
9.3876
 20
12.5582
 30
0.0
 10
9.5017
 20
12.5
 30
0.0
 10
9.6055
 20
12.3962
 30
0.0
 10
9.6055
 20
12.3962
 30
0.0
 10
9.6823
 20
12.3194
 30
0.0
 10
9.7339
 20
12.2366
 30
0.0
 10
9.7608
 20
12.1478
 30
0.0
 10
9.7608
 20
12.1478
 30
0.0
 10
9.7881
 20
12.0593
 30
0.0
 10
9.7911
 20
11.9672
 30
0.0
 10
9.7708
 20
11.8711
 30
0.0
 10
9.7708
 20
11.8711
 30
0.0
 10
9.7502
 20
11.7753
 30
0.0
 10
9.7089
 20
11.6748
 30
0.0
 10
9.6467
 20
11.57
 30
0.0
 10
9.6467
 20
11.57
 30
0.0
 10
9.5849
 20
11.4649
 30
0.0
 10
9.4831
 20
11.3419
 30
0.0
 10
9.3414
 20
11.2002
 30
0.0
 10
9.3414
 20
11.2002
 30
0.0
 10
9.1737
 20
11.0325
 30
0.0
 10
9.0214
 20
10.9148
 30
0.0
 10
8.8841
 20
10.8459
 30
0.0
 10
8.8841
 20
10.8459
 30
0.0
 10
8.7463
 20
10.7774
 30
0.0
 10
8.6153
 20
10.7495
 30
0.0
 10
8.4906
 20
10.7618
 30
0.0
 10
8.4906
 20
10.7618
 30
0.0
 10
8.3658
 20
10.7741
 30
0.0
 10
8.2514
 20
10.8326
 30
0.0
 10
8.1466
 20
10.9374
 30
0.0
 10
8.1466
 20
10.9374
 30
0.0
 10
8.0089
 20
11.0751
 30
0.0
 10
7.9501
 20
11.2324
 30
0.0
 10
7.9704
 20
11.4097
 30
0.0
 10
7.9704
 20
11.4097
 30
0.0
 10
7.995
 20
11.6226
 30
0.0
 10
8.1416
 20
11.8637
 30
0.0
 10
8.4097
 20
12.1318
 30
0.0
  0
SPLINE
  5
5A
330
1F
100
AcDbEntity
  8
DEFAULT_2
 62
   250
100
AcDbSpline
210
0.0
220
0.0
230
1.0
 70
    11
 71
     3
 72
    36
 73
    32
 74
     0
 42
0.0000000001
 43
0.0000000001
 40
0.0
 40
0.0
 40
0.0
 40
0.0
 40
0.1111111111111111
 40
0.1111111111111111
 40
0.1111111111111111
 40
0.1111111111111111
 40
0.2222222222222222
 40
0.2222222222222222
 40
0.2222222222222222
 40
0.2222222222222222
 40
0.3333333333333333
 40
0.3333333333333333
 40
0.3333333333333333
 40
0.3333333333333333
 40
0.4444444444444444
 40
0.4444444444444444
 40
0.4444444444444444
 40
0.4444444444444444
 40
0.5555555555555556
 40
0.5555555555555556
 40
0.5555555555555556
 40
0.5555555555555556
 40
0.6666666666666666
 40
0.6666666666666666
 40
0.6666666666666666
 40
0.6666666666666666
 40
0.7777777777777778
 40
0.7777777777777778
 40
0.7777777777777778
 40
0.7777777777777778
 40
1.0
 40
1.0
 40
1.0
 40
1.0
 10
8.59
 20
11.9515
 30
0.0
 10
8.3555
 20
11.717
 30
0.0
 10
8.2271
 20
11.5334
 30
0.0
 10
8.2042
 20
11.4007
 30
0.0
 10
8.2042
 20
11.4007
 30
0.0
 10
8.1816
 20
11.2683
 30
0.0
 10
8.2102
 20
11.1619
 30
0.0
 10
8.2907
 20
11.0814
 30
0.0
 10
8.2907
 20
11.0814
 30
0.0
 10
8.3715
 20
11.0006
 30
0.0
 10
8.4783
 20
10.9723
 30
0.0
 10
8.611
 20
10.9953
 30
0.0
 10
8.611
 20
10.9953
 30
0.0
 10
8.7437
 20
11.0182
 30
0.0
 10
8.9273
 20
11.1466
 30
0.0
 10
9.1611
 20
11.3804
 30
0.0
 10
9.1611
 20
11.3804
 30
0.0
 10
9.3963
 20
11.6156
 30
0.0
 10
9.525
 20
11.7995
 30
0.0
 10
9.5473
 20
11.9316
 30
0.0
 10
9.5473
 20
11.9316
 30
0.0
 10
9.5699
 20
12.0639
 30
0.0
 10
9.5403
 20
12.1707
 30
0.0
 10
9.4585
 20
12.2526
 30
0.0
 10
9.4585
 20
12.2526
 30
0.0
 10
9.3776
 20
12.3334
 30
0.0
 10
9.2792
 20
12.3633
 30
0.0
 10
9.1628
 20
12.3434
 30
0.0
 10
9.1628
 20
12.3434
 30
0.0
 10
9.0158
 20
12.3167
 30
0.0
 10
8.8245
 20
12.186
 30
0.0
 10
8.59
 20
11.9515
 30
0.0
  0
SPLINE
  5
5B
330
1F
100
AcDbEntity
  8
DEFAULT_2
 62
   250
100
AcDbSpline
210
0.0
220
0.0
230
1.0
 70
    11
 71
     3
 72
    20
 73
    16
 74
     0
 42
0.0000000001
 43
0.0000000001
 40
0.0
 40
0.0
 40
0.0
 40
0.0
 40
0.2
 40
0.2
 40
0.2
 40
0.2
 40
0.4
 40
0.4
 40
0.4
 40
0.4
 40
0.6
 40
0.6
 40
0.6
 40
0.6
 40
1.0
 40
1.0
 40
1.0
 40
1.0
 10
3.8009
 20
13.0921
 30
0.0
 10
3.8009
 20
13.0921
 30
0.0
 10
1.979
 20
15.5129
 30
0.0
 10
1.979
 20
15.5129
 30
0.0
 10
1.979
 20
15.5129
 30
0.0
 10
1.979
 20
15.5129
 30
0.0
 10
2.0455
 20
15.5794
 30
0.0
 10
2.0455
 20
15.5794
 30
0.0
 10
2.0455
 20
15.5794
 30
0.0
 10
2.0455
 20
15.5794
 30
0.0
 10
4.4861
 20
13.7773
 30
0.0
 10
4.4861
 20
13.7773
 30
0.0
 10
4.4861
 20
13.7773
 30
0.0
 10
4.4861
 20
13.7773
 30
0.0
 10
3.8009
 20
13.0921
 30
0.0
 10
3.8009
 20
13.0921
 30
0.0
  0
SPLINE
  5
5C
330
1F
100
AcDbEntity
  8
DEFAULT_2
 62
   250
100
AcDbSpline
210
0.0
220
0.0
230
1.0
 70
    11
 71
     3
 72
    20
 73
    16
 74
     0
 42
0.0000000001
 43
0.0000000001
 40
0.0
 40
0.0
 40
0.0
 40
0.0
 40
0.2
 40
0.2
 40
0.2
 40
0.2
 40
0.4
 40
0.4
 40
0.4
 40
0.4
 40
0.6
 40
0.6
 40
0.6
 40
0.6
 40
1.0
 40
1.0
 40
1.0
 40
1.0
 10
-8.8159
 20
26.9726
 30
0.0
 10
-8.8159
 20
26.9726
 30
0.0
 10
-6.994
 20
24.5519
 30
0.0
 10
-6.994
 20
24.5519
 30
0.0
 10
-6.994
 20
24.5519
 30
0.0
 10
-6.994
 20
24.5519
 30
0.0
 10
-7.0605
 20
24.4854
 30
0.0
 10
-7.0605
 20
24.4854
 30
0.0
 10
-7.0605
 20
24.4854
 30
0.0
 10
-7.0605
 20
24.4854
 30
0.0
 10
-9.5011
 20
26.2874
 30
0.0
 10
-9.5011
 20
26.2874
 30
0.0
 10
-9.5011
 20
26.2874
 30
0.0
 10
-9.5011
 20
26.2874
 30
0.0
 10
-8.8159
 20
26.9726
 30
0.0
 10
-8.8159
 20
26.9726
 30
0.0
  0
SPLINE
  5
5D
330
1F
100
AcDbEntity
  8
DEFAULT_2
100
AcDbSpline
210
0.0
220
0.0
230
1.0
 70
    24
 71
     3
 72
     8
 73
     4
 74
     0
 42
0.0000000001
 43
0.0000000001
 40
0.0
 40
0.0
 40
0.0
 40
0.0
 40
1.0
 40
1.0
 40
1.0
 40
1.0
 10
18.5512
 20
-25.0433
 30
0.0
 10
18.5512
 20
-25.0433
 30
0.0
 10
18.5512
 20
32.434
 30
0.0
 10
18.5512
 20
32.434
 30
0.0
  0
SPLINE
  5
5E
330
1F
100
AcDbEntity
  8
DEFAULT_2
100
AcDbSpline
210
0.0
220
0.0
230
1.0
 70
    24
 71
     3
 72
     8
 73
     4
 74
     0
 42
0.0000000001
 43
0.0000000001
 40
0.0
 40
0.0
 40
0.0
 40
0.0
 40
1.0
 40
1.0
 40
1.0
 40
1.0
 10
19.0302
 20
32.434
 30
0.0
 10
19.0302
 20
32.434
 30
0.0
 10
18.5512
 20
32.434
 30
0.0
 10
18.5512
 20
32.434
 30
0.0
  0
SPLINE
  5
5F
330
1F
100
AcDbEntity
  8
DEFAULT_2
100
AcDbSpline
210
0.0
220
0.0
230
1.0
 70
    24
 71
     3
 72
     8
 73
     4
 74
     0
 42
0.0000000001
 43
0.0000000001
 40
0.0
 40
0.0
 40
0.0
 40
0.0
 40
1.0
 40
1.0
 40
1.0
 40
1.0
 10
19.0302
 20
-25.0433
 30
0.0
 10
19.0302
 20
-25.0433
 30
0.0
 10
19.0302
 20
32.434
 30
0.0
 10
19.0302
 20
32.434
 30
0.0
  0
SPLINE
  5
60
330
1F
100
AcDbEntity
  8
DEFAULT_2
100
AcDbSpline
210
0.0
220
0.0
230
1.0
 70
    24
 71
     3
 72
     8
 73
     4
 74
     0
 42
0.0000000001
 43
0.0000000001
 40
0.0
 40
0.0
 40
0.0
 40
0.0
 40
1.0
 40
1.0
 40
1.0
 40
1.0
 10
18.5512
 20
-25.0433
 30
0.0
 10
18.5512
 20
-25.0433
 30
0.0
 10
19.0302
 20
-25.0433
 30
0.0
 10
19.0302
 20
-25.0433
 30
0.0
  0
SPLINE
  5
61
330
1F
100
AcDbEntity
  8
DEFAULT_2
100
AcDbSpline
210
0.0
220
0.0
230
1.0
 70
    11
 71
     3
 72
   100
 73
    96
 74
     0
 42
0.0000000001
 43
0.0000000001
 40
0.0
 40
0.0
 40
0.0
 40
0.0
 40
0.04
 40
0.04
 40
0.04
 40
0.04
 40
0.08
 40
0.08
 40
0.08
 40
0.08
 40
0.12
 40
0.12
 40
0.12
 40
0.12
 40
0.16
 40
0.16
 40
0.16
 40
0.16
 40
0.2
 40
0.2
 40
0.2
 40
0.2
 40
0.24
 40
0.24
 40
0.24
 40
0.24
 40
0.28
 40
0.28
 40
0.28
 40
0.28
 40
0.32
 40
0.32
 40
0.32
 40
0.32
 40
0.36
 40
0.36
 40
0.36
 40
0.36
 40
0.4
 40
0.4
 40
0.4
 40
0.4
 40
0.44
 40
0.44
 40
0.44
 40
0.44
 40
0.48
 40
0.48
 40
0.48
 40
0.48
 40
0.52
 40
0.52
 40
0.52
 40
0.52
 40
0.56
 40
0.56
 40
0.56
 40
0.56
 40
0.6
 40
0.6
 40
0.6
 40
0.6
 40
0.64
 40
0.64
 40
0.64
 40
0.64
 40
0.68
 40
0.68
 40
0.68
 40
0.68
 40
0.72
 40
0.72
 40
0.72
 40
0.72
 40
0.76
 40
0.76
 40
0.76
 40
0.76
 40
0.8
 40
0.8
 40
0.8
 40
0.8
 40
0.84
 40
0.84
 40
0.84
 40
0.84
 40
0.88
 40
0.88
 40
0.88
 40
0.88
 40
0.92
 40
0.92
 40
0.92
 40
0.92
 40
1.0
 40
1.0
 40
1.0
 40
1.0
 10
-15.9476
 20
-11.5733
 30
0.0
 10
-15.9445
 20
-11.3903
 30
0.0
 10
-15.9413
 20
-11.2074
 30
0.0
 10
-15.9357
 20
-11.0244
 30
0.0
 10
-15.9357
 20
-11.0244
 30
0.0
 10
-15.9357
 20
-11.0244
 30
0.0
 10
-14.9898
 20
20.1761
 30
0.0
 10
-14.9898
 20
20.1761
 30
0.0
 10
-14.9898
 20
20.1761
 30
0.0
 10
-14.9706
 20
20.8116
 30
0.0
 10
-14.921
 20
21.4436
 30
0.0
 10
-14.8147
 20
22.0709
 30
0.0
 10
-14.8147
 20
22.0709
 30
0.0
 10
-14.6049
 20
23.309
 30
0.0
 10
-14.206
 20
24.5162
 30
0.0
 10
-13.6367
 20
25.6355
 30
0.0
 10
-13.6367
 20
25.6355
 30
0.0
 10
-13.0675
 20
26.7548
 30
0.0
 10
-12.3269
 20
27.7883
 30
0.0
 10
-11.4499
 20
28.6871
 30
0.0
 10
-11.4499
 20
28.6871
 30
0.0
 10
-10.573
 20
29.5859
 30
0.0
 10
-9.5581
 20
30.3517
 30
0.0
 10
-8.4531
 20
30.9483
 30
0.0
 10
-8.4531
 20
30.9483
 30
0.0
 10
-7.0463
 20
31.708
 30
0.0
 10
-5.4919
 20
32.1931
 30
0.0
 10
-3.9028
 20
32.3685
 30
0.0
 10
-3.9028
 20
32.3685
 30
0.0
 10
-2.3136
 20
32.5439
 30
0.0
 10
-0.6909
 20
32.4095
 30
0.0
 10
0.8478
 20
31.9751
 30
0.0
 10
0.8478
 20
31.9751
 30
0.0
 10
2.2763
 20
31.5717
 30
0.0
 10
3.6321
 20
30.91
 30
0.0
 10
4.8291
 20
30.0321
 30
0.0
 10
4.8291
 20
30.0321
 30
0.0
 10
6.1183
 20
29.0865
 30
0.0
 10
7.2226
 20
27.89
 30
0.0
 10
8.0621
 20
26.5294
 30
0.0
 10
8.0621
 20
26.5294
 30
0.0
 10
8.9016
 20
25.1687
 30
0.0
 10
9.4756
 20
23.6449
 30
0.0
 10
9.7424
 20
22.0685
 30
0.0
 10
9.7424
 20
22.0685
 30
0.0
 10
9.8485
 20
21.4412
 30
0.0
 10
9.898
 20
20.8092
 30
0.0
 10
9.9171
 20
20.1738
 30
0.0
 10
9.9171
 20
20.1738
 30
0.0
 10
9.9171
 20
20.1738
 30
0.0
 10
10.8692
 20
-11.4308
 30
0.0
 10
10.8692
 20
-11.4308
 30
0.0
 10
10.8692
 20
-11.4308
 30
0.0
 10
10.8908
 20
-12.1487
 30
0.0
 10
10.8348
 20
-12.8712
 30
0.0
 10
10.7299
 20
-13.5812
 30
0.0
 10
10.7299
 20
-13.5812
 30
0.0
 10
10.4949
 20
-15.1731
 30
0.0
 10
9.9722
 20
-16.7203
 30
0.0
 10
9.1915
 20
-18.1277
 30
0.0
 10
9.1915
 20
-18.1277
 30
0.0
 10
7.9175
 20
-20.4246
 30
0.0
 10
5.9647
 20
-22.3226
 30
0.0
 10
3.6325
 20
-23.5308
 30
0.0
 10
3.6325
 20
-23.5308
 30
0.0
 10
2.2572
 20
-24.2432
 30
0.0
 10
0.7569
 20
-24.715
 30
0.0
 10
-0.7785
 20
-24.918
 30
0.0
 10
-0.7785
 20
-24.918
 30
0.0
 10
-1.3704
 20
-24.9963
 30
0.0
 10
-1.9642
 20
-25.0268
 30
0.0
 10
-2.5608
 20
-25.0337
 30
0.0
 10
-2.5608
 20
-25.0337
 30
0.0
 10
-3.0379
 20
-25.0264
 30
0.0
 10
-3.5133
 20
-25.0066
 30
0.0
 10
-3.9879
 20
-24.9549
 30
0.0
 10
-3.9879
 20
-24.9549
 30
0.0
 10
-5.0535
 20
-24.8389
 30
0.0
 10
-6.1066
 20
-24.5941
 30
0.0
 10
-7.1141
 20
-24.2282
 30
0.0
 10
-7.1141
 20
-24.2282
 30
0.0
 10
-9.0191
 20
-23.5365
 30
0.0
 10
-10.7609
 20
-22.4079
 30
0.0
 10
-12.1707
 20
-20.952
 30
0.0
 10
-12.1707
 20
-20.952
 30
0.0
 10
-13.5806
 20
-19.496
 30
0.0
 10
-14.6526
 20
-17.7189
 30
0.0
 10
-15.2828
 20
-15.7927
 30
0.0
 10
-15.2828
 20
-15.7927
 30
0.0
 10
-15.5791
 20
-14.8872
 30
0.0
 10
-15.7787
 20
-13.9485
 30
0.0
 10
-15.8767
 20
-13.0008
 30
0.0
 10
-15.8767
 20
-13.0008
 30
0.0
 10
-15.9258
 20
-12.5259
 30
0.0
 10
-15.943
 20
-12.0504
 30
0.0
 10
-15.9476
 20
-11.5733
 30
0.0
  0
SPLINE
  5
62
330
1F
100
AcDbEntity
  8
DEFAULT_2
100
AcDbSpline
210
0.0
220
0.0
230
1.0
 70
    11
 71
     3
 72
    80
 73
    76
 74
     0
 42
0.0000000001
 43
0.0000000001
 40
0.0
 40
0.0
 40
0.0
 40
0.0
 40
0.05
 40
0.05
 40
0.05
 40
0.05
 40
0.1
 40
0.1
 40
0.1
 40
0.1
 40
0.15
 40
0.15
 40
0.15
 40
0.15
 40
0.2
 40
0.2
 40
0.2
 40
0.2
 40
0.25
 40
0.25
 40
0.25
 40
0.25
 40
0.3
 40
0.3
 40
0.3
 40
0.3
 40
0.35
 40
0.35
 40
0.35
 40
0.35
 40
0.4
 40
0.4
 40
0.4
 40
0.4
 40
0.45
 40
0.45
 40
0.45
 40
0.45
 40
0.5
 40
0.5
 40
0.5
 40
0.5
 40
0.55
 40
0.55
 40
0.55
 40
0.55
 40
0.6
 40
0.6
 40
0.6
 40
0.6
 40
0.65
 40
0.65
 40
0.65
 40
0.65
 40
0.7
 40
0.7
 40
0.7
 40
0.7
 40
0.75
 40
0.75
 40
0.75
 40
0.75
 40
0.8
 40
0.8
 40
0.8
 40
0.8
 40
0.85
 40
0.85
 40
0.85
 40
0.85
 40
0.9
 40
0.9
 40
0.9
 40
0.9
 40
1.0
 40
1.0
 40
1.0
 40
1.0
 10
-8.7619
 20
20.111
 30
0.0
 10
-8.7619
 20
19.7883
 30
0.0
 10
-8.7495
 20
19.4677
 30
0.0
 10
-8.7058
 20
19.1476
 30
0.0
 10
-8.7058
 20
19.1476
 30
0.0
 10
-8.6022
 20
18.3894
 30
0.0
 10
-8.3567
 20
17.6523
 30
0.0
 10
-7.9871
 20
16.9826
 30
0.0
 10
-7.9871
 20
16.9826
 30
0.0
 10
-7.5586
 20
16.206
 30
0.0
 10
-6.9654
 20
15.5263
 30
0.0
 10
-6.254
 20
14.9966
 30
0.0
 10
-6.254
 20
14.9966
 30
0.0
 10
-5.6404
 20
14.5398
 30
0.0
 10
-4.9433
 20
14.1968
 30
0.0
 10
-4.2061
 20
13.9916
 30
0.0
 10
-4.2061
 20
13.9916
 30
0.0
 10
-3.5863
 20
13.8191
 30
0.0
 10
-2.9378
 20
13.7433
 30
0.0
 10
-2.2949
 20
13.7682
 30
0.0
 10
-2.2949
 20
13.7682
 30
0.0
 10
-1.2487
 20
13.8088
 30
0.0
 10
-0.2154
 20
14.1181
 30
0.0
 10
0.681
 20
14.6591
 30
0.0
 10
0.681
 20
14.6591
 30
0.0
 10
1.5082
 20
15.1583
 30
0.0
 10
2.2163
 20
15.8528
 30
0.0
 10
2.7314
 20
16.6701
 30
0.0
 10
2.7314
 20
16.6701
 30
0.0
 10
3.0745
 20
17.2145
 30
0.0
 10
3.3331
 20
17.814
 30
0.0
 10
3.4936
 20
18.437
 30
0.0
 10
3.4936
 20
18.437
 30
0.0
 10
3.6844
 20
19.178
 30
0.0
 10
3.7359
 20
19.9532
 30
0.0
 10
3.6471
 20
20.713
 30
0.0
 10
3.6471
 20
20.713
 30
0.0
 10
3.5535
 20
21.5137
 30
0.0
 10
3.304
 20
22.292
 30
0.0
 10
2.9145
 20
22.9979
 30
0.0
 10
2.9145
 20
22.9979
 30
0.0
 10
2.4469
 20
23.8453
 30
0.0
 10
1.783
 20
24.5769
 30
0.0
 10
0.9849
 20
25.1243
 30
0.0
 10
0.9849
 20
25.1243
 30
0.0
 10
0.2209
 20
25.6482
 30
0.0
 10
-0.6586
 20
25.999
 30
0.0
 10
-1.5742
 20
26.1422
 30
0.0
 10
-1.5742
 20
26.1422
 30
0.0
 10
-1.8934
 20
26.1921
 30
0.0
 10
-2.2137
 20
26.2107
 30
0.0
 10
-2.5363
 20
26.217
 30
0.0
 10
-2.5363
 20
26.217
 30
0.0
 10
-2.7781
 20
26.2123
 30
0.0
 10
-3.0188
 20
26.2029
 30
0.0
 10
-3.2592
 20
26.1748
 30
0.0
 10
-3.2592
 20
26.1748
 30
0.0
 10
-3.7384
 20
26.1189
 30
0.0
 10
-4.2126
 20
26.0065
 30
0.0
 10
-4.666
 20
25.8415
 30
0.0
 10
-4.666
 20
25.8415
 30
0.0
 10
-5.5738
 20
25.511
 30
0.0
 10
-6.4025
 20
24.966
 30
0.0
 10
-7.0655
 20
24.2633
 30
0.0
 10
-7.0655
 20
24.2633
 30
0.0
 10
-7.673
 20
23.6193
 30
0.0
 10
-8.1411
 20
22.8437
 30
0.0
 10
-8.4277
 20
22.006
 30
0.0
 10
-8.4277
 20
22.006
 30
0.0
 10
-8.5579
 20
21.6257
 30
0.0
 10
-8.6513
 20
21.2312
 30
0.0
 10
-8.7058
 20
20.8329
 30
0.0
 10
-8.7058
 20
20.8329
 30
0.0
 10
-8.7385
 20
20.5931
 30
0.0
 10
-8.7525
 20
20.3526
 30
0.0
 10
-8.7619
 20
20.111
 30
0.0
  0
SPLINE
  5
63
330
1F
100
AcDbEntity
  8
DEFAULT_2
100
AcDbSpline
210
0.0
220
0.0
230
1.0
 70
    24
 71
     3
 72
     8
 73
     4
 74
     0
 42
0.0000000001
 43
0.0000000001
 40
0.0
 40
0.0
 40
0.0
 40
0.0
 40
1.0
 40
1.0
 40
1.0
 40
1.0
 10
23.7575
 20
30.0676
 30
0.0
 10
23.7575
 20
30.0676
 30
0.0
 10
12.1679
 20
30.0676
 30
0.0
 10
12.1679
 20
30.0676
 30
0.0
  0
SPLINE
  5
64
330
1F
100
AcDbEntity
  8
DEFAULT_2
  6
NEW_LINE1
100
AcDbSpline
210
0.0
220
0.0
230
1.0
 70
    24
 71
     3
 72
     8
 73
     4
 74
     0
 42
0.0000000001
 43
0.0000000001
 40
0.0
 40
0.0
 40
0.0
 40
0.0
 40
1.0
 40
1.0
 40
1.0
 40
1.0
 10
-2.5232
 20
33.7844
 30
0.0
 10
-2.5232
 20
33.7844
 30
0.0
 10
-2.5232
 20
-28.5327
 30
0.0
 10
-2.5232
 20
-28.5327
 30
0.0
  0
SPLINE
  5
66
330
1F
100
AcDbEntity
  8
DEFAULT_2
  6
NEW_LINE2
100
AcDbSpline
210
0.0
220
0.0
230
1.0
 70
    24
 71
     3
 72
     8
 73
     4
 74
     0
 42
0.0000000001
 43
0.0000000001
 40
0.0
 40
0.0
 40
0.0
 40
0.0
 40
1.0
 40
1.0
 40
1.0
 40
1.0
 10
-11.0113
 20
19.9805
 30
0.0
 10
-11.0113
 20
19.9805
 30
0.0
 10
4.9994
 20
19.9805
 30
0.0
 10
4.9994
 20
19.9805
 30
0.0
  0
SPLINE
  5
68
330
1F
100
AcDbEntity
  8
DEFAULT_2
100
AcDbSpline
210
0.0
220
0.0
230
1.0
 70
    24
 71
     3
 72
     8
 73
     4
 74
     0
 42
0.0000000001
 43
0.0000000001
 40
0.0
 40
0.0
 40
0.0
 40
0.0
 40
1.0
 40
1.0
 40
1.0
 40
1.0
 10
-21.0515
 20
-25.1896
 30
0.0
 10
-21.0515
 20
-25.1896
 30
0.0
 10
-4.8306
 20
-25.1896
 30
0.0
 10
-4.8306
 20
-25.1896
 30
0.0
  0
SPLINE
  5
69
330
1F
100
AcDbEntity
  8
DEFAULT_2
100
AcDbSpline
210
0.0
220
0.0
230
1.0
 70
    24
 71
     3
 72
     8
 73
     4
 74
     0
 42
0.0000000001
 43
0.0000000001
 40
0.0
 40
0.0
 40
0.0
 40
0.0
 40
1.0
 40
1.0
 40
1.0
 40
1.0
 10
-21.0711
 20
32.4704
 30
0.0
 10
-21.0711
 20
32.4704
 30
0.0
 10
-5.1089
 20
32.4704
 30
0.0
 10
-5.1089
 20
32.4704
 30
0.0
  0
SPLINE
  5
6A
330
1F
100
AcDbEntity
  8
DEFAULT_2
100
AcDbSpline
210
0.0
220
0.0
230
1.0
 70
    24
 71
     3
 72
     8
 73
     4
 74
     0
 42
0.0000000001
 43
0.0000000001
 40
0.0
 40
0.0
 40
0.0
 40
0.0
 40
1.0
 40
1.0
 40
1.0
 40
1.0
 10
-20.5796
 20
3.6404
 30
0.0
 10
-20.5796
 20
3.6404
 30
0.0
 10
-20.5796
 20
-23.4796
 30
0.0
 10
-20.5796
 20
-23.4796
 30
0.0
  0
SPLINE
  5
6B
330
1F
100
AcDbEntity
  8
DEFAULT_2
100
AcDbSpline
210
0.0
220
0.0
230
1.0
 70
    24
 71
     3
 72
     8
 73
     4
 74
     0
 42
0.0000000001
 43
0.0000000001
 40
0.0
 40
0.0
 40
0.0
 40
0.0
 40
1.0
 40
1.0
 40
1.0
 40
1.0
 10
-20.5796
 20
3.6404
 30
0.0
 10
-20.5796
 20
3.6404
 30
0.0
 10
-20.5796
 20
30.7604
 30
0.0
 10
-20.5796
 20
30.7604
 30
0.0
  0
SPLINE
  5
6C
330
1F
100
AcDbEntity
  8
DEFAULT_2
100
AcDbSpline
210
0.0
220
0.0
230
1.0
 70
    24
 71
     3
 72
     8
 73
     4
 74
     0
 42
0.0000000001
 43
0.0000000001
 40
0.0
 40
0.0
 40
0.0
 40
0.0
 40
1.0
 40
1.0
 40
1.0
 40
1.0
 10
-16.0036
 20
-15.0987
 30
0.0
 10
-16.0036
 20
-15.0987
 30
0.0
 10
-16.0036
 20
-33.7178
 30
0.0
 10
-16.0036
 20
-33.7178
 30
0.0
  0
SPLINE
  5
6D
330
1F
100
AcDbEntity
  8
DEFAULT_2
100
AcDbSpline
210
0.0
220
0.0
230
1.0
 70
    24
 71
     3
 72
     8
 73
     4
 74
     0
 42
0.0000000001
 43
0.0000000001
 40
0.0
 40
0.0
 40
0.0
 40
0.0
 40
1.0
 40
1.0
 40
1.0
 40
1.0
 10
10.8169
 20
-15.9945
 30
0.0
 10
10.8169
 20
-15.9945
 30
0.0
 10
10.8169
 20
-33.7844
 30
0.0
 10
10.8169
 20
-33.7844
 30
0.0
  0
SPLINE
  5
6E
330
1F
100
AcDbEntity
  8
DEFAULT_2
100
AcDbSpline
210
0.0
220
0.0
230
1.0
 70
    24
 71
     3
 72
     8
 73
     4
 74
     0
 42
0.0000000001
 43
0.0000000001
 40
0.0
 40
0.0
 40
0.0
 40
0.0
 40
1.0
 40
1.0
 40
1.0
 40
1.0
 10
10.1631
 20
-33.281
 30
0.0
 10
10.1631
 20
-33.281
 30
0.0
 10
-14.2936
 20
-33.281
 30
0.0
 10
-14.2936
 20
-33.281
 30
0.0
  0
SPLINE
  5
6F
330
1F
100
AcDbEntity
  8
DEFAULT_2
100
AcDbSpline
210
0.0
220
0.0
230
1.0
 70
    24
 71
     3
 72
     8
 73
     4
 74
     0
 42
0.0000000001
 43
0.0000000001
 40
0.0
 40
0.0
 40
0.0
 40
0.0
 40
1.0
 40
1.0
 40
1.0
 40
1.0
 10
7.7085
 20
9.8434
 30
0.0
 10
7.7085
 20
9.8434
 30
0.0
 10
-10.7567
 20
28.2457
 30
0.0
 10
-10.7567
 20
28.2457
 30
0.0
  0
ENDSEC
  0
SECTION
  2
OBJECTS
  0
DICTIONARY
  5
C
330
0
100
AcDbDictionary
  3
ACAD_GROUP
350
D
  3
ACAD_LAYOUT
350
1A
  3
ACAD_MATERIAL
350
3B
  3
ACAD_MLEADERSTYLE
350
92
  3
ACAD_MLINESTYLE
350
17
  3
ACAD_PLOTSETTINGS
350
19
  3
ACAD_VISUALSTYLE
350
2A
  3
ACDBHEADERROUNDTRIPXREC
350
70
  3
ACDBVARIABLEDICTIONARY
350
90
  0
DICTIONARY
  5
D
102
{ACAD_REACTORS
330
C
102
}
330
C
100
AcDbDictionary
  0
DICTIONARY
  5
1A
102
{ACAD_REACTORS
330
C
102
}
330
C
100
AcDbDictionary
  0
DICTIONARY
  5
3B
102
{ACAD_REACTORS
330
C
102
}
330
C
100
AcDbDictionary
  3
BYBLOCK
350
3D
  3
BYLAYER
350
3C
  3
GLOBAL
350
3E
  0
DICTIONARY
  5
92
102
{ACAD_REACTORS
330
C
102
}
330
C
100
AcDbDictionary
  0
DICTIONARY
  5
17
102
{ACAD_REACTORS
330
C
102
}
330
C
100
AcDbDictionary
  3
STANDARD
350
18
  0
DICTIONARY
  5
19
102
{ACAD_REACTORS
330
C
102
}
330
C
100
AcDbDictionary
  0
DICTIONARY
  5
2A
102
{ACAD_REACTORS
330
C
102
}
330
C
100
AcDbDictionary
  3
2DWIREFRAME
350
2F
  3
3D_HIDDEN
350
31
  3
3DWIREFRAME
350
30
  3
BASIC
350
32
  3
BRIGHTEN
350
36
  3
COLORCHANGE
350
3A
  3
CONCEPTUAL
350
34
  3
DIM
350
35
  3
FACEPATTERN
350
39
  3
FLAT
350
2B
  3
FLATWITHEDGES
350
2C
  3
GOURAUD
350
2D
  3
GOURAUDWITHEDGES
350
2E
  3
LINEPATTERN
350
38
  3
REALISTIC
350
33
  3
THICKEN
350
37
  0
DICTIONARY
  5
70
102
{ACAD_REACTORS
330
C
102
}
330
C
100
AcDbDictionary
  3
CEPSNTYPE
350
79
  3
DIMSTYLEDATA
350
8F
  3
FINGERPRINTGUID
350
7A
  3
HYPERLINKBASE
350
73
  3
INSUNITS
350
78
  3
LAYOUTDICT
350
75
  3
LWETCUNION
350
77
  3
PLOTSETDICT
350
76
  3
PSVPSCALE
350
7C
  3
PUCSBASE
350
7F
  3
PUCSORGBACK
350
85
  3
PUCSORGBOTTOM
350
81
  3
PUCSORGFRONT
350
84
  3
PUCSORGLEFT
350
82
  3
PUCSORGRIGHT
350
83
  3
PUCSORGTOP
350
80
  3
PUCSORTHOREF
350
7D
  3
PUCSORTHOVIEW
350
7E
  3
STYLESHEET
350
74
  3
TSTACKALIGN
350
71
  3
TSTACKSIZE
350
72
  3
UCSBASE
350
88
  3
UCSORGBACK
350
8E
  3
UCSORGBOTTOM
350
8A
  3
UCSORGFRONT
350
8D
  3
UCSORGLEFT
350
8B
  3
UCSORGRIGHT
350
8C
  3
UCSORGTOP
350
89
  3
UCSORTHOREF
350
86
  3
UCSORTHOVIEW
350
87
  3
VERSIONGUID
350
7B
  0
DICTIONARY
  5
90
102
{ACAD_REACTORS
330
C
102
}
330
C
100
AcDbDictionary
  3
DIMASSOC
350
93
  3
HIDETEXT
350
94
  0
MATERIAL
  5
3D
102
{ACAD_REACTORS
330
3B
102
}
102
{ACAD_XDICTIONARY
360
97
102
}
330
3B
100
AcDbMaterial
  1
ByBlock
  0
MATERIAL
  5
3C
102
{ACAD_REACTORS
330
3B
102
}
102
{ACAD_XDICTIONARY
360
95
102
}
330
3B
100
AcDbMaterial
  1
ByLayer
  0
MATERIAL
  5
3E
102
{ACAD_REACTORS
330
3B
102
}
102
{ACAD_XDICTIONARY
360
99
102
}
330
3B
100
AcDbMaterial
  1
Global
  0
MLINESTYLE
  5
18
102
{ACAD_REACTORS
330
17
102
}
330
17
100
AcDbMlineStyle
  2
Standard
 70
     0
  3

 62
   256
 51
90.0
 52
90.0
 71
     2
 49
0.5
 62
   256
  6
BYLAYER
 49
-0.5
 62
   256
  6
BYLAYER
  0
ACAD_PROXY_OBJECT
  5
2F
102
{ACAD_REACTORS
330
2A
102
}
330
2A
100
AcDbProxyObject
 90
      499
 91
      501
 93
      436
310
42CC9915DA5C99599C985B595049028333333333333E3BF0000000000000FB0107901411070040501600405405064090741402480A0340
1001
ACAD
1000
AcDbSavedByObjectVersion
1070
     0
  0
ACAD_PROXY_OBJECT
  5
31
102
{ACAD_REACTORS
330
2A
102
}
330
2A
100
AcDbProxyObject
 90
      499
 91
      501
 93
      500
310
424CD108121A5919195B90640502408333333333333E3BF0000000000000FB01079024090700405020000000000001110200405405064090740C02480A0340
1001
ACAD
1000
AcDbSavedByObjectVersion
1070
     0
  0
ACAD_PROXY_OBJECT
  5
30
102
{ACAD_REACTORS
330
2A
102
}
330
2A
100
AcDbProxyObject
 90
      499
 91
      501
 93
      436
310
42CCD915DA5C99599C985B595059028333333333333E3BF0000000000000FB0107901411070040501600405405064090741402480A0340
1001
ACAD
1000
AcDbSavedByObjectVersion
1070
     0
  0
ACAD_PROXY_OBJECT
  5
32
102
{ACAD_REACTORS
330
2A
102
}
330
2A
100
AcDbProxyObject
 90
      499
 91
      501
 93
      388
310
4150985CDA58D07406404333333333333E3BF0000000000000FB0107A41107004050150841D405064090741402480A0350
1001
ACAD
1000
AcDbSavedByObjectVersion
1070
     0
  0
ACAD_PROXY_OBJECT
  5
36
102
{ACAD_REACTORS
330
2A
102
}
330
2A
100
AcDbProxyObject
 90
      499
 91
      501
 93
      428
310
42109C9A59DA1D195B90C409028333333333333E3BF0000000000000FB010790141107004050150841D405064090741402480A029950
1001
ACAD
1000
AcDbSavedByObjectVersion
1070
     0
  0
ACAD_PROXY_OBJECT
  5
3A
102
{ACAD_REACTORS
330
2A
102
}
330
2A
100
AcDbProxyObject
 90
      499
 91
      501
 93
      452
310
42D0DBDB1BDC90DA185B99D95104090240C333333333333E3BF0000000000000FB0108901411070040501508421405064090741402480A0350
1001
ACAD
1000
AcDbSavedByObjectVersion
1070
     0
  0
ACAD_PROXY_OBJECT
  5
34
102
{ACAD_REACTORS
330
2A
102
}
330
2A
100
AcDbProxyObject
 90
      499
 91
      501
 93
      500
310
4290DBDB98D95C1D1D585B10940D028333333333333E3BF0000000000000FB0107902409070040501000000000000111010841D405064090740C02480A0340
1001
ACAD
1000
AcDbSavedByObjectVersion
1070
     0
  0
ACAD_PROXY_OBJECT
  5
35
102
{ACAD_REACTORS
330
2A
102
}
330
2A
100
AcDbProxyObject
 90
      499
 91
      501
 93
      412
310
40D11A5B50B409028333333333333E3BF0000000000000FB010790141107004050150841D405064090741402480A02677FFFFFD0
1001
ACAD
1000
AcDbSavedByObjectVersion
1070
     0
  0
ACAD_PROXY_OBJECT
  5
39
102
{ACAD_REACTORS
330
2A
102
}
330
2A
100
AcDbProxyObject
 90
      499
 91
      501
 93
      444
310
42D19858D95C185D1D195C9B90F409028333333333333E3BF0000000000000FB010790141107004050150841D405064090741402480A0350
1001
ACAD
1000
AcDbSavedByObjectVersion
1070
     0
  0
ACAD_PROXY_OBJECT
  5
2B
102
{ACAD_REACTORS
330
2A
102
}
330
2A
100
AcDbProxyObject
 90
      499
 91
      501
 93
      388
310
41119B185D240901404333333333333E3BF0000000000000F9010740A41107004050150841D405064090741402480A1B50
1001
ACAD
1000
AcDbSavedByObjectVersion
1070
     0
  0
ACAD_PROXY_OBJECT
  5
2C
102
{ACAD_REACTORS
330
2A
102
}
330
2A
100
AcDbProxyObject
 90
      499
 91
      501
 93
      476
310
43519B185D15DA5D1A115919D95CD0140901404333333333333E3BF0000000000000F9010740901411070040501600405405064090741402480A1B50
1001
ACAD
1000
AcDbSavedByObjectVersion
1070
     0
  0
ACAD_PROXY_OBJECT
  5
2D
102
{ACAD_REACTORS
330
2A
102
}
330
2A
100
AcDbProxyObject
 90
      499
 91
      501
 93
      412
310
41D1DBDD5C985D5910240902404333333333333E3BF0000000000000F9010740A411070040501641D405064090741402480A1B50
1001
ACAD
1000
AcDbSavedByObjectVersion
1070
     0
  0
ACAD_PROXY_OBJECT
  5
2E
102
{ACAD_REACTORS
330
2A
102
}
330
2A
100
AcDbProxyObject
 90
      499
 91
      501
 93
      500
310
4411DBDD5C985D5915DA5D1A115919D95CD0340902404333333333333E3BF0000000000000F9010740901411070040501600405405064090741402480A1B50
1001
ACAD
1000
AcDbSavedByObjectVersion
1070
     0
  0
ACAD_PROXY_OBJECT
  5
38
102
{ACAD_REACTORS
330
2A
102
}
330
2A
100
AcDbProxyObject
 90
      499
 91
      501
 93
      444
310
42D31A5B995C185D1D195C9B90E409028333333333333E3BF0000000000000FB010790141107004050750841D405064090741402483A0350
1001
ACAD
1000
AcDbSavedByObjectVersion
1070
     0
  0
ACAD_PROXY_OBJECT
  5
33
102
{ACAD_REACTORS
330
2A
102
}
330
2A
100
AcDbProxyObject
 90
      499
 91
      501
 93
      420
310
425499585B1A5CDD1A58D08409028333333333333E3BF0000000000000FB01079019070040501508421405064090741402480A1B40
1001
ACAD
1000
AcDbSavedByObjectVersion
1070
     0
  0
ACAD_PROXY_OBJECT
  5
37
102
{ACAD_REACTORS
330
2A
102
}
330
2A
100
AcDbProxyObject
 90
      499
 91
      501
 93
      412
310
41D51A1A58DAD95B90D409028333333333333E3BF0000000000000FB010790141107004050150C41D405064090741402480A0350
1001
ACAD
1000
AcDbSavedByObjectVersion
1070
     0
  0
XRECORD
  5
79
102
{ACAD_REACTORS
330
70
102
}
330
70
100
AcDbXrecord
 90
        0
  0
XRECORD
  5
8F
102
{ACAD_REACTORS
330
70
102
}
330
70
100
AcDbXrecord
1000
DSTYLE
1002
{
1070
   340
340
11
1002
}
  0
XRECORD
  5
7A
102
{ACAD_REACTORS
330
70
102
}
330
70
100
AcDbXrecord
  1
{E1486DB9-DB87-47CA-86D5-E9B3D6A961DD}
  0
XRECORD
  5
73
102
{ACAD_REACTORS
330
70
102
}
330
70
100
AcDbXrecord
  1

  0
XRECORD
  5
78
102
{ACAD_REACTORS
330
70
102
}
330
70
100
AcDbXrecord
 90
        4
  0
XRECORD
  5
75
102
{ACAD_REACTORS
330
70
102
}
330
70
100
AcDbXrecord
340
1A
  0
XRECORD
  5
77
102
{ACAD_REACTORS
330
70
102
}
330
70
100
AcDbXrecord
 90
    10781
  0
XRECORD
  5
76
102
{ACAD_REACTORS
330
70
102
}
330
70
100
AcDbXrecord
340
19
  0
XRECORD
  5
7C
102
{ACAD_REACTORS
330
70
102
}
330
70
100
AcDbXrecord
 40
0.0
  0
XRECORD
  5
7F
102
{ACAD_REACTORS
330
70
102
}
330
70
100
AcDbXrecord
340
0
  0
XRECORD
  5
85
102
{ACAD_REACTORS
330
70
102
}
330
70
100
AcDbXrecord
 10
0.0
 20
0.0
 30
0.0
  0
XRECORD
  5
81
102
{ACAD_REACTORS
330
70
102
}
330
70
100
AcDbXrecord
 10
0.0
 20
0.0
 30
0.0
  0
XRECORD
  5
84
102
{ACAD_REACTORS
330
70
102
}
330
70
100
AcDbXrecord
 10
0.0
 20
0.0
 30
0.0
  0
XRECORD
  5
82
102
{ACAD_REACTORS
330
70
102
}
330
70
100
AcDbXrecord
 10
0.0
 20
0.0
 30
0.0
  0
XRECORD
  5
83
102
{ACAD_REACTORS
330
70
102
}
330
70
100
AcDbXrecord
 10
0.0
 20
0.0
 30
0.0
  0
XRECORD
  5
80
102
{ACAD_REACTORS
330
70
102
}
330
70
100
AcDbXrecord
 10
0.0
 20
0.0
 30
0.0
  0
XRECORD
  5
7D
102
{ACAD_REACTORS
330
70
102
}
330
70
100
AcDbXrecord
340
0
  0
XRECORD
  5
7E
102
{ACAD_REACTORS
330
70
102
}
330
70
100
AcDbXrecord
 70
     0
  0
XRECORD
  5
74
102
{ACAD_REACTORS
330
70
102
}
330
70
100
AcDbXrecord
  1

  0
XRECORD
  5
71
102
{ACAD_REACTORS
330
70
102
}
330
70
100
AcDbXrecord
 90
        1
  0
XRECORD
  5
72
102
{ACAD_REACTORS
330
70
102
}
330
70
100
AcDbXrecord
 90
       70
  0
XRECORD
  5
88
102
{ACAD_REACTORS
330
70
102
}
330
70
100
AcDbXrecord
340
0
  0
XRECORD
  5
8E
102
{ACAD_REACTORS
330
70
102
}
330
70
100
AcDbXrecord
 10
0.0
 20
0.0
 30
0.0
  0
XRECORD
  5
8A
102
{ACAD_REACTORS
330
70
102
}
330
70
100
AcDbXrecord
 10
0.0
 20
0.0
 30
0.0
  0
XRECORD
  5
8D
102
{ACAD_REACTORS
330
70
102
}
330
70
100
AcDbXrecord
 10
0.0
 20
0.0
 30
0.0
  0
XRECORD
  5
8B
102
{ACAD_REACTORS
330
70
102
}
330
70
100
AcDbXrecord
 10
0.0
 20
0.0
 30
0.0
  0
XRECORD
  5
8C
102
{ACAD_REACTORS
330
70
102
}
330
70
100
AcDbXrecord
 10
0.0
 20
0.0
 30
0.0
  0
XRECORD
  5
89
102
{ACAD_REACTORS
330
70
102
}
330
70
100
AcDbXrecord
 10
0.0
 20
0.0
 30
0.0
  0
XRECORD
  5
86
102
{ACAD_REACTORS
330
70
102
}
330
70
100
AcDbXrecord
340
0
  0
XRECORD
  5
87
102
{ACAD_REACTORS
330
70
102
}
330
70
100
AcDbXrecord
 70
     0
  0
XRECORD
  5
7B
102
{ACAD_REACTORS
330
70
102
}
330
70
100
AcDbXrecord
  1
{FAEB1C32-E019-11D5-929B-00C0DF256EC4}
  0
DICTIONARYVAR
  5
93
102
{ACAD_REACTORS
330
90
102
}
330
90
100
DictionaryVariables
280
     0
  1
2
  0
DICTIONARYVAR
  5
94
102
{ACAD_REACTORS
330
90
102
}
330
90
100
DictionaryVariables
280
     0
  1
1
  0
DICTIONARY
  5
97
330
3D
100
AcDbDictionary
280
     1
  3
ACAD_XREC_ROUNDTRIP
360
98
  0
DICTIONARY
  5
95
330
3C
100
AcDbDictionary
280
     1
  3
ACAD_XREC_ROUNDTRIP
360
96
  0
DICTIONARY
  5
99
330
3E
100
AcDbDictionary
280
     1
  3
ACAD_XREC_ROUNDTRIP
360
9A
  0
XRECORD
  5
98
102
{ACAD_REACTORS
330
97
102
}
330
97
100
AcDbXrecord
102
MATERIAL
148
0.0
149
0.0
149
0.0
 93
        0
 94
      127
282
     0
 72
     1
 77
     1
171
     1
175
     1
179
     1
273
     0
  0
XRECORD
  5
96
102
{ACAD_REACTORS
330
95
102
}
330
95
100
AcDbXrecord
102
MATERIAL
148
0.0
149
0.0
149
0.0
 93
        0
 94
      127
282
     0
 72
     1
 77
     1
171
     1
175
     1
179
     1
273
     0
  0
XRECORD
  5
9A
102
{ACAD_REACTORS
330
99
102
}
330
99
100
AcDbXrecord
102
MATERIAL
148
0.0
149
0.0
149
0.0
 93
        0
 94
      127
282
     0
 72
     1
 77
     1
171
     1
175
     1
179
     1
273
     0
  0
ENDSEC
  0
EOF
