  0
SECTION
  2
HEADER
  9
$ACADVER
  1
AC1014
  9
$ACADMAINTVER
 70
     9
  9
$DWGCODEPAGE
  3
ANSI_1250
  9
$INSBASE
 10
0.0
 20
0.0
 30
0.0
  9
$EXTMIN
 10
-29.1606
 20
-16.5567
 30
0.0
  9
$EXTMAX
 10
29.1605
 20
16.4156
 30
0.0
  9
$LIMMIN
 10
0.0
 20
0.0
  9
$LIMMAX
 10
12.0
 20
9.0
  9
$ORTHOMODE
 70
     0
  9
$REGENMODE
 70
     1
  9
$FILLMODE
 70
     1
  9
$QTEXTMODE
 70
     0
  9
$MIRRTEXT
 70
     1
  9
$DRAGMODE
 70
     2
  9
$LTSCALE
 40
1.0
  9
$OSMODE
 70
    37
  9
$ATTMODE
 70
     1
  9
$TEXTSIZE
 40
0.2
  9
$TRACEWID
 40
0.05
  9
$TEXTSTYLE
  7
STANDARD
  9
$CLAYER
  8
0
  9
$CELTYPE
  6
BYLAYER
  9
$CECOLOR
 62
   256
  9
$CELTSCALE
 40
1.0
  9
$DELOBJ
 70
     1
  9
$DISPSILH
 70
     0
  9
$DIMSCALE
 40
1.0
  9
$DIMASZ
 40
0.18
  9
$DIMEXO
 40
0.0625
  9
$DIMDLI
 40
0.38
  9
$DIMRND
 40
0.0
  9
$DIMDLE
 40
0.0
  9
$DIMEXE
 40
0.18
  9
$DIMTP
 40
0.0
  9
$DIMTM
 40
0.0
  9
$DIMTXT
 40
0.18
  9
$DIMCEN
 40
0.09
  9
$DIMTSZ
 40
0.0
  9
$DIMTOL
 70
     0
  9
$DIMLIM
 70
     0
  9
$DIMTIH
 70
     1
  9
$DIMTOH
 70
     1
  9
$DIMSE1
 70
     0
  9
$DIMSE2
 70
     0
  9
$DIMTAD
 70
     0
  9
$DIMZIN
 70
     0
  9
$DIMBLK
  1

  9
$DIMASO
 70
     1
  9
$DIMSHO
 70
     1
  9
$DIMPOST
  1

  9
$DIMAPOST
  1

  9
$DIMALT
 70
     0
  9
$DIMALTD
 70
     2
  9
$DIMALTF
 40
25.4
  9
$DIMLFAC
 40
1.0
  9
$DIMTOFL
 70
     0
  9
$DIMTVP
 40
0.0
  9
$DIMTIX
 70
     0
  9
$DIMSOXD
 70
     0
  9
$DIMSAH
 70
     0
  9
$DIMBLK1
  1

  9
$DIMBLK2
  1

  9
$DIMSTYLE
  2
STANDARD
  9
$DIMCLRD
 70
     0
  9
$DIMCLRE
 70
     0
  9
$DIMCLRT
 70
     0
  9
$DIMTFAC
 40
1.0
  9
$DIMGAP
 40
0.09
  9
$DIMJUST
 70
     0
  9
$DIMSD1
 70
     0
  9
$DIMSD2
 70
     0
  9
$DIMTOLJ
 70
     1
  9
$DIMTZIN
 70
     0
  9
$DIMALTZ
 70
     0
  9
$DIMALTTZ
 70
     0
  9
$DIMFIT
 70
     3
  9
$DIMUPT
 70
     0
  9
$DIMUNIT
 70
     2
  9
$DIMDEC
 70
     4
  9
$DIMTDEC
 70
     4
  9
$DIMALTU
 70
     2
  9
$DIMALTTD
 70
     2
  9
$DIMTXSTY
  7
STANDARD
  9
$DIMAUNIT
 70
     0
  9
$LUNITS
 70
     2
  9
$LUPREC
 70
     4
  9
$SKETCHINC
 40
0.1
  9
$FILLETRAD
 40
0.5
  9
$AUNITS
 70
     0
  9
$AUPREC
 70
     0
  9
$MENU
  1
.
  9
$ELEVATION
 40
0.0
  9
$PELEVATION
 40
0.0
  9
$THICKNESS
 40
0.0
  9
$LIMCHECK
 70
     0
  9
$CHAMFERA
 40
0.5
  9
$CHAMFERB
 40
0.5
  9
$CHAMFERC
 40
1.0
  9
$CHAMFERD
 40
0.0
  9
$SKPOLY
 70
     0
  9
$TDCREATE
 40
2456220.565938009
  9
$TDUPDATE
 40
2456220.565938021
  9
$TDINDWG
 40
0.0000000116
  9
$TDUSRTIMER
 40
0.0000000116
  9
$USRTIMER
 70
     1
  9
$ANGBASE
 50
0.0
  9
$ANGDIR
 70
     0
  9
$PDMODE
 70
     0
  9
$PDSIZE
 40
0.0
  9
$PLINEWID
 40
0.0
  9
$COORDS
 70
     1
  9
$SPLFRAME
 70
     0
  9
$SPLINETYPE
 70
     6
  9
$SPLINESEGS
 70
     8
  9
$ATTDIA
 70
     0
  9
$ATTREQ
 70
     1
  9
$HANDLING
 70
     1
  9
$HANDSEED
  5
181
  9
$SURFTAB1
 70
     6
  9
$SURFTAB2
 70
     6
  9
$SURFTYPE
 70
     6
  9
$SURFU
 70
     6
  9
$SURFV
 70
     6
  9
$UCSNAME
  2

  9
$UCSORG
 10
0.0
 20
0.0
 30
0.0
  9
$UCSXDIR
 10
1.0
 20
0.0
 30
0.0
  9
$UCSYDIR
 10
0.0
 20
1.0
 30
0.0
  9
$PUCSNAME
  2

  9
$PUCSORG
 10
0.0
 20
0.0
 30
0.0
  9
$PUCSXDIR
 10
1.0
 20
0.0
 30
0.0
  9
$PUCSYDIR
 10
0.0
 20
1.0
 30
0.0
  9
$USERI1
 70
     0
  9
$USERI2
 70
     0
  9
$USERI3
 70
     0
  9
$USERI4
 70
     0
  9
$USERI5
 70
     0
  9
$USERR1
 40
0.0
  9
$USERR2
 40
0.0
  9
$USERR3
 40
0.0
  9
$USERR4
 40
0.0
  9
$USERR5
 40
0.0
  9
$WORLDVIEW
 70
     1
  9
$SHADEDGE
 70
     3
  9
$SHADEDIF
 70
    70
  9
$TILEMODE
 70
     1
  9
$MAXACTVP
 70
    64
  9
$PINSBASE
 10
0.0
 20
0.0
 30
0.0
  9
$PLIMCHECK
 70
     0
  9
$PEXTMIN
 10
1.000000000000000E+20
 20
1.000000000000000E+20
 30
1.000000000000000E+20
  9
$PEXTMAX
 10
-1.000000000000000E+20
 20
-1.000000000000000E+20
 30
-1.000000000000000E+20
  9
$PLIMMIN
 10
0.0
 20
0.0
  9
$PLIMMAX
 10
12.0
 20
9.0
  9
$UNITMODE
 70
     0
  9
$VISRETAIN
 70
     1
  9
$PLINEGEN
 70
     0
  9
$PSLTSCALE
 70
     1
  9
$TREEDEPTH
 70
  3020
  9
$PICKSTYLE
 70
     1
  9
$CMLSTYLE
  2
STANDARD
  9
$CMLJUST
 70
     0
  9
$CMLSCALE
 40
1.0
  9
$PROXYGRAPHICS
 70
     1
  9
$MEASUREMENT
 70
     0
  0
ENDSEC
  0
SECTION
  2
CLASSES
  0
CLASS
  1
ACDBDICTIONARYWDFLT
  2
AcDbDictionaryWithDefault
  3
ObjectDBX Classes
 90
        0
280
     0
281
     0
  0
CLASS
  1
VISUALSTYLE
  2
AcDbVisualStyle
  3
ObjectDBX Classes
 90
     4095
280
     0
281
     0
  0
CLASS
  1
MATERIAL
  2
AcDbMaterial
  3
ObjectDBX Classes
 90
     1153
280
     0
281
     0
  0
CLASS
  1
DICTIONARYVAR
  2
AcDbDictionaryVar
  3
ObjectDBX Classes
 90
        0
280
     0
281
     0
  0
CLASS
  1
XRECORD
  2
AcDbXrecord
  3
AutoCAD 2000
 90
        0
280
     0
281
     0
  0
CLASS
  1
LWPOLYLINE
  2
AcDbPolyline
  3
AutoCAD 2000
 90
        0
280
     0
281
     1
  0
CLASS
  1
HATCH
  2
AcDbHatch
  3
AutoCAD 2000
 90
        0
280
     0
281
     1
  0
CLASS
  1
ACDBPLACEHOLDER
  2
AcDbPlaceHolder
  3
ObjectDBX Classes
 90
        0
280
     0
281
     0
  0
CLASS
  1
LAYOUT
  2
AcDbLayout
  3
ObjectDBX Classes
 90
        0
280
     0
281
     0
  0
ENDSEC
  0
SECTION
  2
TABLES
  0
TABLE
  2
VPORT
  5
8
330
0
100
AcDbSymbolTable
 70
     1
  0
VPORT
  5
29
330
8
100
AcDbSymbolTableRecord
100
AcDbViewportTableRecord
  2
*ACTIVE
 70
     0
 10
0.0
 20
0.0
 11
1.0
 21
1.0
 12
10.42990654205607
 22
4.5
 13
0.0
 23
0.0
 14
0.5
 24
0.5
 15
0.5
 25
0.5
 16
0.0
 26
0.0
 36
1.0
 17
0.0
 27
0.0
 37
0.0
 40
9.0
 41
1.972972972850329
 42
50.0
 43
0.0
 44
0.0
 50
0.0
 51
0.0
 71
     0
 72
   100
 73
     1
 74
     3
 75
     0
 76
     0
 77
     0
 78
     0
  0
ENDTAB
  0
TABLE
  2
LTYPE
  5
5
330
0
100
AcDbSymbolTable
 70
     1
  0
LTYPE
  5
14
330
5
100
AcDbSymbolTableRecord
100
AcDbLinetypeTableRecord
  2
BYBLOCK
 70
     0
  3

 72
    65
 73
     0
 40
0.0
  0
LTYPE
  5
15
330
5
100
AcDbSymbolTableRecord
100
AcDbLinetypeTableRecord
  2
BYLAYER
 70
     0
  3

 72
    65
 73
     0
 40
0.0
  0
LTYPE
  5
16
330
5
100
AcDbSymbolTableRecord
100
AcDbLinetypeTableRecord
  2
CONTINUOUS
 70
     0
  3
Solid line
 72
    65
 73
     0
 40
0.0
  0
ENDTAB
  0
TABLE
  2
LAYER
  5
2
330
0
100
AcDbSymbolTable
 70
     2
  0
LAYER
  5
10
330
2
100
AcDbSymbolTableRecord
100
AcDbLayerTableRecord
  2
0
 70
     0
 62
     7
  6
CONTINUOUS
  0
LAYER
  5
40
330
2
100
AcDbSymbolTableRecord
100
AcDbLayerTableRecord
  2
AXIS
 70
     0
 62
     7
  6
CONTINUOUS
  0
ENDTAB
  0
TABLE
  2
STYLE
  5
3
330
0
100
AcDbSymbolTable
 70
     1
  0
STYLE
  5
11
330
3
100
AcDbSymbolTableRecord
100
AcDbTextStyleTableRecord
  2
STANDARD
 70
     0
 40
0.0
 41
1.0
 50
0.0
 71
     0
 42
0.2
  3
txt
  4

  0
ENDTAB
  0
TABLE
  2
VIEW
  5
6
330
0
100
AcDbSymbolTable
 70
     0
  0
ENDTAB
  0
TABLE
  2
UCS
  5
7
330
0
100
AcDbSymbolTable
 70
     0
  0
ENDTAB
  0
TABLE
  2
APPID
  5
9
330
0
100
AcDbSymbolTable
 70
     2
  0
APPID
  5
12
330
9
100
AcDbSymbolTableRecord
100
AcDbRegAppTableRecord
  2
ACAD
 70
     0
  0
APPID
  5
3F
330
9
100
AcDbSymbolTableRecord
100
AcDbRegAppTableRecord
  2
ODA
 70
     0
  0
ENDTAB
  0
TABLE
  2
DIMSTYLE
  5
A
330
0
100
AcDbSymbolTable
 70
     1
  0
DIMSTYLE
105
27
330
A
100
AcDbSymbolTableRecord
100
AcDbDimStyleTableRecord
  2
STANDARD
 70
     0
  3

  4

  5

  6

  7

 40
1.0
 41
0.18
 42
0.0625
 43
0.38
 44
0.18
 45
0.0
 46
0.0
 47
0.0
 48
0.0
140
0.18
141
0.09
142
0.0
143
25.4
144
1.0
145
0.0
146
1.0
147
0.09
 71
     0
 72
     0
 73
     1
 74
     1
 75
     0
 76
     0
 77
     0
 78
     0
170
     0
171
     2
172
     0
173
     0
174
     0
175
     0
176
     0
177
     0
178
     0
270
     2
271
     4
272
     4
273
     2
274
     2
340
11
275
     0
280
     0
281
     0
282
     0
283
     1
284
     0
285
     0
286
     0
287
     3
288
     0
  0
ENDTAB
  0
TABLE
  2
BLOCK_RECORD
  5
1
330
0
100
AcDbSymbolTable
 70
     1
  0
BLOCK_RECORD
  5
1F
330
1
100
AcDbSymbolTableRecord
100
AcDbBlockTableRecord
  2
*MODEL_SPACE
  0
BLOCK_RECORD
  5
1B
330
1
100
AcDbSymbolTableRecord
100
AcDbBlockTableRecord
  2
*PAPER_SPACE
  0
ENDTAB
  0
ENDSEC
  0
SECTION
  2
BLOCKS
  0
BLOCK
  5
20
330
1F
100
AcDbEntity
  8
0
100
AcDbBlockBegin
  2
*MODEL_SPACE
 70
     0
 10
0.0
 20
0.0
 30
0.0
  3
*MODEL_SPACE
  1

  0
ENDBLK
  5
21
330
1F
100
AcDbEntity
  8
0
100
AcDbBlockEnd
  0
BLOCK
  5
1C
330
1B
100
AcDbEntity
 67
     1
  8
0
100
AcDbBlockBegin
  2
*PAPER_SPACE
 70
     0
 10
0.0
 20
0.0
 30
0.0
  3
*PAPER_SPACE
  1

  0
ENDBLK
  5
1D
330
1B
100
AcDbEntity
 67
     1
  8
0
100
AcDbBlockEnd
  0
ENDSEC
  0
SECTION
  2
ENTITIES
  0
SPLINE
  5
41
330
1F
100
AcDbEntity
  8
AXIS
 62
   250
100
AcDbSpline
210
0.0
220
0.0
230
1.0
 70
    11
 71
     3
 72
    20
 73
    16
 74
     0
 42
0.0000000001
 43
0.0000000001
 40
0.0
 40
0.0
 40
0.0
 40
0.0
 40
0.2
 40
0.2
 40
0.2
 40
0.2
 40
0.4
 40
0.4
 40
0.4
 40
0.4
 40
0.6
 40
0.6
 40
0.6
 40
0.6
 40
1.0
 40
1.0
 40
1.0
 40
1.0
 10
-26.4139
 20
-13.2917
 30
0.0
 10
-26.4139
 20
-13.2917
 30
0.0
 10
-26.8373
 20
-16.2919
 30
0.0
 10
-26.8373
 20
-16.2919
 30
0.0
 10
-26.8373
 20
-16.2919
 30
0.0
 10
-26.8373
 20
-16.2919
 30
0.0
 10
-26.9313
 20
-16.2919
 30
0.0
 10
-26.9313
 20
-16.2919
 30
0.0
 10
-26.9313
 20
-16.2919
 30
0.0
 10
-26.9313
 20
-16.2919
 30
0.0
 10
-27.3829
 20
-13.2917
 30
0.0
 10
-27.3829
 20
-13.2917
 30
0.0
 10
-27.3829
 20
-13.2917
 30
0.0
 10
-27.3829
 20
-13.2917
 30
0.0
 10
-26.4139
 20
-13.2917
 30
0.0
 10
-26.4139
 20
-13.2917
 30
0.0
  0
SPLINE
  5
42
330
1F
100
AcDbEntity
  8
AXIS
 62
   250
100
AcDbSpline
210
0.0
220
0.0
230
1.0
 70
    11
 71
     3
 72
    20
 73
    16
 74
     0
 42
0.0000000001
 43
0.0000000001
 40
0.0
 40
0.0
 40
0.0
 40
0.0
 40
0.2
 40
0.2
 40
0.2
 40
0.2
 40
0.4
 40
0.4
 40
0.4
 40
0.4
 40
0.6
 40
0.6
 40
0.6
 40
0.6
 40
1.0
 40
1.0
 40
1.0
 40
1.0
 10
-27.3381
 20
8.0271
 30
0.0
 10
-27.3381
 20
8.0271
 30
0.0
 10
-26.9147
 20
11.0274
 30
0.0
 10
-26.9147
 20
11.0274
 30
0.0
 10
-26.9147
 20
11.0274
 30
0.0
 10
-26.9147
 20
11.0274
 30
0.0
 10
-26.8206
 20
11.0274
 30
0.0
 10
-26.8206
 20
11.0274
 30
0.0
 10
-26.8206
 20
11.0274
 30
0.0
 10
-26.8206
 20
11.0274
 30
0.0
 10
-26.3691
 20
8.0271
 30
0.0
 10
-26.3691
 20
8.0271
 30
0.0
 10
-26.3691
 20
8.0271
 30
0.0
 10
-26.3691
 20
8.0271
 30
0.0
 10
-27.3381
 20
8.0271
 30
0.0
 10
-27.3381
 20
8.0271
 30
0.0
  0
SPLINE
  5
43
330
1F
100
AcDbEntity
  8
AXIS
 62
   250
100
AcDbSpline
210
0.0
220
0.0
230
1.0
 70
    11
 71
     3
 72
    20
 73
    16
 74
     0
 42
0.0000000001
 43
0.0000000001
 40
0.0
 40
0.0
 40
0.0
 40
0.0
 40
0.2
 40
0.2
 40
0.2
 40
0.2
 40
0.4
 40
0.4
 40
0.4
 40
0.4
 40
0.6
 40
0.6
 40
0.6
 40
0.6
 40
1.0
 40
1.0
 40
1.0
 40
1.0
 10
14.7068
 20
-7.7237
 30
0.0
 10
14.7068
 20
-7.7237
 30
0.0
 10
14.2833
 20
-10.7247
 30
0.0
 10
14.2833
 20
-10.7247
 30
0.0
 10
14.2833
 20
-10.7247
 30
0.0
 10
14.2833
 20
-10.7247
 30
0.0
 10
14.1892
 20
-10.7247
 30
0.0
 10
14.1892
 20
-10.7247
 30
0.0
 10
14.1892
 20
-10.7247
 30
0.0
 10
14.1892
 20
-10.7247
 30
0.0
 10
13.7375
 20
-7.7237
 30
0.0
 10
13.7375
 20
-7.7237
 30
0.0
 10
13.7375
 20
-7.7237
 30
0.0
 10
13.7375
 20
-7.7237
 30
0.0
 10
14.7068
 20
-7.7237
 30
0.0
 10
14.7068
 20
-7.7237
 30
0.0
  0
SPLINE
  5
44
330
1F
100
AcDbEntity
  8
AXIS
 62
   250
100
AcDbSpline
210
0.0
220
0.0
230
1.0
 70
    11
 71
     3
 72
    20
 73
    16
 74
     0
 42
0.0000000001
 43
0.0000000001
 40
0.0
 40
0.0
 40
0.0
 40
0.0
 40
0.2
 40
0.2
 40
0.2
 40
0.2
 40
0.4
 40
0.4
 40
0.4
 40
0.4
 40
0.6
 40
0.6
 40
0.6
 40
0.6
 40
1.0
 40
1.0
 40
1.0
 40
1.0
 10
13.7834
 20
2.5134
 30
0.0
 10
13.7834
 20
2.5134
 30
0.0
 10
14.2068
 20
5.5139
 30
0.0
 10
14.2068
 20
5.5139
 30
0.0
 10
14.2068
 20
5.5139
 30
0.0
 10
14.2068
 20
5.5139
 30
0.0
 10
14.3009
 20
5.5139
 30
0.0
 10
14.3009
 20
5.5139
 30
0.0
 10
14.3009
 20
5.5139
 30
0.0
 10
14.3009
 20
5.5139
 30
0.0
 10
14.7525
 20
2.5134
 30
0.0
 10
14.7525
 20
2.5134
 30
0.0
 10
14.7525
 20
2.5134
 30
0.0
 10
14.7525
 20
2.5134
 30
0.0
 10
13.7834
 20
2.5134
 30
0.0
 10
13.7834
 20
2.5134
 30
0.0
  0
SPLINE
  5
45
330
1F
100
AcDbEntity
  8
AXIS
 62
   250
100
AcDbSpline
210
0.0
220
0.0
230
1.0
 70
    11
 71
     3
 72
    20
 73
    16
 74
     0
 42
0.0000000001
 43
0.0000000001
 40
0.0
 40
0.0
 40
0.0
 40
0.0
 40
0.2
 40
0.2
 40
0.2
 40
0.2
 40
0.4
 40
0.4
 40
0.4
 40
0.4
 40
0.6
 40
0.6
 40
0.6
 40
0.6
 40
1.0
 40
1.0
 40
1.0
 40
1.0
 10
7.1655
 20
-14.1895
 30
0.0
 10
7.1655
 20
-14.1895
 30
0.0
 10
10.167
 20
-14.6131
 30
0.0
 10
10.167
 20
-14.6131
 30
0.0
 10
10.167
 20
-14.6131
 30
0.0
 10
10.167
 20
-14.6131
 30
0.0
 10
10.167
 20
-14.7072
 30
0.0
 10
10.167
 20
-14.7072
 30
0.0
 10
10.167
 20
-14.7072
 30
0.0
 10
10.167
 20
-14.7072
 30
0.0
 10
7.1655
 20
-15.159
 30
0.0
 10
7.1655
 20
-15.159
 30
0.0
 10
7.1655
 20
-15.159
 30
0.0
 10
7.1655
 20
-15.159
 30
0.0
 10
7.1655
 20
-14.1895
 30
0.0
 10
7.1655
 20
-14.1895
 30
0.0
  0
SPLINE
  5
46
330
1F
100
AcDbEntity
  8
AXIS
 62
   250
100
AcDbSpline
210
0.0
220
0.0
230
1.0
 70
    11
 71
     3
 72
    20
 73
    16
 74
     0
 42
0.0000000001
 43
0.0000000001
 40
0.0
 40
0.0
 40
0.0
 40
0.0
 40
0.2
 40
0.2
 40
0.2
 40
0.2
 40
0.4
 40
0.4
 40
0.4
 40
0.4
 40
0.6
 40
0.6
 40
0.6
 40
0.6
 40
1.0
 40
1.0
 40
1.0
 40
1.0
 10
-15.7926
 20
-15.1079
 30
0.0
 10
-15.7926
 20
-15.1079
 30
0.0
 10
-18.7932
 20
-14.6844
 30
0.0
 10
-18.7932
 20
-14.6844
 30
0.0
 10
-18.7932
 20
-14.6844
 30
0.0
 10
-18.7932
 20
-14.6844
 30
0.0
 10
-18.7932
 20
-14.5904
 30
0.0
 10
-18.7932
 20
-14.5904
 30
0.0
 10
-18.7932
 20
-14.5904
 30
0.0
 10
-18.7932
 20
-14.5904
 30
0.0
 10
-15.7926
 20
-14.1387
 30
0.0
 10
-15.7926
 20
-14.1387
 30
0.0
 10
-15.7926
 20
-14.1387
 30
0.0
 10
-15.7926
 20
-14.1387
 30
0.0
 10
-15.7926
 20
-15.1079
 30
0.0
 10
-15.7926
 20
-15.1079
 30
0.0
  0
SPLINE
  5
47
330
1F
100
AcDbEntity
  8
AXIS
 62
   250
100
AcDbSpline
210
0.0
220
0.0
230
1.0
 70
    11
 71
     3
 72
    20
 73
    16
 74
     0
 42
0.0000000001
 43
0.0000000001
 40
0.0
 40
0.0
 40
0.0
 40
0.0
 40
0.2
 40
0.2
 40
0.2
 40
0.2
 40
0.4
 40
0.4
 40
0.4
 40
0.4
 40
0.6
 40
0.6
 40
0.6
 40
0.6
 40
1.0
 40
1.0
 40
1.0
 40
1.0
 10
13.2656
 20
13.9529
 30
0.0
 10
13.2656
 20
13.9529
 30
0.0
 10
16.2686
 20
13.5291
 30
0.0
 10
16.2686
 20
13.5291
 30
0.0
 10
16.2686
 20
13.5291
 30
0.0
 10
16.2686
 20
13.5291
 30
0.0
 10
16.2686
 20
13.435
 30
0.0
 10
16.2686
 20
13.435
 30
0.0
 10
16.2686
 20
13.435
 30
0.0
 10
16.2686
 20
13.435
 30
0.0
 10
13.2656
 20
12.983
 30
0.0
 10
13.2656
 20
12.983
 30
0.0
 10
13.2656
 20
12.983
 30
0.0
 10
13.2656
 20
12.983
 30
0.0
 10
13.2656
 20
13.9529
 30
0.0
 10
13.2656
 20
13.9529
 30
0.0
  0
SPLINE
  5
48
330
1F
100
AcDbEntity
  8
AXIS
 62
   250
100
AcDbSpline
210
0.0
220
0.0
230
1.0
 70
    11
 71
     3
 72
    20
 73
    16
 74
     0
 42
0.0000000001
 43
0.0000000001
 40
0.0
 40
0.0
 40
0.0
 40
0.0
 40
0.2
 40
0.2
 40
0.2
 40
0.2
 40
0.4
 40
0.4
 40
0.4
 40
0.4
 40
0.6
 40
0.6
 40
0.6
 40
0.6
 40
1.0
 40
1.0
 40
1.0
 40
1.0
 10
-21.7023
 20
13.005
 30
0.0
 10
-21.7023
 20
13.005
 30
0.0
 10
-24.7023
 20
13.4283
 30
0.0
 10
-24.7023
 20
13.4283
 30
0.0
 10
-24.7023
 20
13.4283
 30
0.0
 10
-24.7023
 20
13.4283
 30
0.0
 10
-24.7023
 20
13.5224
 30
0.0
 10
-24.7023
 20
13.5224
 30
0.0
 10
-24.7023
 20
13.5224
 30
0.0
 10
-24.7023
 20
13.5224
 30
0.0
 10
-21.7023
 20
13.9739
 30
0.0
 10
-21.7023
 20
13.9739
 30
0.0
 10
-21.7023
 20
13.9739
 30
0.0
 10
-21.7023
 20
13.9739
 30
0.0
 10
-21.7023
 20
13.005
 30
0.0
 10
-21.7023
 20
13.005
 30
0.0
  0
SPLINE
  5
49
330
1F
100
AcDbEntity
  8
AXIS
 62
   250
100
AcDbSpline
210
0.0
220
0.0
230
1.0
 70
    11
 71
     3
 72
    20
 73
    16
 74
     0
 42
0.0000000001
 43
0.0000000001
 40
0.0
 40
0.0
 40
0.0
 40
0.0
 40
0.2
 40
0.2
 40
0.2
 40
0.2
 40
0.4
 40
0.4
 40
0.4
 40
0.4
 40
0.6
 40
0.6
 40
0.6
 40
0.6
 40
1.0
 40
1.0
 40
1.0
 40
1.0
 10
20.6413
 20
14.0844
 30
0.0
 10
20.6413
 20
14.0844
 30
0.0
 10
23.643
 20
13.6608
 30
0.0
 10
23.643
 20
13.6608
 30
0.0
 10
23.643
 20
13.6608
 30
0.0
 10
23.643
 20
13.6608
 30
0.0
 10
23.643
 20
13.5667
 30
0.0
 10
23.643
 20
13.5667
 30
0.0
 10
23.643
 20
13.5667
 30
0.0
 10
23.643
 20
13.5667
 30
0.0
 10
20.6413
 20
13.1149
 30
0.0
 10
20.6413
 20
13.1149
 30
0.0
 10
20.6413
 20
13.1149
 30
0.0
 10
20.6413
 20
13.1149
 30
0.0
 10
20.6413
 20
14.0844
 30
0.0
 10
20.6413
 20
14.0844
 30
0.0
  0
SPLINE
  5
4A
330
1F
100
AcDbEntity
  8
AXIS
 62
   250
100
AcDbSpline
210
0.0
220
0.0
230
1.0
 70
    11
 71
     3
 72
    20
 73
    16
 74
     0
 42
0.0000000001
 43
0.0000000001
 40
0.0
 40
0.0
 40
0.0
 40
0.0
 40
0.2
 40
0.2
 40
0.2
 40
0.2
 40
0.4
 40
0.4
 40
0.4
 40
0.4
 40
0.6
 40
0.6
 40
0.6
 40
0.6
 40
1.0
 40
1.0
 40
1.0
 40
1.0
 10
28.4948
 20
13.1265
 30
0.0
 10
28.4948
 20
13.1265
 30
0.0
 10
25.4926
 20
13.5501
 30
0.0
 10
25.4926
 20
13.5501
 30
0.0
 10
25.4926
 20
13.5501
 30
0.0
 10
25.4926
 20
13.5501
 30
0.0
 10
25.4926
 20
13.6442
 30
0.0
 10
25.4926
 20
13.6442
 30
0.0
 10
25.4926
 20
13.6442
 30
0.0
 10
25.4926
 20
13.6442
 30
0.0
 10
28.4948
 20
14.0961
 30
0.0
 10
28.4948
 20
14.0961
 30
0.0
 10
28.4948
 20
14.0961
 30
0.0
 10
28.4948
 20
14.0961
 30
0.0
 10
28.4948
 20
13.1265
 30
0.0
 10
28.4948
 20
13.1265
 30
0.0
  0
SPLINE
  5
4B
330
1F
100
AcDbEntity
  8
AXIS
 62
   250
100
AcDbSpline
210
0.0
220
0.0
230
1.0
 70
    24
 71
     3
 72
     8
 73
     4
 74
     0
 42
0.0000000001
 43
0.0000000001
 40
0.0
 40
0.0
 40
0.0
 40
0.0
 40
1.0
 40
1.0
 40
1.0
 40
1.0
 10
-24.5377
 20
-16.3446
 30
0.0
 10
-24.5377
 20
-16.3446
 30
0.0
 10
-27.1237
 20
-16.3446
 30
0.0
 10
-27.1237
 20
-16.3446
 30
0.0
  0
SPLINE
  5
4C
330
1F
100
AcDbEntity
  8
AXIS
 62
   250
100
AcDbSpline
210
0.0
220
0.0
230
1.0
 70
    24
 71
     3
 72
     8
 73
     4
 74
     0
 42
0.0000000001
 43
0.0000000001
 40
0.0
 40
0.0
 40
0.0
 40
0.0
 40
1.0
 40
1.0
 40
1.0
 40
1.0
 10
-24.4805
 20
11.1266
 30
0.0
 10
-24.4805
 20
11.1266
 30
0.0
 10
-27.1237
 20
11.1266
 30
0.0
 10
-27.1237
 20
11.1266
 30
0.0
  0
SPLINE
  5
4D
330
1F
100
AcDbEntity
  8
AXIS
 62
   250
100
AcDbSpline
210
0.0
220
0.0
230
1.0
 70
    24
 71
     3
 72
     8
 73
     4
 74
     0
 42
0.0000000001
 43
0.0000000001
 40
0.0
 40
0.0
 40
0.0
 40
0.0
 40
1.0
 40
1.0
 40
1.0
 40
1.0
 10
-26.8859
 20
11.1266
 30
0.0
 10
-26.8859
 20
11.1266
 30
0.0
 10
-26.8859
 20
-15.9179
 30
0.0
 10
-26.8859
 20
-15.9179
 30
0.0
  0
SPLINE
  5
4E
330
1F
100
AcDbEntity
  8
AXIS
 62
   250
100
AcDbSpline
210
0.0
220
0.0
230
1.0
 70
    24
 71
     3
 72
     8
 73
     4
 74
     0
 42
0.0000000001
 43
0.0000000001
 40
0.0
 40
0.0
 40
0.0
 40
0.0
 40
1.0
 40
1.0
 40
1.0
 40
1.0
 10
-18.8375
 20
-10.5031
 30
0.0
 10
-18.8375
 20
-10.5031
 30
0.0
 10
-18.8375
 20
-15.2656
 30
0.0
 10
-18.8375
 20
-15.2656
 30
0.0
  0
SPLINE
  5
4F
330
1F
100
AcDbEntity
  8
AXIS
 62
   250
100
AcDbSpline
210
0.0
220
0.0
230
1.0
 70
    24
 71
     3
 72
     8
 73
     4
 74
     0
 42
0.0000000001
 43
0.0000000001
 40
0.0
 40
0.0
 40
0.0
 40
0.0
 40
1.0
 40
1.0
 40
1.0
 40
1.0
 10
10.1968
 20
-10.8338
 30
0.0
 10
10.1968
 20
-10.8338
 30
0.0
 10
10.1968
 20
-15.2656
 30
0.0
 10
10.1968
 20
-15.2656
 30
0.0
  0
SPLINE
  5
50
330
1F
100
AcDbEntity
  8
AXIS
 62
   250
100
AcDbSpline
210
0.0
220
0.0
230
1.0
 70
    24
 71
     3
 72
     8
 73
     4
 74
     0
 42
0.0000000001
 43
0.0000000001
 40
0.0
 40
0.0
 40
0.0
 40
0.0
 40
1.0
 40
1.0
 40
1.0
 40
1.0
 10
9.1955
 20
-14.6467
 30
0.0
 10
9.1955
 20
-14.6467
 30
0.0
 10
-18.7251
 20
-14.6467
 30
0.0
 10
-18.7251
 20
-14.6467
 30
0.0
  0
SPLINE
  5
51
330
1F
100
AcDbEntity
  8
AXIS
 62
   250
100
AcDbSpline
210
0.0
220
0.0
230
1.0
 70
    24
 71
     3
 72
     8
 73
     4
 74
     0
 42
0.0000000001
 43
0.0000000001
 40
0.0
 40
0.0
 40
0.0
 40
0.0
 40
1.0
 40
1.0
 40
1.0
 40
1.0
 10
16.3396
 20
10.9135
 30
0.0
 10
16.3396
 20
10.9135
 30
0.0
 10
16.3396
 20
13.7256
 30
0.0
 10
16.3396
 20
13.7256
 30
0.0
  0
SPLINE
  5
52
330
1F
100
AcDbEntity
  8
AXIS
 62
   250
100
AcDbSpline
210
0.0
220
0.0
230
1.0
 70
    24
 71
     3
 72
     8
 73
     4
 74
     0
 42
0.0000000001
 43
0.0000000001
 40
0.0
 40
0.0
 40
0.0
 40
0.0
 40
1.0
 40
1.0
 40
1.0
 40
1.0
 10
-24.7838
 20
10.9086
 30
0.0
 10
-24.7838
 20
10.9086
 30
0.0
 10
-24.7838
 20
13.7256
 30
0.0
 10
-24.7838
 20
13.7256
 30
0.0
  0
SPLINE
  5
53
330
1F
100
AcDbEntity
  8
AXIS
 62
   250
100
AcDbSpline
210
0.0
220
0.0
230
1.0
 70
    24
 71
     3
 72
     8
 73
     4
 74
     0
 42
0.0000000001
 43
0.0000000001
 40
0.0
 40
0.0
 40
0.0
 40
0.0
 40
1.0
 40
1.0
 40
1.0
 40
1.0
 10
16.3396
 20
13.4877
 30
0.0
 10
16.3396
 20
13.4877
 30
0.0
 10
-24.3905
 20
13.4877
 30
0.0
 10
-24.3905
 20
13.4877
 30
0.0
  0
SPLINE
  5
54
330
1F
100
AcDbEntity
  8
AXIS
 62
   250
100
AcDbSpline
210
0.0
220
0.0
230
1.0
 70
    24
 71
     3
 72
     8
 73
     4
 74
     0
 42
0.0000000001
 43
0.0000000001
 40
0.0
 40
0.0
 40
0.0
 40
0.0
 40
1.0
 40
1.0
 40
1.0
 40
1.0
 10
10.2961
 20
5.5791
 30
0.0
 10
10.2961
 20
5.5791
 30
0.0
 10
14.7165
 20
5.5791
 30
0.0
 10
14.7165
 20
5.5791
 30
0.0
  0
SPLINE
  5
55
330
1F
100
AcDbEntity
  8
AXIS
 62
   250
100
AcDbSpline
210
0.0
220
0.0
230
1.0
 70
    24
 71
     3
 72
     8
 73
     4
 74
     0
 42
0.0000000001
 43
0.0000000001
 40
0.0
 40
0.0
 40
0.0
 40
0.0
 40
1.0
 40
1.0
 40
1.0
 40
1.0
 10
10.6715
 20
-10.8176
 30
0.0
 10
10.6715
 20
-10.8176
 30
0.0
 10
14.7809
 20
-10.8176
 30
0.0
 10
14.7809
 20
-10.8176
 30
0.0
  0
SPLINE
  5
56
330
1F
100
AcDbEntity
  8
AXIS
 62
   250
100
AcDbSpline
210
0.0
220
0.0
230
1.0
 70
    24
 71
     3
 72
     8
 73
     4
 74
     0
 42
0.0000000001
 43
0.0000000001
 40
0.0
 40
0.0
 40
0.0
 40
0.0
 40
1.0
 40
1.0
 40
1.0
 40
1.0
 10
14.257
 20
4.6582
 30
0.0
 10
14.257
 20
4.6582
 30
0.0
 10
14.257
 20
-10.6515
 30
0.0
 10
14.257
 20
-10.6515
 30
0.0
  0
SPLINE
  5
57
330
1F
100
AcDbEntity
  8
AXIS
 62
   250
100
AcDbSpline
210
0.0
220
0.0
230
1.0
 70
    24
 71
     3
 72
     8
 73
     4
 74
     0
 42
0.0000000001
 43
0.0000000001
 40
0.0
 40
0.0
 40
0.0
 40
0.0
 40
1.0
 40
1.0
 40
1.0
 40
1.0
 10
23.732
 20
13.9546
 30
0.0
 10
23.732
 20
13.9546
 30
0.0
 10
23.732
 20
11.3829
 30
0.0
 10
23.732
 20
11.3829
 30
0.0
  0
SPLINE
  5
58
330
1F
100
AcDbEntity
  8
AXIS
 62
   250
100
AcDbSpline
210
0.0
220
0.0
230
1.0
 70
    24
 71
     3
 72
     8
 73
     4
 74
     0
 42
0.0000000001
 43
0.0000000001
 40
0.0
 40
0.0
 40
0.0
 40
0.0
 40
1.0
 40
1.0
 40
1.0
 40
1.0
 10
25.4053
 20
13.9214
 30
0.0
 10
25.4053
 20
13.9214
 30
0.0
 10
25.4053
 20
11.2671
 30
0.0
 10
25.4053
 20
11.2671
 30
0.0
  0
SPLINE
  5
59
330
1F
100
AcDbEntity
  8
AXIS
 62
   250
100
AcDbSpline
210
0.0
220
0.0
230
1.0
 70
    24
 71
     3
 72
     8
 73
     4
 74
     0
 42
0.0000000001
 43
0.0000000001
 40
0.0
 40
0.0
 40
0.0
 40
0.0
 40
1.0
 40
1.0
 40
1.0
 40
1.0
 10
29.1605
 20
13.5887
 30
0.0
 10
29.1605
 20
13.5887
 30
0.0
 10
19.8008
 20
13.5887
 30
0.0
 10
19.8008
 20
13.5887
 30
0.0
  0
SPLINE
  5
5A
330
1F
100
AcDbEntity
  8
AXIS
 62
   250
100
AcDbSpline
210
0.0
220
0.0
230
1.0
 70
    11
 71
     3
 72
    40
 73
    36
 74
     0
 42
0.0000000001
 43
0.0000000001
 40
0.0
 40
0.0
 40
0.0
 40
0.0
 40
0.1
 40
0.1
 40
0.1
 40
0.1
 40
0.2
 40
0.2
 40
0.2
 40
0.2
 40
0.3
 40
0.3
 40
0.3
 40
0.3
 40
0.4
 40
0.4
 40
0.4
 40
0.4
 40
0.5
 40
0.5
 40
0.5
 40
0.5
 40
0.6
 40
0.6
 40
0.6
 40
0.6
 40
0.7
 40
0.7
 40
0.7
 40
0.7
 40
0.8
 40
0.8
 40
0.8
 40
0.8
 40
1.0
 40
1.0
 40
1.0
 40
1.0
 10
23.8864
 20
14.3869
 30
0.0
 10
23.8864
 20
14.3869
 30
0.0
 10
23.6385
 20
14.3869
 30
0.0
 10
23.6385
 20
14.3869
 30
0.0
 10
23.6385
 20
14.3869
 30
0.0
 10
23.6385
 20
14.3869
 30
0.0
 10
23.6385
 20
15.9673
 30
0.0
 10
23.6385
 20
15.9673
 30
0.0
 10
23.6385
 20
15.9673
 30
0.0
 10
23.5787
 20
15.9104
 30
0.0
 10
23.5007
 20
15.8535
 30
0.0
 10
23.4038
 20
15.7966
 30
0.0
 10
23.4038
 20
15.7966
 30
0.0
 10
23.3064
 20
15.7397
 30
0.0
 10
23.2194
 20
15.6969
 30
0.0
 10
23.1422
 20
15.6686
 30
0.0
 10
23.1422
 20
15.6686
 30
0.0
 10
23.1422
 20
15.6686
 30
0.0
 10
23.1422
 20
15.9081
 30
0.0
 10
23.1422
 20
15.9081
 30
0.0
 10
23.1422
 20
15.9081
 30
0.0
 10
23.281
 20
15.9734
 30
0.0
 10
23.4024
 20
16.0525
 30
0.0
 10
23.5063
 20
16.1451
 30
0.0
 10
23.5063
 20
16.1451
 30
0.0
 10
23.6098
 20
16.2383
 30
0.0
 10
23.6836
 20
16.3281
 30
0.0
 10
23.7269
 20
16.4156
 30
0.0
 10
23.7269
 20
16.4156
 30
0.0
 10
23.7269
 20
16.4156
 30
0.0
 10
23.8864
 20
16.4156
 30
0.0
 10
23.8864
 20
16.4156
 30
0.0
 10
23.8864
 20
16.4156
 30
0.0
 10
23.8864
 20
16.4156
 30
0.0
 10
23.8864
 20
14.3869
 30
0.0
 10
23.8864
 20
14.3869
 30
0.0
  0
SPLINE
  5
5B
330
1F
100
AcDbEntity
  8
AXIS
 62
   250
100
AcDbSpline
210
0.0
220
0.0
230
1.0
 70
    11
 71
     3
 72
    52
 73
    48
 74
     0
 42
0.0000000001
 43
0.0000000001
 40
0.0
 40
0.0
 40
0.0
 40
0.0
 40
0.0769230769230769
 40
0.0769230769230769
 40
0.0769230769230769
 40
0.0769230769230769
 40
0.1538461538461539
 40
0.1538461538461539
 40
0.1538461538461539
 40
0.1538461538461539
 40
0.2307692307692308
 40
0.2307692307692308
 40
0.2307692307692308
 40
0.2307692307692308
 40
0.3076923076923077
 40
0.3076923076923077
 40
0.3076923076923077
 40
0.3076923076923077
 40
0.3846153846153846
 40
0.3846153846153846
 40
0.3846153846153846
 40
0.3846153846153846
 40
0.4615384615384616
 40
0.4615384615384616
 40
0.4615384615384616
 40
0.4615384615384616
 40
0.5384615384615384
 40
0.5384615384615384
 40
0.5384615384615384
 40
0.5384615384615384
 40
0.6153846153846154
 40
0.6153846153846154
 40
0.6153846153846154
 40
0.6153846153846154
 40
0.6923076923076923
 40
0.6923076923076923
 40
0.6923076923076923
 40
0.6923076923076923
 40
0.7692307692307693
 40
0.7692307692307693
 40
0.7692307692307693
 40
0.7692307692307693
 40
0.8461538461538461
 40
0.8461538461538461
 40
0.8461538461538461
 40
0.8461538461538461
 40
1.0
 40
1.0
 40
1.0
 40
1.0
 10
24.5218
 20
15.3831
 30
0.0
 10
24.5218
 20
15.6221
 30
0.0
 10
24.5463
 20
15.8145
 30
0.0
 10
24.5957
 20
15.9598
 30
0.0
 10
24.5957
 20
15.9598
 30
0.0
 10
24.6446
 20
16.1056
 30
0.0
 10
24.718
 20
16.218
 30
0.0
 10
24.8149
 20
16.2971
 30
0.0
 10
24.8149
 20
16.2971
 30
0.0
 10
24.9118
 20
16.3761
 30
0.0
 10
25.0336
 20
16.4156
 30
0.0
 10
25.1803
 20
16.4156
 30
0.0
 10
25.1803
 20
16.4156
 30
0.0
 10
25.289
 20
16.4156
 30
0.0
 10
25.384
 20
16.3935
 30
0.0
 10
25.4658
 20
16.3497
 30
0.0
 10
25.4658
 20
16.3497
 30
0.0
 10
25.5477
 20
16.3065
 30
0.0
 10
25.615
 20
16.2434
 30
0.0
 10
25.6686
 20
16.1611
 30
0.0
 10
25.6686
 20
16.1611
 30
0.0
 10
25.7217
 20
16.0788
 30
0.0
 10
25.7636
 20
15.9786
 30
0.0
 10
25.7937
 20
15.8606
 30
0.0
 10
25.7937
 20
15.8606
 30
0.0
 10
25.8243
 20
15.7425
 30
0.0
 10
25.8393
 20
15.5835
 30
0.0
 10
25.8393
 20
15.3831
 30
0.0
 10
25.8393
 20
15.3831
 30
0.0
 10
25.8393
 20
15.1461
 30
0.0
 10
25.8149
 20
14.9551
 30
0.0
 10
25.7664
 20
14.8093
 30
0.0
 10
25.7664
 20
14.8093
 30
0.0
 10
25.7175
 20
14.6635
 30
0.0
 10
25.6446
 20
14.5511
 30
0.0
 10
25.5477
 20
14.4716
 30
0.0
 10
25.5477
 20
14.4716
 30
0.0
 10
25.4508
 20
14.3921
 30
0.0
 10
25.3285
 20
14.3526
 30
0.0
 10
25.1803
 20
14.3526
 30
0.0
 10
25.1803
 20
14.3526
 30
0.0
 10
24.9856
 20
14.3526
 30
0.0
 10
24.8327
 20
14.4222
 30
0.0
 10
24.7217
 20
14.5619
 30
0.0
 10
24.7217
 20
14.5619
 30
0.0
 10
24.5886
 20
14.7298
 30
0.0
 10
24.5218
 20
15.004
 30
0.0
 10
24.5218
 20
15.3831
 30
0.0
  0
SPLINE
  5
5C
330
1F
100
AcDbEntity
  8
AXIS
 62
   250
100
AcDbSpline
210
0.0
220
0.0
230
1.0
 70
    11
 71
     3
 72
    36
 73
    32
 74
     0
 42
0.0000000001
 43
0.0000000001
 40
0.0
 40
0.0
 40
0.0
 40
0.0
 40
0.1111111111111111
 40
0.1111111111111111
 40
0.1111111111111111
 40
0.1111111111111111
 40
0.2222222222222222
 40
0.2222222222222222
 40
0.2222222222222222
 40
0.2222222222222222
 40
0.3333333333333333
 40
0.3333333333333333
 40
0.3333333333333333
 40
0.3333333333333333
 40
0.4444444444444444
 40
0.4444444444444444
 40
0.4444444444444444
 40
0.4444444444444444
 40
0.5555555555555556
 40
0.5555555555555556
 40
0.5555555555555556
 40
0.5555555555555556
 40
0.6666666666666666
 40
0.6666666666666666
 40
0.6666666666666666
 40
0.6666666666666666
 40
0.7777777777777778
 40
0.7777777777777778
 40
0.7777777777777778
 40
0.7777777777777778
 40
1.0
 40
1.0
 40
1.0
 40
1.0
 10
24.7768
 20
15.3831
 30
0.0
 10
24.7768
 20
15.0515
 30
0.0
 10
24.8158
 20
14.8309
 30
0.0
 10
24.8934
 20
14.7209
 30
0.0
 10
24.8934
 20
14.7209
 30
0.0
 10
24.971
 20
14.6113
 30
0.0
 10
25.0665
 20
14.5562
 30
0.0
 10
25.1803
 20
14.5562
 30
0.0
 10
25.1803
 20
14.5562
 30
0.0
 10
25.2946
 20
14.5562
 30
0.0
 10
25.3901
 20
14.6117
 30
0.0
 10
25.4677
 20
14.7218
 30
0.0
 10
25.4677
 20
14.7218
 30
0.0
 10
25.5453
 20
14.8319
 30
0.0
 10
25.5844
 20
15.0525
 30
0.0
 10
25.5844
 20
15.3831
 30
0.0
 10
25.5844
 20
15.3831
 30
0.0
 10
25.5844
 20
15.7157
 30
0.0
 10
25.5453
 20
15.9368
 30
0.0
 10
25.4677
 20
16.0459
 30
0.0
 10
25.4677
 20
16.0459
 30
0.0
 10
25.3901
 20
16.1555
 30
0.0
 10
25.2937
 20
16.21
 30
0.0
 10
25.178
 20
16.21
 30
0.0
 10
25.178
 20
16.21
 30
0.0
 10
25.0637
 20
16.21
 30
0.0
 10
24.9729
 20
16.1616
 30
0.0
 10
24.9047
 20
16.0652
 30
0.0
 10
24.9047
 20
16.0652
 30
0.0
 10
24.8196
 20
15.9424
 30
0.0
 10
24.7768
 20
15.7147
 30
0.0
 10
24.7768
 20
15.3831
 30
0.0
  0
SPLINE
  5
5D
330
1F
100
AcDbEntity
  8
AXIS
 62
   250
100
AcDbSpline
210
0.0
220
0.0
230
1.0
 70
    11
 71
     3
 72
    92
 73
    88
 74
     0
 42
0.0000000001
 43
0.0000000001
 40
0.0
 40
0.0
 40
0.0
 40
0.0
 40
0.0434782608695652
 40
0.0434782608695652
 40
0.0434782608695652
 40
0.0434782608695652
 40
0.0869565217391304
 40
0.0869565217391304
 40
0.0869565217391304
 40
0.0869565217391304
 40
0.1304347826086956
 40
0.1304347826086956
 40
0.1304347826086956
 40
0.1304347826086956
 40
0.1739130434782609
 40
0.1739130434782609
 40
0.1739130434782609
 40
0.1739130434782609
 40
0.2173913043478261
 40
0.2173913043478261
 40
0.2173913043478261
 40
0.2173913043478261
 40
0.2608695652173913
 40
0.2608695652173913
 40
0.2608695652173913
 40
0.2608695652173913
 40
0.3043478260869565
 40
0.3043478260869565
 40
0.3043478260869565
 40
0.3043478260869565
 40
0.3478260869565217
 40
0.3478260869565217
 40
0.3478260869565217
 40
0.3478260869565217
 40
0.391304347826087
 40
0.391304347826087
 40
0.391304347826087
 40
0.391304347826087
 40
0.4347826086956522
 40
0.4347826086956522
 40
0.4347826086956522
 40
0.4347826086956522
 40
0.4782608695652174
 40
0.4782608695652174
 40
0.4782608695652174
 40
0.4782608695652174
 40
0.5217391304347826
 40
0.5217391304347826
 40
0.5217391304347826
 40
0.5217391304347826
 40
0.5652173913043478
 40
0.5652173913043478
 40
0.5652173913043478
 40
0.5652173913043478
 40
0.6086956521739131
 40
0.6086956521739131
 40
0.6086956521739131
 40
0.6086956521739131
 40
0.6521739130434783
 40
0.6521739130434783
 40
0.6521739130434783
 40
0.6521739130434783
 40
0.6956521739130435
 40
0.6956521739130435
 40
0.6956521739130435
 40
0.6956521739130435
 40
0.7391304347826086
 40
0.7391304347826086
 40
0.7391304347826086
 40
0.7391304347826086
 40
0.782608695652174
 40
0.782608695652174
 40
0.782608695652174
 40
0.782608695652174
 40
0.8260869565217391
 40
0.8260869565217391
 40
0.8260869565217391
 40
0.8260869565217391
 40
0.8695652173913043
 40
0.8695652173913043
 40
0.8695652173913043
 40
0.8695652173913043
 40
0.9130434782608695
 40
0.9130434782608695
 40
0.9130434782608695
 40
0.9130434782608695
 40
1.0
 40
1.0
 40
1.0
 40
1.0
 10
-5.354
 20
14.121
 30
0.0
 10
-5.354
 20
14.121
 30
0.0
 10
-5.354
 20
13.8825
 30
0.0
 10
-5.354
 20
13.8825
 30
0.0
 10
-5.354
 20
13.8825
 30
0.0
 10
-5.354
 20
13.8825
 30
0.0
 10
-6.6894
 20
13.8825
 30
0.0
 10
-6.6894
 20
13.8825
 30
0.0
 10
-6.6894
 20
13.8825
 30
0.0
 10
-6.6913
 20
13.9422
 30
0.0
 10
-6.6819
 20
13.9996
 30
0.0
 10
-6.6607
 20
14.0547
 30
0.0
 10
-6.6607
 20
14.0547
 30
0.0
 10
-6.6268
 20
14.1459
 30
0.0
 10
-6.5723
 20
14.2353
 30
0.0
 10
-6.4975
 20
14.3237
 30
0.0
 10
-6.4975
 20
14.3237
 30
0.0
 10
-6.4222
 20
14.4117
 30
0.0
 10
-6.314
 20
14.5137
 30
0.0
 10
-6.1729
 20
14.6294
 30
0.0
 10
-6.1729
 20
14.6294
 30
0.0
 10
-5.9533
 20
14.8096
 30
0.0
 10
-5.8046
 20
14.9521
 30
0.0
 10
-5.7275
 20
15.0575
 30
0.0
 10
-5.7275
 20
15.0575
 30
0.0
 10
-5.6504
 20
15.1624
 30
0.0
 10
-5.6118
 20
15.2621
 30
0.0
 10
-5.6118
 20
15.3557
 30
0.0
 10
-5.6118
 20
15.3557
 30
0.0
 10
-5.6118
 20
15.454
 30
0.0
 10
-5.6471
 20
15.5368
 30
0.0
 10
-5.7171
 20
15.6045
 30
0.0
 10
-5.7171
 20
15.6045
 30
0.0
 10
-5.7877
 20
15.6718
 30
0.0
 10
-5.8794
 20
15.7056
 30
0.0
 10
-5.9923
 20
15.7056
 30
0.0
 10
-5.9923
 20
15.7056
 30
0.0
 10
-6.1118
 20
15.7056
 30
0.0
 10
-6.2073
 20
15.6699
 30
0.0
 10
-6.2788
 20
15.5979
 30
0.0
 10
-6.2788
 20
15.5979
 30
0.0
 10
-6.3507
 20
15.5264
 30
0.0
 10
-6.3869
 20
15.4272
 30
0.0
 10
-6.3879
 20
15.3007
 30
0.0
 10
-6.3879
 20
15.3007
 30
0.0
 10
-6.3879
 20
15.3007
 30
0.0
 10
-6.6428
 20
15.3265
 30
0.0
 10
-6.6428
 20
15.3265
 30
0.0
 10
-6.6428
 20
15.3265
 30
0.0
 10
-6.6254
 20
15.517
 30
0.0
 10
-6.5596
 20
15.6619
 30
0.0
 10
-6.4457
 20
15.7616
 30
0.0
 10
-6.4457
 20
15.7616
 30
0.0
 10
-6.3319
 20
15.8613
 30
0.0
 10
-6.1786
 20
15.9112
 30
0.0
 10
-5.9867
 20
15.9112
 30
0.0
 10
-5.9867
 20
15.9112
 30
0.0
 10
-5.7929
 20
15.9112
 30
0.0
 10
-5.6395
 20
15.8571
 30
0.0
 10
-5.5266
 20
15.7499
 30
0.0
 10
-5.5266
 20
15.7499
 30
0.0
 10
-5.4133
 20
15.6421
 30
0.0
 10
-5.3568
 20
15.509
 30
0.0
 10
-5.3568
 20
15.35
 30
0.0
 10
-5.3568
 20
15.35
 30
0.0
 10
-5.3568
 20
15.2691
 30
0.0
 10
-5.3733
 20
15.1896
 30
0.0
 10
-5.4067
 20
15.1116
 30
0.0
 10
-5.4067
 20
15.1116
 30
0.0
 10
-5.4396
 20
15.0335
 30
0.0
 10
-5.4947
 20
14.9512
 30
0.0
 10
-5.5713
 20
14.8651
 30
0.0
 10
-5.5713
 20
14.8651
 30
0.0
 10
-5.648
 20
14.7785
 30
0.0
 10
-5.7755
 20
14.66
 30
0.0
 10
-5.9537
 20
14.5095
 30
0.0
 10
-5.9537
 20
14.5095
 30
0.0
 10
-6.1024
 20
14.3844
 30
0.0
 10
-6.1979
 20
14.2997
 30
0.0
 10
-6.2402
 20
14.255
 30
0.0
 10
-6.2402
 20
14.255
 30
0.0
 10
-6.2825
 20
14.2108
 30
0.0
 10
-6.3173
 20
14.1661
 30
0.0
 10
-6.3451
 20
14.121
 30
0.0
 10
-6.3451
 20
14.121
 30
0.0
 10
-6.3451
 20
14.121
 30
0.0
 10
-5.354
 20
14.121
 30
0.0
 10
-5.354
 20
14.121
 30
0.0
  0
SPLINE
  5
5E
330
1F
100
AcDbEntity
  8
AXIS
 62
   250
100
AcDbSpline
210
0.0
220
0.0
230
1.0
 70
    11
 71
     3
 72
    48
 73
    44
 74
     0
 42
0.0000000001
 43
0.0000000001
 40
0.0
 40
0.0
 40
0.0
 40
0.0
 40
0.0833333333333333
 40
0.0833333333333333
 40
0.0833333333333333
 40
0.0833333333333333
 40
0.1666666666666667
 40
0.1666666666666667
 40
0.1666666666666667
 40
0.1666666666666667
 40
0.25
 40
0.25
 40
0.25
 40
0.25
 40
0.3333333333333333
 40
0.3333333333333333
 40
0.3333333333333333
 40
0.3333333333333333
 40
0.4166666666666667
 40
0.4166666666666667
 40
0.4166666666666667
 40
0.4166666666666667
 40
0.5
 40
0.5
 40
0.5
 40
0.5
 40
0.5833333333333334
 40
0.5833333333333334
 40
0.5833333333333334
 40
0.5833333333333334
 40
0.6666666666666666
 40
0.6666666666666666
 40
0.6666666666666666
 40
0.6666666666666666
 40
0.75
 40
0.75
 40
0.75
 40
0.75
 40
0.8333333333333334
 40
0.8333333333333334
 40
0.8333333333333334
 40
0.8333333333333334
 40
1.0
 40
1.0
 40
1.0
 40
1.0
 10
-4.2934
 20
13.8825
 30
0.0
 10
-4.2934
 20
13.8825
 30
0.0
 10
-4.2934
 20
14.366
 30
0.0
 10
-4.2934
 20
14.366
 30
0.0
 10
-4.2934
 20
14.366
 30
0.0
 10
-4.2934
 20
14.366
 30
0.0
 10
-5.1697
 20
14.366
 30
0.0
 10
-5.1697
 20
14.366
 30
0.0
 10
-5.1697
 20
14.366
 30
0.0
 10
-5.1697
 20
14.366
 30
0.0
 10
-5.1697
 20
14.5937
 30
0.0
 10
-5.1697
 20
14.5937
 30
0.0
 10
-5.1697
 20
14.5937
 30
0.0
 10
-5.1697
 20
14.5937
 30
0.0
 10
-4.2477
 20
15.9027
 30
0.0
 10
-4.2477
 20
15.9027
 30
0.0
 10
-4.2477
 20
15.9027
 30
0.0
 10
-4.2477
 20
15.9027
 30
0.0
 10
-4.045
 20
15.9027
 30
0.0
 10
-4.045
 20
15.9027
 30
0.0
 10
-4.045
 20
15.9027
 30
0.0
 10
-4.045
 20
15.9027
 30
0.0
 10
-4.045
 20
14.5937
 30
0.0
 10
-4.045
 20
14.5937
 30
0.0
 10
-4.045
 20
14.5937
 30
0.0
 10
-4.045
 20
14.5937
 30
0.0
 10
-3.7722
 20
14.5937
 30
0.0
 10
-3.7722
 20
14.5937
 30
0.0
 10
-3.7722
 20
14.5937
 30
0.0
 10
-3.7722
 20
14.5937
 30
0.0
 10
-3.7722
 20
14.366
 30
0.0
 10
-3.7722
 20
14.366
 30
0.0
 10
-3.7722
 20
14.366
 30
0.0
 10
-3.7722
 20
14.366
 30
0.0
 10
-4.045
 20
14.366
 30
0.0
 10
-4.045
 20
14.366
 30
0.0
 10
-4.045
 20
14.366
 30
0.0
 10
-4.045
 20
14.366
 30
0.0
 10
-4.045
 20
13.8825
 30
0.0
 10
-4.045
 20
13.8825
 30
0.0
 10
-4.045
 20
13.8825
 30
0.0
 10
-4.045
 20
13.8825
 30
0.0
 10
-4.2934
 20
13.8825
 30
0.0
 10
-4.2934
 20
13.8825
 30
0.0
  0
SPLINE
  5
5F
330
1F
100
AcDbEntity
  8
AXIS
 62
   250
100
AcDbSpline
210
0.0
220
0.0
230
1.0
 70
    11
 71
     3
 72
    16
 73
    12
 74
     0
 42
0.0000000001
 43
0.0000000001
 40
0.0
 40
0.0
 40
0.0
 40
0.0
 40
0.25
 40
0.25
 40
0.25
 40
0.25
 40
0.5
 40
0.5
 40
0.5
 40
0.5
 40
1.0
 40
1.0
 40
1.0
 40
1.0
 10
-4.2934
 20
14.5937
 30
0.0
 10
-4.2934
 20
14.5937
 30
0.0
 10
-4.2934
 20
15.5043
 30
0.0
 10
-4.2934
 20
15.5043
 30
0.0
 10
-4.2934
 20
15.5043
 30
0.0
 10
-4.2934
 20
15.5043
 30
0.0
 10
-4.9255
 20
14.5937
 30
0.0
 10
-4.9255
 20
14.5937
 30
0.0
 10
-4.9255
 20
14.5937
 30
0.0
 10
-4.9255
 20
14.5937
 30
0.0
 10
-4.2934
 20
14.5937
 30
0.0
 10
-4.2934
 20
14.5937
 30
0.0
  0
SPLINE
  5
60
330
1F
100
AcDbEntity
  8
AXIS
 62
   250
100
AcDbSpline
210
0.0
220
0.0
230
1.0
 70
    11
 71
     3
 72
    48
 73
    44
 74
     0
 42
0.0000000001
 43
0.0000000001
 40
0.0
 40
0.0
 40
0.0
 40
0.0
 40
0.0833333333333333
 40
0.0833333333333333
 40
0.0833333333333333
 40
0.0833333333333333
 40
0.1666666666666667
 40
0.1666666666666667
 40
0.1666666666666667
 40
0.1666666666666667
 40
0.25
 40
0.25
 40
0.25
 40
0.25
 40
0.3333333333333333
 40
0.3333333333333333
 40
0.3333333333333333
 40
0.3333333333333333
 40
0.4166666666666667
 40
0.4166666666666667
 40
0.4166666666666667
 40
0.4166666666666667
 40
0.5
 40
0.5
 40
0.5
 40
0.5
 40
0.5833333333333334
 40
0.5833333333333334
 40
0.5833333333333334
 40
0.5833333333333334
 40
0.6666666666666666
 40
0.6666666666666666
 40
0.6666666666666666
 40
0.6666666666666666
 40
0.75
 40
0.75
 40
0.75
 40
0.75
 40
0.8333333333333334
 40
0.8333333333333334
 40
0.8333333333333334
 40
0.8333333333333334
 40
1.0
 40
1.0
 40
1.0
 40
1.0
 10
-3.5022
 20
15.6379
 30
0.0
 10
-3.5022
 20
15.6379
 30
0.0
 10
-3.5022
 20
15.8764
 30
0.0
 10
-3.5022
 20
15.8764
 30
0.0
 10
-3.5022
 20
15.8764
 30
0.0
 10
-3.5022
 20
15.8764
 30
0.0
 10
-2.1946
 20
15.8764
 30
0.0
 10
-2.1946
 20
15.8764
 30
0.0
 10
-2.1946
 20
15.8764
 30
0.0
 10
-2.1946
 20
15.8764
 30
0.0
 10
-2.1946
 20
15.6835
 30
0.0
 10
-2.1946
 20
15.6835
 30
0.0
 10
-2.1946
 20
15.6835
 30
0.0
 10
-2.323
 20
15.5467
 30
0.0
 10
-2.4505
 20
15.3646
 30
0.0
 10
-2.577
 20
15.1379
 30
0.0
 10
-2.577
 20
15.1379
 30
0.0
 10
-2.7031
 20
14.9112
 30
0.0
 10
-2.8009
 20
14.6774
 30
0.0
 10
-2.8696
 20
14.438
 30
0.0
 10
-2.8696
 20
14.438
 30
0.0
 10
-2.9194
 20
14.2687
 30
0.0
 10
-2.9509
 20
14.0838
 30
0.0
 10
-2.9646
 20
13.8825
 30
0.0
 10
-2.9646
 20
13.8825
 30
0.0
 10
-2.9646
 20
13.8825
 30
0.0
 10
-3.2195
 20
13.8825
 30
0.0
 10
-3.2195
 20
13.8825
 30
0.0
 10
-3.2195
 20
13.8825
 30
0.0
 10
-3.2167
 20
14.0415
 30
0.0
 10
-3.1857
 20
14.2334
 30
0.0
 10
-3.1259
 20
14.4587
 30
0.0
 10
-3.1259
 20
14.4587
 30
0.0
 10
-3.0662
 20
14.6835
 30
0.0
 10
-2.9806
 20
14.9008
 30
0.0
 10
-2.8691
 20
15.1097
 30
0.0
 10
-2.8691
 20
15.1097
 30
0.0
 10
-2.7572
 20
15.3185
 30
0.0
 10
-2.6386
 20
15.4949
 30
0.0
 10
-2.5126
 20
15.6379
 30
0.0
 10
-2.5126
 20
15.6379
 30
0.0
 10
-2.5126
 20
15.6379
 30
0.0
 10
-3.5022
 20
15.6379
 30
0.0
 10
-3.5022
 20
15.6379
 30
0.0
  0
SPLINE
  5
61
330
1F
100
AcDbEntity
  8
AXIS
 62
   250
100
AcDbSpline
210
0.0
220
0.0
230
1.0
 70
    11
 71
     3
 72
    40
 73
    36
 74
     0
 42
0.0000000001
 43
0.0000000001
 40
0.0
 40
0.0
 40
0.0
 40
0.0
 40
0.1
 40
0.1
 40
0.1
 40
0.1
 40
0.2
 40
0.2
 40
0.2
 40
0.2
 40
0.3
 40
0.3
 40
0.3
 40
0.3
 40
0.4
 40
0.4
 40
0.4
 40
0.4
 40
0.5
 40
0.5
 40
0.5
 40
0.5
 40
0.6
 40
0.6
 40
0.6
 40
0.6
 40
0.7
 40
0.7
 40
0.7
 40
0.7
 40
0.8
 40
0.8
 40
0.8
 40
0.8
 40
1.0
 40
1.0
 40
1.0
 40
1.0
 10
-4.6171
 20
-14.3386
 30
0.0
 10
-4.6171
 20
-14.3386
 30
0.0
 10
-4.865
 20
-14.3386
 30
0.0
 10
-4.865
 20
-14.3386
 30
0.0
 10
-4.865
 20
-14.3386
 30
0.0
 10
-4.865
 20
-14.3386
 30
0.0
 10
-4.865
 20
-12.7582
 30
0.0
 10
-4.865
 20
-12.7582
 30
0.0
 10
-4.865
 20
-12.7582
 30
0.0
 10
-4.9248
 20
-12.8151
 30
0.0
 10
-5.0028
 20
-12.872
 30
0.0
 10
-5.0997
 20
-12.9289
 30
0.0
 10
-5.0997
 20
-12.9289
 30
0.0
 10
-5.1971
 20
-12.9858
 30
0.0
 10
-5.2841
 20
-13.0286
 30
0.0
 10
-5.3613
 20
-13.0569
 30
0.0
 10
-5.3613
 20
-13.0569
 30
0.0
 10
-5.3613
 20
-13.0569
 30
0.0
 10
-5.3613
 20
-12.8174
 30
0.0
 10
-5.3613
 20
-12.8174
 30
0.0
 10
-5.3613
 20
-12.8174
 30
0.0
 10
-5.2225
 20
-12.7521
 30
0.0
 10
-5.1011
 20
-12.673
 30
0.0
 10
-4.9972
 20
-12.5804
 30
0.0
 10
-4.9972
 20
-12.5804
 30
0.0
 10
-4.8937
 20
-12.4872
 30
0.0
 10
-4.8199
 20
-12.3974
 30
0.0
 10
-4.7766
 20
-12.3099
 30
0.0
 10
-4.7766
 20
-12.3099
 30
0.0
 10
-4.7766
 20
-12.3099
 30
0.0
 10
-4.6171
 20
-12.3099
 30
0.0
 10
-4.6171
 20
-12.3099
 30
0.0
 10
-4.6171
 20
-12.3099
 30
0.0
 10
-4.6171
 20
-12.3099
 30
0.0
 10
-4.6171
 20
-14.3386
 30
0.0
 10
-4.6171
 20
-14.3386
 30
0.0
  0
SPLINE
  5
62
330
1F
100
AcDbEntity
  8
AXIS
 62
   250
100
AcDbSpline
210
0.0
220
0.0
230
1.0
 70
    11
 71
     3
 72
    48
 73
    44
 74
     0
 42
0.0000000001
 43
0.0000000001
 40
0.0
 40
0.0
 40
0.0
 40
0.0
 40
0.0833333333333333
 40
0.0833333333333333
 40
0.0833333333333333
 40
0.0833333333333333
 40
0.1666666666666667
 40
0.1666666666666667
 40
0.1666666666666667
 40
0.1666666666666667
 40
0.25
 40
0.25
 40
0.25
 40
0.25
 40
0.3333333333333333
 40
0.3333333333333333
 40
0.3333333333333333
 40
0.3333333333333333
 40
0.4166666666666667
 40
0.4166666666666667
 40
0.4166666666666667
 40
0.4166666666666667
 40
0.5
 40
0.5
 40
0.5
 40
0.5
 40
0.5833333333333334
 40
0.5833333333333334
 40
0.5833333333333334
 40
0.5833333333333334
 40
0.6666666666666666
 40
0.6666666666666666
 40
0.6666666666666666
 40
0.6666666666666666
 40
0.75
 40
0.75
 40
0.75
 40
0.75
 40
0.8333333333333334
 40
0.8333333333333334
 40
0.8333333333333334
 40
0.8333333333333334
 40
1.0
 40
1.0
 40
1.0
 40
1.0
 10
-3.9652
 20
-12.5832
 30
0.0
 10
-3.9652
 20
-12.5832
 30
0.0
 10
-3.9652
 20
-12.3447
 30
0.0
 10
-3.9652
 20
-12.3447
 30
0.0
 10
-3.9652
 20
-12.3447
 30
0.0
 10
-3.9652
 20
-12.3447
 30
0.0
 10
-2.6576
 20
-12.3447
 30
0.0
 10
-2.6576
 20
-12.3447
 30
0.0
 10
-2.6576
 20
-12.3447
 30
0.0
 10
-2.6576
 20
-12.3447
 30
0.0
 10
-2.6576
 20
-12.5376
 30
0.0
 10
-2.6576
 20
-12.5376
 30
0.0
 10
-2.6576
 20
-12.5376
 30
0.0
 10
-2.786
 20
-12.6744
 30
0.0
 10
-2.9135
 20
-12.8565
 30
0.0
 10
-3.04
 20
-13.0832
 30
0.0
 10
-3.04
 20
-13.0832
 30
0.0
 10
-3.1661
 20
-13.3099
 30
0.0
 10
-3.2639
 20
-13.5437
 30
0.0
 10
-3.3326
 20
-13.7831
 30
0.0
 10
-3.3326
 20
-13.7831
 30
0.0
 10
-3.3824
 20
-13.9524
 30
0.0
 10
-3.4139
 20
-14.1373
 30
0.0
 10
-3.4276
 20
-14.3386
 30
0.0
 10
-3.4276
 20
-14.3386
 30
0.0
 10
-3.4276
 20
-14.3386
 30
0.0
 10
-3.6825
 20
-14.3386
 30
0.0
 10
-3.6825
 20
-14.3386
 30
0.0
 10
-3.6825
 20
-14.3386
 30
0.0
 10
-3.6797
 20
-14.1796
 30
0.0
 10
-3.6487
 20
-13.9877
 30
0.0
 10
-3.5889
 20
-13.7624
 30
0.0
 10
-3.5889
 20
-13.7624
 30
0.0
 10
-3.5292
 20
-13.5376
 30
0.0
 10
-3.4436
 20
-13.3203
 30
0.0
 10
-3.3321
 20
-13.1114
 30
0.0
 10
-3.3321
 20
-13.1114
 30
0.0
 10
-3.2202
 20
-12.9026
 30
0.0
 10
-3.1016
 20
-12.7262
 30
0.0
 10
-2.9756
 20
-12.5832
 30
0.0
 10
-2.9756
 20
-12.5832
 30
0.0
 10
-2.9756
 20
-12.5832
 30
0.0
 10
-3.9652
 20
-12.5832
 30
0.0
 10
-3.9652
 20
-12.5832
 30
0.0
  0
SPLINE
  5
63
330
1F
100
AcDbEntity
  8
AXIS
 62
   250
100
AcDbSpline
210
0.0
220
0.0
230
1.0
 70
    11
 71
     3
 72
    48
 73
    44
 74
     0
 42
0.0000000001
 43
0.0000000001
 40
0.0
 40
0.0
 40
0.0
 40
0.0
 40
0.0833333333333333
 40
0.0833333333333333
 40
0.0833333333333333
 40
0.0833333333333333
 40
0.1666666666666667
 40
0.1666666666666667
 40
0.1666666666666667
 40
0.1666666666666667
 40
0.25
 40
0.25
 40
0.25
 40
0.25
 40
0.3333333333333333
 40
0.3333333333333333
 40
0.3333333333333333
 40
0.3333333333333333
 40
0.4166666666666667
 40
0.4166666666666667
 40
0.4166666666666667
 40
0.4166666666666667
 40
0.5
 40
0.5
 40
0.5
 40
0.5
 40
0.5833333333333334
 40
0.5833333333333334
 40
0.5833333333333334
 40
0.5833333333333334
 40
0.6666666666666666
 40
0.6666666666666666
 40
0.6666666666666666
 40
0.6666666666666666
 40
0.75
 40
0.75
 40
0.75
 40
0.75
 40
0.8333333333333334
 40
0.8333333333333334
 40
0.8333333333333334
 40
0.8333333333333334
 40
1.0
 40
1.0
 40
1.0
 40
1.0
 10
-1.6172
 20
-14.3386
 30
0.0
 10
-1.6172
 20
-14.3386
 30
0.0
 10
-1.6172
 20
-13.8551
 30
0.0
 10
-1.6172
 20
-13.8551
 30
0.0
 10
-1.6172
 20
-13.8551
 30
0.0
 10
-1.6172
 20
-13.8551
 30
0.0
 10
-2.4935
 20
-13.8551
 30
0.0
 10
-2.4935
 20
-13.8551
 30
0.0
 10
-2.4935
 20
-13.8551
 30
0.0
 10
-2.4935
 20
-13.8551
 30
0.0
 10
-2.4935
 20
-13.6274
 30
0.0
 10
-2.4935
 20
-13.6274
 30
0.0
 10
-2.4935
 20
-13.6274
 30
0.0
 10
-2.4935
 20
-13.6274
 30
0.0
 10
-1.5715
 20
-12.3184
 30
0.0
 10
-1.5715
 20
-12.3184
 30
0.0
 10
-1.5715
 20
-12.3184
 30
0.0
 10
-1.5715
 20
-12.3184
 30
0.0
 10
-1.3688
 20
-12.3184
 30
0.0
 10
-1.3688
 20
-12.3184
 30
0.0
 10
-1.3688
 20
-12.3184
 30
0.0
 10
-1.3688
 20
-12.3184
 30
0.0
 10
-1.3688
 20
-13.6274
 30
0.0
 10
-1.3688
 20
-13.6274
 30
0.0
 10
-1.3688
 20
-13.6274
 30
0.0
 10
-1.3688
 20
-13.6274
 30
0.0
 10
-1.096
 20
-13.6274
 30
0.0
 10
-1.096
 20
-13.6274
 30
0.0
 10
-1.096
 20
-13.6274
 30
0.0
 10
-1.096
 20
-13.6274
 30
0.0
 10
-1.096
 20
-13.8551
 30
0.0
 10
-1.096
 20
-13.8551
 30
0.0
 10
-1.096
 20
-13.8551
 30
0.0
 10
-1.096
 20
-13.8551
 30
0.0
 10
-1.3688
 20
-13.8551
 30
0.0
 10
-1.3688
 20
-13.8551
 30
0.0
 10
-1.3688
 20
-13.8551
 30
0.0
 10
-1.3688
 20
-13.8551
 30
0.0
 10
-1.3688
 20
-14.3386
 30
0.0
 10
-1.3688
 20
-14.3386
 30
0.0
 10
-1.3688
 20
-14.3386
 30
0.0
 10
-1.3688
 20
-14.3386
 30
0.0
 10
-1.6172
 20
-14.3386
 30
0.0
 10
-1.6172
 20
-14.3386
 30
0.0
  0
SPLINE
  5
64
330
1F
100
AcDbEntity
  8
AXIS
 62
   250
100
AcDbSpline
210
0.0
220
0.0
230
1.0
 70
    11
 71
     3
 72
    16
 73
    12
 74
     0
 42
0.0000000001
 43
0.0000000001
 40
0.0
 40
0.0
 40
0.0
 40
0.0
 40
0.25
 40
0.25
 40
0.25
 40
0.25
 40
0.5
 40
0.5
 40
0.5
 40
0.5
 40
1.0
 40
1.0
 40
1.0
 40
1.0
 10
-1.6172
 20
-13.6274
 30
0.0
 10
-1.6172
 20
-13.6274
 30
0.0
 10
-1.6172
 20
-12.7168
 30
0.0
 10
-1.6172
 20
-12.7168
 30
0.0
 10
-1.6172
 20
-12.7168
 30
0.0
 10
-1.6172
 20
-12.7168
 30
0.0
 10
-2.2493
 20
-13.6274
 30
0.0
 10
-2.2493
 20
-13.6274
 30
0.0
 10
-2.2493
 20
-13.6274
 30
0.0
 10
-2.2493
 20
-13.6274
 30
0.0
 10
-1.6172
 20
-13.6274
 30
0.0
 10
-1.6172
 20
-13.6274
 30
0.0
  0
SPLINE
  5
65
330
1F
100
AcDbEntity
  8
AXIS
 62
   250
100
AcDbSpline
210
0.0
220
0.0
230
1.0
 70
    11
 71
     3
 72
    40
 73
    36
 74
     0
 42
0.0000000001
 43
0.0000000001
 40
0.0
 40
0.0
 40
0.0
 40
0.0
 40
0.1
 40
0.1
 40
0.1
 40
0.1
 40
0.2
 40
0.2
 40
0.2
 40
0.2
 40
0.3
 40
0.3
 40
0.3
 40
0.3
 40
0.4
 40
0.4
 40
0.4
 40
0.4
 40
0.5
 40
0.5
 40
0.5
 40
0.5
 40
0.6
 40
0.6
 40
0.6
 40
0.6
 40
0.7
 40
0.7
 40
0.7
 40
0.7
 40
0.8
 40
0.8
 40
0.8
 40
0.8
 40
1.0
 40
1.0
 40
1.0
 40
1.0
 10
-27.1319
 20
-3.7835
 30
0.0
 10
-27.1319
 20
-3.7835
 30
0.0
 10
-27.1319
 20
-4.0314
 30
0.0
 10
-27.1319
 20
-4.0314
 30
0.0
 10
-27.1319
 20
-4.0314
 30
0.0
 10
-27.1319
 20
-4.0314
 30
0.0
 10
-28.7123
 20
-4.0314
 30
0.0
 10
-28.7123
 20
-4.0314
 30
0.0
 10
-28.7123
 20
-4.0314
 30
0.0
 10
-28.6554
 20
-4.0912
 30
0.0
 10
-28.5985
 20
-4.1692
 30
0.0
 10
-28.5416
 20
-4.2661
 30
0.0
 10
-28.5416
 20
-4.2661
 30
0.0
 10
-28.4847
 20
-4.3635
 30
0.0
 10
-28.4419
 20
-4.4505
 30
0.0
 10
-28.4136
 20
-4.5277
 30
0.0
 10
-28.4136
 20
-4.5277
 30
0.0
 10
-28.4136
 20
-4.5277
 30
0.0
 10
-28.6531
 20
-4.5277
 30
0.0
 10
-28.6531
 20
-4.5277
 30
0.0
 10
-28.6531
 20
-4.5277
 30
0.0
 10
-28.7184
 20
-4.3889
 30
0.0
 10
-28.7975
 20
-4.2675
 30
0.0
 10
-28.8901
 20
-4.1636
 30
0.0
 10
-28.8901
 20
-4.1636
 30
0.0
 10
-28.9833
 20
-4.0601
 30
0.0
 10
-29.0731
 20
-3.9863
 30
0.0
 10
-29.1606
 20
-3.943
 30
0.0
 10
-29.1606
 20
-3.943
 30
0.0
 10
-29.1606
 20
-3.943
 30
0.0
 10
-29.1606
 20
-3.7835
 30
0.0
 10
-29.1606
 20
-3.7835
 30
0.0
 10
-29.1606
 20
-3.7835
 30
0.0
 10
-29.1606
 20
-3.7835
 30
0.0
 10
-27.1319
 20
-3.7835
 30
0.0
 10
-27.1319
 20
-3.7835
 30
0.0
  0
SPLINE
  5
66
330
1F
100
AcDbEntity
  8
AXIS
 62
   250
100
AcDbSpline
210
0.0
220
0.0
230
1.0
 70
    11
 71
     3
 72
    80
 73
    76
 74
     0
 42
0.0000000001
 43
0.0000000001
 40
0.0
 40
0.0
 40
0.0
 40
0.0
 40
0.05
 40
0.05
 40
0.05
 40
0.05
 40
0.1
 40
0.1
 40
0.1
 40
0.1
 40
0.15
 40
0.15
 40
0.15
 40
0.15
 40
0.2
 40
0.2
 40
0.2
 40
0.2
 40
0.25
 40
0.25
 40
0.25
 40
0.25
 40
0.3
 40
0.3
 40
0.3
 40
0.3
 40
0.35
 40
0.35
 40
0.35
 40
0.35
 40
0.4
 40
0.4
 40
0.4
 40
0.4
 40
0.45
 40
0.45
 40
0.45
 40
0.45
 40
0.5
 40
0.5
 40
0.5
 40
0.5
 40
0.55
 40
0.55
 40
0.55
 40
0.55
 40
0.6
 40
0.6
 40
0.6
 40
0.6
 40
0.65
 40
0.65
 40
0.65
 40
0.65
 40
0.7
 40
0.7
 40
0.7
 40
0.7
 40
0.75
 40
0.75
 40
0.75
 40
0.75
 40
0.8
 40
0.8
 40
0.8
 40
0.8
 40
0.85
 40
0.85
 40
0.85
 40
0.85
 40
0.9
 40
0.9
 40
0.9
 40
0.9
 40
1.0
 40
1.0
 40
1.0
 40
1.0
 10
-28.6573
 20
-1.8612
 30
0.0
 10
-28.6573
 20
-1.8612
 30
0.0
 10
-28.638
 20
-2.1076
 30
0.0
 10
-28.638
 20
-2.1076
 30
0.0
 10
-28.638
 20
-2.1076
 30
0.0
 10
-28.7354
 20
-2.1297
 30
0.0
 10
-28.8064
 20
-2.1608
 30
0.0
 10
-28.8501
 20
-2.2012
 30
0.0
 10
-28.8501
 20
-2.2012
 30
0.0
 10
-28.9212
 20
-2.2685
 30
0.0
 10
-28.9565
 20
-2.3513
 30
0.0
 10
-28.9565
 20
-2.4496
 30
0.0
 10
-28.9565
 20
-2.4496
 30
0.0
 10
-28.9565
 20
-2.5286
 30
0.0
 10
-28.9343
 20
-2.5977
 30
0.0
 10
-28.8901
 20
-2.6575
 30
0.0
 10
-28.8901
 20
-2.6575
 30
0.0
 10
-28.8332
 20
-2.7356
 30
0.0
 10
-28.75
 20
-2.7972
 30
0.0
 10
-28.6408
 20
-2.8423
 30
0.0
 10
-28.6408
 20
-2.8423
 30
0.0
 10
-28.5317
 20
-2.887
 30
0.0
 10
-28.376
 20
-2.9105
 30
0.0
 10
-28.1738
 20
-2.9124
 30
0.0
 10
-28.1738
 20
-2.9124
 30
0.0
 10
-28.2645
 20
-2.8527
 30
0.0
 10
-28.3323
 20
-2.7798
 30
0.0
 10
-28.3765
 20
-2.6932
 30
0.0
 10
-28.3765
 20
-2.6932
 30
0.0
 10
-28.4202
 20
-2.6072
 30
0.0
 10
-28.4423
 20
-2.5164
 30
0.0
 10
-28.4423
 20
-2.4218
 30
0.0
 10
-28.4423
 20
-2.4218
 30
0.0
 10
-28.4423
 20
-2.2563
 30
0.0
 10
-28.3817
 20
-2.1156
 30
0.0
 10
-28.2598
 20
-1.9994
 30
0.0
 10
-28.2598
 20
-1.9994
 30
0.0
 10
-28.138
 20
-1.8833
 30
0.0
 10
-27.9809
 20
-1.8249
 30
0.0
 10
-27.7881
 20
-1.8249
 30
0.0
 10
-27.7881
 20
-1.8249
 30
0.0
 10
-27.6611
 20
-1.8249
 30
0.0
 10
-27.5435
 20
-1.8527
 30
0.0
 10
-27.4343
 20
-1.9073
 30
0.0
 10
-27.4343
 20
-1.9073
 30
0.0
 10
-27.3257
 20
-1.9618
 30
0.0
 10
-27.242
 20
-2.0371
 30
0.0
 10
-27.1841
 20
-2.1326
 30
0.0
 10
-27.1841
 20
-2.1326
 30
0.0
 10
-27.1263
 20
-2.228
 30
0.0
 10
-27.0976
 20
-2.3362
 30
0.0
 10
-27.0976
 20
-2.4576
 30
0.0
 10
-27.0976
 20
-2.4576
 30
0.0
 10
-27.0976
 20
-2.6645
 30
0.0
 10
-27.1733
 20
-2.8329
 30
0.0
 10
-27.3257
 20
-2.9632
 30
0.0
 10
-27.3257
 20
-2.9632
 30
0.0
 10
-27.4776
 20
-3.094
 30
0.0
 10
-27.7283
 20
-3.1589
 30
0.0
 10
-28.0773
 20
-3.1589
 30
0.0
 10
-28.0773
 20
-3.1589
 30
0.0
 10
-28.4677
 20
-3.1589
 30
0.0
 10
-28.7514
 20
-3.0869
 30
0.0
 10
-28.9287
 20
-2.9425
 30
0.0
 10
-28.9287
 20
-2.9425
 30
0.0
 10
-29.083
 20
-2.8169
 30
0.0
 10
-29.1606
 20
-2.6476
 30
0.0
 10
-29.1606
 20
-2.4341
 30
0.0
 10
-29.1606
 20
-2.4341
 30
0.0
 10
-29.1606
 20
-2.2755
 30
0.0
 10
-29.1159
 20
-2.1453
 30
0.0
 10
-29.0265
 20
-2.0437
 30
0.0
 10
-29.0265
 20
-2.0437
 30
0.0
 10
-28.9376
 20
-1.9421
 30
0.0
 10
-28.8144
 20
-1.8814
 30
0.0
 10
-28.6573
 20
-1.8612
 30
0.0
  0
SPLINE
  5
67
330
1F
100
AcDbEntity
  8
AXIS
 62
   250
100
AcDbSpline
210
0.0
220
0.0
230
1.0
 70
    11
 71
     3
 72
    40
 73
    36
 74
     0
 42
0.0000000001
 43
0.0000000001
 40
0.0
 40
0.0
 40
0.0
 40
0.0
 40
0.1
 40
0.1
 40
0.1
 40
0.1
 40
0.2
 40
0.2
 40
0.2
 40
0.2
 40
0.3
 40
0.3
 40
0.3
 40
0.3
 40
0.4
 40
0.4
 40
0.4
 40
0.4
 40
0.5
 40
0.5
 40
0.5
 40
0.5
 40
0.6
 40
0.6
 40
0.6
 40
0.6
 40
0.7
 40
0.7
 40
0.7
 40
0.7
 40
0.8
 40
0.8
 40
0.8
 40
0.8
 40
1.0
 40
1.0
 40
1.0
 40
1.0
 10
-27.7867
 20
-2.8739
 30
0.0
 10
-27.701
 20
-2.8739
 30
0.0
 10
-27.6192
 20
-2.8555
 30
0.0
 10
-27.5411
 20
-2.8193
 30
0.0
 10
-27.5411
 20
-2.8193
 30
0.0
 10
-27.463
 20
-2.7831
 30
0.0
 10
-27.4038
 20
-2.7323
 30
0.0
 10
-27.3629
 20
-2.6674
 30
0.0
 10
-27.3629
 20
-2.6674
 30
0.0
 10
-27.3219
 20
-2.602
 30
0.0
 10
-27.3012
 20
-2.5333
 30
0.0
 10
-27.3012
 20
-2.4618
 30
0.0
 10
-27.3012
 20
-2.4618
 30
0.0
 10
-27.3012
 20
-2.3569
 30
0.0
 10
-27.3436
 20
-2.2671
 30
0.0
 10
-27.4282
 20
-2.1918
 30
0.0
 10
-27.4282
 20
-2.1918
 30
0.0
 10
-27.5129
 20
-2.1166
 30
0.0
 10
-27.6277
 20
-2.0789
 30
0.0
 10
-27.7725
 20
-2.0789
 30
0.0
 10
-27.7725
 20
-2.0789
 30
0.0
 10
-27.9122
 20
-2.0789
 30
0.0
 10
-28.0223
 20
-2.1161
 30
0.0
 10
-28.1027
 20
-2.1904
 30
0.0
 10
-28.1027
 20
-2.1904
 30
0.0
 10
-28.1832
 20
-2.2647
 30
0.0
 10
-28.2232
 20
-2.3583
 30
0.0
 10
-28.2232
 20
-2.4712
 30
0.0
 10
-28.2232
 20
-2.4712
 30
0.0
 10
-28.2232
 20
-2.5836
 30
0.0
 10
-28.1832
 20
-2.6787
 30
0.0
 10
-28.1027
 20
-2.7567
 30
0.0
 10
-28.1027
 20
-2.7567
 30
0.0
 10
-28.0223
 20
-2.8348
 30
0.0
 10
-27.9169
 20
-2.8739
 30
0.0
 10
-27.7867
 20
-2.8739
 30
0.0
  0
SPLINE
  5
68
330
1F
100
AcDbEntity
  8
AXIS
 62
   250
100
AcDbSpline
210
0.0
220
0.0
230
1.0
 70
    11
 71
     3
 72
    92
 73
    88
 74
     0
 42
0.0000000001
 43
0.0000000001
 40
0.0
 40
0.0
 40
0.0
 40
0.0
 40
0.0434782608695652
 40
0.0434782608695652
 40
0.0434782608695652
 40
0.0434782608695652
 40
0.0869565217391304
 40
0.0869565217391304
 40
0.0869565217391304
 40
0.0869565217391304
 40
0.1304347826086956
 40
0.1304347826086956
 40
0.1304347826086956
 40
0.1304347826086956
 40
0.1739130434782609
 40
0.1739130434782609
 40
0.1739130434782609
 40
0.1739130434782609
 40
0.2173913043478261
 40
0.2173913043478261
 40
0.2173913043478261
 40
0.2173913043478261
 40
0.2608695652173913
 40
0.2608695652173913
 40
0.2608695652173913
 40
0.2608695652173913
 40
0.3043478260869565
 40
0.3043478260869565
 40
0.3043478260869565
 40
0.3043478260869565
 40
0.3478260869565217
 40
0.3478260869565217
 40
0.3478260869565217
 40
0.3478260869565217
 40
0.391304347826087
 40
0.391304347826087
 40
0.391304347826087
 40
0.391304347826087
 40
0.4347826086956522
 40
0.4347826086956522
 40
0.4347826086956522
 40
0.4347826086956522
 40
0.4782608695652174
 40
0.4782608695652174
 40
0.4782608695652174
 40
0.4782608695652174
 40
0.5217391304347826
 40
0.5217391304347826
 40
0.5217391304347826
 40
0.5217391304347826
 40
0.5652173913043478
 40
0.5652173913043478
 40
0.5652173913043478
 40
0.5652173913043478
 40
0.6086956521739131
 40
0.6086956521739131
 40
0.6086956521739131
 40
0.6086956521739131
 40
0.6521739130434783
 40
0.6521739130434783
 40
0.6521739130434783
 40
0.6521739130434783
 40
0.6956521739130435
 40
0.6956521739130435
 40
0.6956521739130435
 40
0.6956521739130435
 40
0.7391304347826086
 40
0.7391304347826086
 40
0.7391304347826086
 40
0.7391304347826086
 40
0.782608695652174
 40
0.782608695652174
 40
0.782608695652174
 40
0.782608695652174
 40
0.8260869565217391
 40
0.8260869565217391
 40
0.8260869565217391
 40
0.8260869565217391
 40
0.8695652173913043
 40
0.8695652173913043
 40
0.8695652173913043
 40
0.8695652173913043
 40
0.9130434782608695
 40
0.9130434782608695
 40
0.9130434782608695
 40
0.9130434782608695
 40
1.0
 40
1.0
 40
1.0
 40
1.0
 10
-27.6611
 20
-1.5785
 30
0.0
 10
-27.6611
 20
-1.5785
 30
0.0
 10
-27.6832
 20
-1.3179
 30
0.0
 10
-27.6832
 20
-1.3179
 30
0.0
 10
-27.6832
 20
-1.3179
 30
0.0
 10
-27.5562
 20
-1.2986
 30
0.0
 10
-27.4612
 20
-1.2539
 30
0.0
 10
-27.3972
 20
-1.1838
 30
0.0
 10
-27.3972
 20
-1.1838
 30
0.0
 10
-27.3332
 20
-1.1133
 30
0.0
 10
-27.3012
 20
-1.0286
 30
0.0
 10
-27.3012
 20
-0.9294
 30
0.0
 10
-27.3012
 20
-0.9294
 30
0.0
 10
-27.3012
 20
-0.8099
 30
0.0
 10
-27.3464
 20
-0.7088
 30
0.0
 10
-27.4362
 20
-0.6265
 30
0.0
 10
-27.4362
 20
-0.6265
 30
0.0
 10
-27.5265
 20
-0.5437
 30
0.0
 10
-27.646
 20
-0.5023
 30
0.0
 10
-27.7946
 20
-0.5023
 30
0.0
 10
-27.7946
 20
-0.5023
 30
0.0
 10
-27.9362
 20
-0.5023
 30
0.0
 10
-28.0477
 20
-0.5418
 30
0.0
 10
-28.1295
 20
-0.6213
 30
0.0
 10
-28.1295
 20
-0.6213
 30
0.0
 10
-28.2114
 20
-0.7008
 30
0.0
 10
-28.2523
 20
-0.8047
 30
0.0
 10
-28.2523
 20
-0.9336
 30
0.0
 10
-28.2523
 20
-0.9336
 30
0.0
 10
-28.2523
 20
-1.0136
 30
0.0
 10
-28.234
 20
-1.0855
 30
0.0
 10
-28.1978
 20
-1.15
 30
0.0
 10
-28.1978
 20
-1.15
 30
0.0
 10
-28.1615
 20
-1.2144
 30
0.0
 10
-28.1145
 20
-1.2647
 30
0.0
 10
-28.0566
 20
-1.3014
 30
0.0
 10
-28.0566
 20
-1.3014
 30
0.0
 10
-28.0566
 20
-1.3014
 30
0.0
 10
-28.0867
 20
-1.5343
 30
0.0
 10
-28.0867
 20
-1.5343
 30
0.0
 10
-28.0867
 20
-1.5343
 30
0.0
 10
-28.0867
 20
-1.5343
 30
0.0
 10
-29.1244
 20
-1.3386
 30
0.0
 10
-29.1244
 20
-1.3386
 30
0.0
 10
-29.1244
 20
-1.3386
 30
0.0
 10
-29.1244
 20
-1.3386
 30
0.0
 10
-29.1244
 20
-0.3339
 30
0.0
 10
-29.1244
 20
-0.3339
 30
0.0
 10
-29.1244
 20
-0.3339
 30
0.0
 10
-29.1244
 20
-0.3339
 30
0.0
 10
-28.8873
 20
-0.3339
 30
0.0
 10
-28.8873
 20
-0.3339
 30
0.0
 10
-28.8873
 20
-0.3339
 30
0.0
 10
-28.8873
 20
-0.3339
 30
0.0
 10
-28.8873
 20
-1.1401
 30
0.0
 10
-28.8873
 20
-1.1401
 30
0.0
 10
-28.8873
 20
-1.1401
 30
0.0
 10
-28.8873
 20
-1.1401
 30
0.0
 10
-28.3445
 20
-1.2492
 30
0.0
 10
-28.3445
 20
-1.2492
 30
0.0
 10
-28.3445
 20
-1.2492
 30
0.0
 10
-28.4292
 20
-1.1279
 30
0.0
 10
-28.4715
 20
-1.0004
 30
0.0
 10
-28.4715
 20
-0.8673
 30
0.0
 10
-28.4715
 20
-0.8673
 30
0.0
 10
-28.4715
 20
-0.6909
 30
0.0
 10
-28.4104
 20
-0.5423
 30
0.0
 10
-28.2881
 20
-0.4209
 30
0.0
 10
-28.2881
 20
-0.4209
 30
0.0
 10
-28.1658
 20
-0.2996
 30
0.0
 10
-28.0087
 20
-0.2389
 30
0.0
 10
-27.8168
 20
-0.2389
 30
0.0
 10
-27.8168
 20
-0.2389
 30
0.0
 10
-27.6338
 20
-0.2389
 30
0.0
 10
-27.4757
 20
-0.2925
 30
0.0
 10
-27.3426
 20
-0.3988
 30
0.0
 10
-27.3426
 20
-0.3988
 30
0.0
 10
-27.1794
 20
-0.5286
 30
0.0
 10
-27.0976
 20
-0.7055
 30
0.0
 10
-27.0976
 20
-0.9294
 30
0.0
 10
-27.0976
 20
-0.9294
 30
0.0
 10
-27.0976
 20
-1.1133
 30
0.0
 10
-27.1488
 20
-1.2633
 30
0.0
 10
-27.2518
 20
-1.3795
 30
0.0
 10
-27.2518
 20
-1.3795
 30
0.0
 10
-27.3549
 20
-1.4957
 30
0.0
 10
-27.4913
 20
-1.562
 30
0.0
 10
-27.6611
 20
-1.5785
 30
0.0
  0
SPLINE
  5
69
330
1F
100
AcDbEntity
  8
AXIS
 62
   250
100
AcDbSpline
210
0.0
220
0.0
230
1.0
 70
    11
 71
     3
 72
    92
 73
    88
 74
     0
 42
0.0000000001
 43
0.0000000001
 40
0.0
 40
0.0
 40
0.0
 40
0.0
 40
0.0434782608695652
 40
0.0434782608695652
 40
0.0434782608695652
 40
0.0434782608695652
 40
0.0869565217391304
 40
0.0869565217391304
 40
0.0869565217391304
 40
0.0869565217391304
 40
0.1304347826086956
 40
0.1304347826086956
 40
0.1304347826086956
 40
0.1304347826086956
 40
0.1739130434782609
 40
0.1739130434782609
 40
0.1739130434782609
 40
0.1739130434782609
 40
0.2173913043478261
 40
0.2173913043478261
 40
0.2173913043478261
 40
0.2173913043478261
 40
0.2608695652173913
 40
0.2608695652173913
 40
0.2608695652173913
 40
0.2608695652173913
 40
0.3043478260869565
 40
0.3043478260869565
 40
0.3043478260869565
 40
0.3043478260869565
 40
0.3478260869565217
 40
0.3478260869565217
 40
0.3478260869565217
 40
0.3478260869565217
 40
0.391304347826087
 40
0.391304347826087
 40
0.391304347826087
 40
0.391304347826087
 40
0.4347826086956522
 40
0.4347826086956522
 40
0.4347826086956522
 40
0.4347826086956522
 40
0.4782608695652174
 40
0.4782608695652174
 40
0.4782608695652174
 40
0.4782608695652174
 40
0.5217391304347826
 40
0.5217391304347826
 40
0.5217391304347826
 40
0.5217391304347826
 40
0.5652173913043478
 40
0.5652173913043478
 40
0.5652173913043478
 40
0.5652173913043478
 40
0.6086956521739131
 40
0.6086956521739131
 40
0.6086956521739131
 40
0.6086956521739131
 40
0.6521739130434783
 40
0.6521739130434783
 40
0.6521739130434783
 40
0.6521739130434783
 40
0.6956521739130435
 40
0.6956521739130435
 40
0.6956521739130435
 40
0.6956521739130435
 40
0.7391304347826086
 40
0.7391304347826086
 40
0.7391304347826086
 40
0.7391304347826086
 40
0.782608695652174
 40
0.782608695652174
 40
0.782608695652174
 40
0.782608695652174
 40
0.8260869565217391
 40
0.8260869565217391
 40
0.8260869565217391
 40
0.8260869565217391
 40
0.8695652173913043
 40
0.8695652173913043
 40
0.8695652173913043
 40
0.8695652173913043
 40
0.9130434782608695
 40
0.9130434782608695
 40
0.9130434782608695
 40
0.9130434782608695
 40
1.0
 40
1.0
 40
1.0
 40
1.0
 10
13.3285
 20
-4.0043
 30
0.0
 10
13.3285
 20
-4.0043
 30
0.0
 10
13.3064
 20
-3.7658
 30
0.0
 10
13.3064
 20
-3.7658
 30
0.0
 10
13.3064
 20
-3.7658
 30
0.0
 10
13.4184
 20
-3.7456
 30
0.0
 10
13.4997
 20
-3.707
 30
0.0
 10
13.5505
 20
-3.6501
 30
0.0
 10
13.5505
 20
-3.6501
 30
0.0
 10
13.6009
 20
-3.5932
 30
0.0
 10
13.6263
 20
-3.5203
 30
0.0
 10
13.6263
 20
-3.4309
 30
0.0
 10
13.6263
 20
-3.4309
 30
0.0
 10
13.6263
 20
-3.3547
 30
0.0
 10
13.6089
 20
-3.288
 30
0.0
 10
13.5736
 20
-3.2306
 30
0.0
 10
13.5736
 20
-3.2306
 30
0.0
 10
13.5388
 20
-3.1732
 30
0.0
 10
13.4922
 20
-3.1261
 30
0.0
 10
13.4339
 20
-3.0895
 30
0.0
 10
13.4339
 20
-3.0895
 30
0.0
 10
13.3756
 20
-3.0523
 30
0.0
 10
13.2965
 20
-3.0217
 30
0.0
 10
13.1978
 20
-2.9968
 30
0.0
 10
13.1978
 20
-2.9968
 30
0.0
 10
13.0985
 20
-2.9723
 30
0.0
 10
12.9974
 20
-2.9596
 30
0.0
 10
12.8944
 20
-2.9596
 30
0.0
 10
12.8944
 20
-2.9596
 30
0.0
 10
12.8836
 20
-2.9596
 30
0.0
 10
12.8666
 20
-2.9601
 30
0.0
 10
12.845
 20
-2.961
 30
0.0
 10
12.845
 20
-2.961
 30
0.0
 10
12.9235
 20
-3.0109
 30
0.0
 10
12.988
 20
-3.0786
 30
0.0
 10
13.0369
 20
-3.1642
 30
0.0
 10
13.0369
 20
-3.1642
 30
0.0
 10
13.0863
 20
-3.2503
 30
0.0
 10
13.1107
 20
-3.3435
 30
0.0
 10
13.1107
 20
-3.4432
 30
0.0
 10
13.1107
 20
-3.4432
 30
0.0
 10
13.1107
 20
-3.6106
 30
0.0
 10
13.0501
 20
-3.7522
 30
0.0
 10
12.9287
 20
-3.8679
 30
0.0
 10
12.9287
 20
-3.8679
 30
0.0
 10
12.8074
 20
-3.9836
 30
0.0
 10
12.6479
 20
-4.0415
 30
0.0
 10
12.4494
 20
-4.0415
 30
0.0
 10
12.4494
 20
-4.0415
 30
0.0
 10
12.2443
 20
-4.0415
 30
0.0
 10
12.0797
 20
-3.9813
 30
0.0
 10
11.9546
 20
-3.8604
 30
0.0
 10
11.9546
 20
-3.8604
 30
0.0
 10
11.8295
 20
-3.7395
 30
0.0
 10
11.7669
 20
-3.588
 30
0.0
 10
11.7669
 20
-3.406
 30
0.0
 10
11.7669
 20
-3.406
 30
0.0
 10
11.7669
 20
-3.2748
 30
0.0
 10
11.8027
 20
-3.1548
 30
0.0
 10
11.8732
 20
-3.0457
 30
0.0
 10
11.8732
 20
-3.0457
 30
0.0
 10
11.9438
 20
-2.9371
 30
0.0
 10
12.0449
 20
-2.8543
 30
0.0
 10
12.1757
 20
-2.7978
 30
0.0
 10
12.1757
 20
-2.7978
 30
0.0
 10
12.3064
 20
-2.7414
 30
0.0
 10
12.496
 20
-2.7132
 30
0.0
 10
12.7443
 20
-2.7132
 30
0.0
 10
12.7443
 20
-2.7132
 30
0.0
 10
13.0021
 20
-2.7132
 30
0.0
 10
13.2076
 20
-2.7409
 30
0.0
 10
13.361
 20
-2.7969
 30
0.0
 10
13.361
 20
-2.7969
 30
0.0
 10
13.5139
 20
-2.8533
 30
0.0
 10
13.63
 20
-2.9366
 30
0.0
 10
13.71
 20
-3.0471
 30
0.0
 10
13.71
 20
-3.0471
 30
0.0
 10
13.79
 20
-3.1581
 30
0.0
 10
13.8299
 20
-3.2875
 30
0.0
 10
13.8299
 20
-3.4366
 30
0.0
 10
13.8299
 20
-3.4366
 30
0.0
 10
13.8299
 20
-3.5946
 30
0.0
 10
13.7862
 20
-3.7235
 30
0.0
 10
13.6982
 20
-3.8237
 30
0.0
 10
13.6982
 20
-3.8237
 30
0.0
 10
13.6107
 20
-3.9239
 30
0.0
 10
13.4875
 20
-3.9841
 30
0.0
 10
13.3285
 20
-4.0043
 30
0.0
  0
SPLINE
  5
6A
330
1F
100
AcDbEntity
  8
AXIS
 62
   250
100
AcDbSpline
210
0.0
220
0.0
230
1.0
 70
    11
 71
     3
 72
    36
 73
    32
 74
     0
 42
0.0000000001
 43
0.0000000001
 40
0.0
 40
0.0
 40
0.0
 40
0.0
 40
0.1111111111111111
 40
0.1111111111111111
 40
0.1111111111111111
 40
0.1111111111111111
 40
0.2222222222222222
 40
0.2222222222222222
 40
0.2222222222222222
 40
0.2222222222222222
 40
0.3333333333333333
 40
0.3333333333333333
 40
0.3333333333333333
 40
0.3333333333333333
 40
0.4444444444444444
 40
0.4444444444444444
 40
0.4444444444444444
 40
0.4444444444444444
 40
0.5555555555555556
 40
0.5555555555555556
 40
0.5555555555555556
 40
0.5555555555555556
 40
0.6666666666666666
 40
0.6666666666666666
 40
0.6666666666666666
 40
0.6666666666666666
 40
0.7777777777777778
 40
0.7777777777777778
 40
0.7777777777777778
 40
0.7777777777777778
 40
1.0
 40
1.0
 40
1.0
 40
1.0
 10
12.4367
 20
-2.9888
 30
0.0
 10
12.2947
 20
-2.9888
 30
0.0
 10
12.1813
 20
-3.0264
 30
0.0
 10
12.098
 20
-3.1022
 30
0.0
 10
12.098
 20
-3.1022
 30
0.0
 10
12.0143
 20
-3.1784
 30
0.0
 10
11.9725
 20
-3.2691
 30
0.0
 10
11.9725
 20
-3.3759
 30
0.0
 10
11.9725
 20
-3.3759
 30
0.0
 10
11.9725
 20
-3.486
 30
0.0
 10
12.0176
 20
-3.5819
 30
0.0
 10
12.1075
 20
-3.6638
 30
0.0
 10
12.1075
 20
-3.6638
 30
0.0
 10
12.1978
 20
-3.7456
 30
0.0
 10
12.3144
 20
-3.7865
 30
0.0
 10
12.4574
 20
-3.7865
 30
0.0
 10
12.4574
 20
-3.7865
 30
0.0
 10
12.5863
 20
-3.7865
 30
0.0
 10
12.6907
 20
-3.7475
 30
0.0
 10
12.7711
 20
-3.6699
 30
0.0
 10
12.7711
 20
-3.6699
 30
0.0
 10
12.8516
 20
-3.5923
 30
0.0
 10
12.8916
 20
-3.4968
 30
0.0
 10
12.8916
 20
-3.383
 30
0.0
 10
12.8916
 20
-3.383
 30
0.0
 10
12.8916
 20
-3.2677
 30
0.0
 10
12.8516
 20
-3.1737
 30
0.0
 10
12.7711
 20
-3.0998
 30
0.0
 10
12.7711
 20
-3.0998
 30
0.0
 10
12.6907
 20
-3.0255
 30
0.0
 10
12.5792
 20
-2.9888
 30
0.0
 10
12.4367
 20
-2.9888
 30
0.0
  0
SPLINE
  5
6B
330
1F
100
AcDbEntity
  8
AXIS
 62
   250
100
AcDbSpline
210
0.0
220
0.0
230
1.0
 70
    11
 71
     3
 72
    80
 73
    76
 74
     0
 42
0.0000000001
 43
0.0000000001
 40
0.0
 40
0.0
 40
0.0
 40
0.0
 40
0.05
 40
0.05
 40
0.05
 40
0.05
 40
0.1
 40
0.1
 40
0.1
 40
0.1
 40
0.15
 40
0.15
 40
0.15
 40
0.15
 40
0.2
 40
0.2
 40
0.2
 40
0.2
 40
0.25
 40
0.25
 40
0.25
 40
0.25
 40
0.3
 40
0.3
 40
0.3
 40
0.3
 40
0.35
 40
0.35
 40
0.35
 40
0.35
 40
0.4
 40
0.4
 40
0.4
 40
0.4
 40
0.45
 40
0.45
 40
0.45
 40
0.45
 40
0.5
 40
0.5
 40
0.5
 40
0.5
 40
0.55
 40
0.55
 40
0.55
 40
0.55
 40
0.6
 40
0.6
 40
0.6
 40
0.6
 40
0.65
 40
0.65
 40
0.65
 40
0.65
 40
0.7
 40
0.7
 40
0.7
 40
0.7
 40
0.75
 40
0.75
 40
0.75
 40
0.75
 40
0.8
 40
0.8
 40
0.8
 40
0.8
 40
0.85
 40
0.85
 40
0.85
 40
0.85
 40
0.9
 40
0.9
 40
0.9
 40
0.9
 40
1.0
 40
1.0
 40
1.0
 40
1.0
 10
12.2702
 20
-1.185
 30
0.0
 10
12.2702
 20
-1.185
 30
0.0
 10
12.2895
 20
-1.4314
 30
0.0
 10
12.2895
 20
-1.4314
 30
0.0
 10
12.2895
 20
-1.4314
 30
0.0
 10
12.1921
 20
-1.4535
 30
0.0
 10
12.1211
 20
-1.4846
 30
0.0
 10
12.0774
 20
-1.525
 30
0.0
 10
12.0774
 20
-1.525
 30
0.0
 10
12.0063
 20
-1.5923
 30
0.0
 10
11.971
 20
-1.6751
 30
0.0
 10
11.971
 20
-1.7734
 30
0.0
 10
11.971
 20
-1.7734
 30
0.0
 10
11.971
 20
-1.8524
 30
0.0
 10
11.9932
 20
-1.9215
 30
0.0
 10
12.0374
 20
-1.9813
 30
0.0
 10
12.0374
 20
-1.9813
 30
0.0
 10
12.0943
 20
-2.0594
 30
0.0
 10
12.1775
 20
-2.121
 30
0.0
 10
12.2867
 20
-2.1661
 30
0.0
 10
12.2867
 20
-2.1661
 30
0.0
 10
12.3958
 20
-2.2108
 30
0.0
 10
12.5515
 20
-2.2343
 30
0.0
 10
12.7537
 20
-2.2362
 30
0.0
 10
12.7537
 20
-2.2362
 30
0.0
 10
12.663
 20
-2.1765
 30
0.0
 10
12.5952
 20
-2.1036
 30
0.0
 10
12.551
 20
-2.017
 30
0.0
 10
12.551
 20
-2.017
 30
0.0
 10
12.5073
 20
-1.931
 30
0.0
 10
12.4852
 20
-1.8402
 30
0.0
 10
12.4852
 20
-1.7456
 30
0.0
 10
12.4852
 20
-1.7456
 30
0.0
 10
12.4852
 20
-1.5801
 30
0.0
 10
12.5458
 20
-1.4394
 30
0.0
 10
12.6677
 20
-1.3232
 30
0.0
 10
12.6677
 20
-1.3232
 30
0.0
 10
12.7895
 20
-1.2071
 30
0.0
 10
12.9466
 20
-1.1487
 30
0.0
 10
13.1394
 20
-1.1487
 30
0.0
 10
13.1394
 20
-1.1487
 30
0.0
 10
13.2664
 20
-1.1487
 30
0.0
 10
13.384
 20
-1.1765
 30
0.0
 10
13.4932
 20
-1.2311
 30
0.0
 10
13.4932
 20
-1.2311
 30
0.0
 10
13.6018
 20
-1.2856
 30
0.0
 10
13.6855
 20
-1.3609
 30
0.0
 10
13.7434
 20
-1.4564
 30
0.0
 10
13.7434
 20
-1.4564
 30
0.0
 10
13.8012
 20
-1.5518
 30
0.0
 10
13.8299
 20
-1.66
 30
0.0
 10
13.8299
 20
-1.7814
 30
0.0
 10
13.8299
 20
-1.7814
 30
0.0
 10
13.8299
 20
-1.9883
 30
0.0
 10
13.7542
 20
-2.1567
 30
0.0
 10
13.6018
 20
-2.287
 30
0.0
 10
13.6018
 20
-2.287
 30
0.0
 10
13.4499
 20
-2.4178
 30
0.0
 10
13.1992
 20
-2.4827
 30
0.0
 10
12.8502
 20
-2.4827
 30
0.0
 10
12.8502
 20
-2.4827
 30
0.0
 10
12.4598
 20
-2.4827
 30
0.0
 10
12.1761
 20
-2.4107
 30
0.0
 10
11.9988
 20
-2.2663
 30
0.0
 10
11.9988
 20
-2.2663
 30
0.0
 10
11.8445
 20
-2.1407
 30
0.0
 10
11.7669
 20
-1.9714
 30
0.0
 10
11.7669
 20
-1.7579
 30
0.0
 10
11.7669
 20
-1.7579
 30
0.0
 10
11.7669
 20
-1.5993
 30
0.0
 10
11.8116
 20
-1.4691
 30
0.0
 10
11.901
 20
-1.3675
 30
0.0
 10
11.901
 20
-1.3675
 30
0.0
 10
11.9899
 20
-1.2659
 30
0.0
 10
12.1131
 20
-1.2052
 30
0.0
 10
12.2702
 20
-1.185
 30
0.0
  0
SPLINE
  5
6C
330
1F
100
AcDbEntity
  8
AXIS
 62
   250
100
AcDbSpline
210
0.0
220
0.0
230
1.0
 70
    11
 71
     3
 72
    40
 73
    36
 74
     0
 42
0.0000000001
 43
0.0000000001
 40
0.0
 40
0.0
 40
0.0
 40
0.0
 40
0.1
 40
0.1
 40
0.1
 40
0.1
 40
0.2
 40
0.2
 40
0.2
 40
0.2
 40
0.3
 40
0.3
 40
0.3
 40
0.3
 40
0.4
 40
0.4
 40
0.4
 40
0.4
 40
0.5
 40
0.5
 40
0.5
 40
0.5
 40
0.6
 40
0.6
 40
0.6
 40
0.6
 40
0.7
 40
0.7
 40
0.7
 40
0.7
 40
0.8
 40
0.8
 40
0.8
 40
0.8
 40
1.0
 40
1.0
 40
1.0
 40
1.0
 10
13.1408
 20
-2.1977
 30
0.0
 10
13.2265
 20
-2.1977
 30
0.0
 10
13.3083
 20
-2.1793
 30
0.0
 10
13.3864
 20
-2.1431
 30
0.0
 10
13.3864
 20
-2.1431
 30
0.0
 10
13.4645
 20
-2.1069
 30
0.0
 10
13.5237
 20
-2.0561
 30
0.0
 10
13.5646
 20
-1.9912
 30
0.0
 10
13.5646
 20
-1.9912
 30
0.0
 10
13.6056
 20
-1.9258
 30
0.0
 10
13.6263
 20
-1.8571
 30
0.0
 10
13.6263
 20
-1.7856
 30
0.0
 10
13.6263
 20
-1.7856
 30
0.0
 10
13.6263
 20
-1.6807
 30
0.0
 10
13.5839
 20
-1.5909
 30
0.0
 10
13.4993
 20
-1.5156
 30
0.0
 10
13.4993
 20
-1.5156
 30
0.0
 10
13.4146
 20
-1.4404
 30
0.0
 10
13.2998
 20
-1.4027
 30
0.0
 10
13.155
 20
-1.4027
 30
0.0
 10
13.155
 20
-1.4027
 30
0.0
 10
13.0153
 20
-1.4027
 30
0.0
 10
12.9052
 20
-1.4399
 30
0.0
 10
12.8248
 20
-1.5142
 30
0.0
 10
12.8248
 20
-1.5142
 30
0.0
 10
12.7443
 20
-1.5885
 30
0.0
 10
12.7043
 20
-1.6821
 30
0.0
 10
12.7043
 20
-1.795
 30
0.0
 10
12.7043
 20
-1.795
 30
0.0
 10
12.7043
 20
-1.9074
 30
0.0
 10
12.7443
 20
-2.0025
 30
0.0
 10
12.8248
 20
-2.0805
 30
0.0
 10
12.8248
 20
-2.0805
 30
0.0
 10
12.9052
 20
-2.1586
 30
0.0
 10
13.0106
 20
-2.1977
 30
0.0
 10
13.1408
 20
-2.1977
 30
0.0
  0
SPLINE
  5
6D
330
1F
100
AcDbEntity
  8
AXIS
100
AcDbSpline
210
0.0
220
0.0
230
1.0
 70
     8
 71
     3
 72
    24
 73
    20
 74
     0
 42
0.0000000001
 43
0.0000000001
 40
0.0
 40
0.0
 40
0.0
 40
0.0
 40
0.1666666666666667
 40
0.1666666666666667
 40
0.1666666666666667
 40
0.1666666666666667
 40
0.3333333333333333
 40
0.3333333333333333
 40
0.3333333333333333
 40
0.3333333333333333
 40
0.5
 40
0.5
 40
0.5
 40
0.5
 40
0.6666666666666666
 40
0.6666666666666666
 40
0.6666666666666666
 40
0.6666666666666666
 40
1.0
 40
1.0
 40
1.0
 40
1.0
 10
23.7449
 20
3.1108
 30
0.0
 10
23.7349
 20
3.1866
 30
0.0
 10
23.7396
 20
3.2094
 30
0.0
 10
23.7003
 20
3.2772
 30
0.0
 10
23.7003
 20
3.2772
 30
0.0
 10
23.6711
 20
3.328
 30
0.0
 10
23.629
 20
3.37
 30
0.0
 10
23.5784
 20
3.3992
 30
0.0
 10
23.5784
 20
3.3992
 30
0.0
 10
23.5279
 20
3.4284
 30
0.0
 10
23.4704
 20
3.4439
 30
0.0
 10
23.412
 20
3.4439
 30
0.0
 10
23.412
 20
3.4439
 30
0.0
 10
23.0796
 20
3.4439
 30
0.0
 10
22.9576
 20
2.9888
 30
0.0
 10
23.2455
 20
2.8225
 30
0.0
 10
23.2455
 20
2.8225
 30
0.0
 10
23.3134
 20
2.7834
 30
0.0
 10
23.3362
 20
2.7878
 30
0.0
 10
23.412
 20
2.7779
 30
0.0
  0
SPLINE
  5
6E
330
1F
100
AcDbEntity
  8
AXIS
100
AcDbSpline
210
0.0
220
0.0
230
1.0
 70
    24
 71
     3
 72
     8
 73
     4
 74
     0
 42
0.0000000001
 43
0.0000000001
 40
0.0
 40
0.0
 40
0.0
 40
0.0
 40
1.0
 40
1.0
 40
1.0
 40
1.0
 10
23.412
 20
2.7779
 30
0.0
 10
23.412
 20
2.7779
 30
0.0
 10
23.4982
 20
2.7893
 30
0.0
 10
23.4982
 20
2.7893
 30
0.0
  0
SPLINE
  5
6F
330
1F
100
AcDbEntity
  8
AXIS
100
AcDbSpline
210
0.0
220
0.0
230
1.0
 70
     8
 71
     3
 72
     8
 73
     4
 74
     0
 42
0.0000000001
 43
0.0000000001
 40
0.0
 40
0.0
 40
0.0
 40
0.0
 40
1.0
 40
1.0
 40
1.0
 40
1.0
 10
23.4982
 20
2.7893
 30
0.0
 10
23.6563
 20
2.8316
 30
0.0
 10
23.7251
 20
2.9603
 30
0.0
 10
23.7449
 20
3.1108
 30
0.0
  0
SPLINE
  5
70
330
1F
100
AcDbEntity
  8
AXIS
100
AcDbSpline
210
0.0
220
0.0
230
1.0
 70
    11
 71
     3
 72
    28
 73
    24
 74
     0
 42
0.0000000001
 43
0.0000000001
 40
0.0
 40
0.0
 40
0.0
 40
0.0
 40
0.1428571428571428
 40
0.1428571428571428
 40
0.1428571428571428
 40
0.1428571428571428
 40
0.2857142857142857
 40
0.2857142857142857
 40
0.2857142857142857
 40
0.2857142857142857
 40
0.4285714285714285
 40
0.4285714285714285
 40
0.4285714285714285
 40
0.4285714285714285
 40
0.5714285714285714
 40
0.5714285714285714
 40
0.5714285714285714
 40
0.5714285714285714
 40
0.7142857142857143
 40
0.7142857142857143
 40
0.7142857142857143
 40
0.7142857142857143
 40
1.0
 40
1.0
 40
1.0
 40
1.0
 10
23.6616
 20
3.1108
 30
0.0
 10
23.6589
 20
3.0631
 30
0.0
 10
23.6492
 20
3.019
 30
0.0
 10
23.6234
 20
2.9779
 30
0.0
 10
23.6234
 20
2.9779
 30
0.0
 10
23.4857
 20
2.7589
 30
0.0
 10
23.1349
 20
2.8815
 30
0.0
 10
23.1638
 20
3.1388
 30
0.0
 10
23.1638
 20
3.1388
 30
0.0
 10
23.168
 20
3.176
 30
0.0
 10
23.1806
 20
3.212
 30
0.0
 10
23.2005
 20
3.2437
 30
0.0
 10
23.2005
 20
3.2437
 30
0.0
 10
23.2204
 20
3.2754
 30
0.0
 10
23.2475
 20
3.3024
 30
0.0
 10
23.279
 20
3.3223
 30
0.0
 10
23.279
 20
3.3223
 30
0.0
 10
23.3201
 20
3.3481
 30
0.0
 10
23.3641
 20
3.3579
 30
0.0
 10
23.412
 20
3.3606
 30
0.0
 10
23.412
 20
3.3606
 30
0.0
 10
23.5536
 20
3.3526
 30
0.0
 10
23.6537
 20
3.2525
 30
0.0
 10
23.6616
 20
3.1108
 30
0.0
  0
SPLINE
  5
71
330
1F
100
AcDbEntity
  8
AXIS
100
AcDbSpline
210
0.0
220
0.0
230
1.0
 70
    24
 71
     3
 72
     8
 73
     4
 74
     0
 42
0.0000000001
 43
0.0000000001
 40
0.0
 40
0.0
 40
0.0
 40
0.0
 40
1.0
 40
1.0
 40
1.0
 40
1.0
 10
23.6772
 20
3.3121
 30
0.0
 10
23.6772
 20
3.3121
 30
0.0
 10
23.6611
 20
3.3283
 30
0.0
 10
23.6611
 20
3.3283
 30
0.0
  0
SPLINE
  5
72
330
1F
100
AcDbEntity
  8
AXIS
100
AcDbSpline
210
0.0
220
0.0
230
1.0
 70
    24
 71
     3
 72
     8
 73
     4
 74
     0
 42
0.0000000001
 43
0.0000000001
 40
0.0
 40
0.0
 40
0.0
 40
0.0
 40
1.0
 40
1.0
 40
1.0
 40
1.0
 10
23.3484
 20
2.7863
 30
0.0
 10
23.3484
 20
2.7863
 30
0.0
 10
23.3702
 20
2.7805
 30
0.0
 10
23.3702
 20
2.7805
 30
0.0
  0
SPLINE
  5
73
330
1F
100
AcDbEntity
  8
AXIS
100
AcDbSpline
210
0.0
220
0.0
230
1.0
 70
    24
 71
     3
 72
     8
 73
     4
 74
     0
 42
0.0000000001
 43
0.0000000001
 40
0.0
 40
0.0
 40
0.0
 40
0.0
 40
1.0
 40
1.0
 40
1.0
 40
1.0
 10
23.7189
 20
3.2399
 30
0.0
 10
23.7189
 20
3.2399
 30
0.0
 10
23.7449
 20
3.2551
 30
0.0
 10
23.7449
 20
3.2551
 30
0.0
  0
SPLINE
  5
74
330
1F
100
AcDbEntity
  8
AXIS
100
AcDbSpline
210
0.0
220
0.0
230
1.0
 70
    24
 71
     3
 72
     8
 73
     4
 74
     0
 42
0.0000000001
 43
0.0000000001
 40
0.0
 40
0.0
 40
0.0
 40
0.0
 40
1.0
 40
1.0
 40
1.0
 40
1.0
 10
23.7248
 20
3.218
 30
0.0
 10
23.7248
 20
3.218
 30
0.0
 10
23.7189
 20
3.2399
 30
0.0
 10
23.7189
 20
3.2399
 30
0.0
  0
SPLINE
  5
75
330
1F
100
AcDbEntity
  8
AXIS
100
AcDbSpline
210
0.0
220
0.0
230
1.0
 70
    24
 71
     3
 72
     8
 73
     4
 74
     0
 42
0.0000000001
 43
0.0000000001
 40
0.0
 40
0.0
 40
0.0
 40
0.0
 40
1.0
 40
1.0
 40
1.0
 40
1.0
 10
23.7449
 20
3.2551
 30
0.0
 10
23.7449
 20
3.2551
 30
0.0
 10
23.7189
 20
3.2399
 30
0.0
 10
23.7189
 20
3.2399
 30
0.0
  0
SPLINE
  5
76
330
1F
100
AcDbEntity
  8
AXIS
100
AcDbSpline
210
0.0
220
0.0
230
1.0
 70
    24
 71
     3
 72
     8
 73
     4
 74
     0
 42
0.0000000001
 43
0.0000000001
 40
0.0
 40
0.0
 40
0.0
 40
0.0
 40
1.0
 40
1.0
 40
1.0
 40
1.0
 10
23.1051
 20
2.9817
 30
0.0
 10
23.1051
 20
2.9817
 30
0.0
 10
23.0991
 20
3.0036
 30
0.0
 10
23.0991
 20
3.0036
 30
0.0
  0
SPLINE
  5
77
330
1F
100
AcDbEntity
  8
AXIS
100
AcDbSpline
210
0.0
220
0.0
230
1.0
 70
    24
 71
     3
 72
     8
 73
     4
 74
     0
 42
0.0000000001
 43
0.0000000001
 40
0.0
 40
0.0
 40
0.0
 40
0.0
 40
1.0
 40
1.0
 40
1.0
 40
1.0
 10
23.0991
 20
3.218
 30
0.0
 10
23.0991
 20
3.218
 30
0.0
 10
23.1051
 20
3.2399
 30
0.0
 10
23.1051
 20
3.2399
 30
0.0
  0
SPLINE
  5
78
330
1F
100
AcDbEntity
  8
AXIS
100
AcDbSpline
210
0.0
220
0.0
230
1.0
 70
    24
 71
     3
 72
     8
 73
     4
 74
     0
 42
0.0000000001
 43
0.0000000001
 40
0.0
 40
0.0
 40
0.0
 40
0.0
 40
1.0
 40
1.0
 40
1.0
 40
1.0
 10
23.6611
 20
2.8935
 30
0.0
 10
23.6611
 20
2.8935
 30
0.0
 10
23.6772
 20
2.9096
 30
0.0
 10
23.6772
 20
2.9096
 30
0.0
  0
SPLINE
  5
79
330
1F
100
AcDbEntity
  8
AXIS
100
AcDbSpline
210
0.0
220
0.0
230
1.0
 70
    24
 71
     3
 72
     8
 73
     4
 74
     0
 42
0.0000000001
 43
0.0000000001
 40
0.0
 40
0.0
 40
0.0
 40
0.0
 40
1.0
 40
1.0
 40
1.0
 40
1.0
 10
23.6772
 20
2.9096
 30
0.0
 10
23.6772
 20
2.9096
 30
0.0
 10
23.7449
 20
2.8705
 30
0.0
 10
23.7449
 20
2.8705
 30
0.0
  0
SPLINE
  5
7A
330
1F
100
AcDbEntity
  8
AXIS
100
AcDbSpline
210
0.0
220
0.0
230
1.0
 70
    24
 71
     3
 72
     8
 73
     4
 74
     0
 42
0.0000000001
 43
0.0000000001
 40
0.0
 40
0.0
 40
0.0
 40
0.0
 40
1.0
 40
1.0
 40
1.0
 40
1.0
 10
23.4536
 20
2.7805
 30
0.0
 10
23.4536
 20
2.7805
 30
0.0
 10
23.4756
 20
2.7863
 30
0.0
 10
23.4756
 20
2.7863
 30
0.0
  0
SPLINE
  5
7B
330
1F
100
AcDbEntity
  8
AXIS
100
AcDbSpline
210
0.0
220
0.0
230
1.0
 70
    24
 71
     3
 72
     8
 73
     4
 74
     0
 42
0.0000000001
 43
0.0000000001
 40
0.0
 40
0.0
 40
0.0
 40
0.0
 40
1.0
 40
1.0
 40
1.0
 40
1.0
 10
23.7449
 20
2.9666
 30
0.0
 10
23.7449
 20
2.9666
 30
0.0
 10
23.7189
 20
2.9817
 30
0.0
 10
23.7189
 20
2.9817
 30
0.0
  0
SPLINE
  5
7C
330
1F
100
AcDbEntity
  8
AXIS
100
AcDbSpline
210
0.0
220
0.0
230
1.0
 70
    24
 71
     3
 72
     8
 73
     4
 74
     0
 42
0.0000000001
 43
0.0000000001
 40
0.0
 40
0.0
 40
0.0
 40
0.0
 40
1.0
 40
1.0
 40
1.0
 40
1.0
 10
23.7248
 20
3.0036
 30
0.0
 10
23.7248
 20
3.0036
 30
0.0
 10
23.7189
 20
2.9817
 30
0.0
 10
23.7189
 20
2.9817
 30
0.0
  0
SPLINE
  5
7D
330
1F
100
AcDbEntity
  8
AXIS
100
AcDbSpline
210
0.0
220
0.0
230
1.0
 70
    24
 71
     3
 72
     8
 73
     4
 74
     0
 42
0.0000000001
 43
0.0000000001
 40
0.0
 40
0.0
 40
0.0
 40
0.0
 40
1.0
 40
1.0
 40
1.0
 40
1.0
 10
23.7449
 20
2.9666
 30
0.0
 10
23.7449
 20
2.9666
 30
0.0
 10
23.7189
 20
2.9817
 30
0.0
 10
23.7189
 20
2.9817
 30
0.0
  0
SPLINE
  5
7E
330
1F
100
AcDbEntity
  8
AXIS
100
AcDbSpline
210
0.0
220
0.0
230
1.0
 70
    24
 71
     3
 72
     8
 73
     4
 74
     0
 42
0.0000000001
 43
0.0000000001
 40
0.0
 40
0.0
 40
0.0
 40
0.0
 40
1.0
 40
1.0
 40
1.0
 40
1.0
 10
23.4536
 20
3.4412
 30
0.0
 10
23.4536
 20
3.4412
 30
0.0
 10
23.4756
 20
3.4353
 30
0.0
 10
23.4756
 20
3.4353
 30
0.0
  0
SPLINE
  5
7F
330
1F
100
AcDbEntity
  8
AXIS
100
AcDbSpline
210
0.0
220
0.0
230
1.0
 70
    24
 71
     3
 72
     8
 73
     4
 74
     0
 42
0.0000000001
 43
0.0000000001
 40
0.0
 40
0.0
 40
0.0
 40
0.0
 40
1.0
 40
1.0
 40
1.0
 40
1.0
 10
23.3702
 20
3.4412
 30
0.0
 10
23.3702
 20
3.4412
 30
0.0
 10
23.3484
 20
3.4353
 30
0.0
 10
23.3484
 20
3.4353
 30
0.0
  0
SPLINE
  5
80
330
1F
100
AcDbEntity
  8
AXIS
100
AcDbSpline
210
0.0
220
0.0
230
1.0
 70
    24
 71
     3
 72
     8
 73
     4
 74
     0
 42
0.0000000001
 43
0.0000000001
 40
0.0
 40
0.0
 40
0.0
 40
0.0
 40
1.0
 40
1.0
 40
1.0
 40
1.0
 10
23.6772
 20
3.3121
 30
0.0
 10
23.6772
 20
3.3121
 30
0.0
 10
23.7449
 20
3.3511
 30
0.0
 10
23.7449
 20
3.3511
 30
0.0
  0
SPLINE
  5
81
330
1F
100
AcDbEntity
  8
AXIS
100
AcDbSpline
210
0.0
220
0.0
230
1.0
 70
    24
 71
     3
 72
     8
 73
     4
 74
     0
 42
0.0000000001
 43
0.0000000001
 40
0.0
 40
0.0
 40
0.0
 40
0.0
 40
1.0
 40
1.0
 40
1.0
 40
1.0
 10
23.3702
 20
3.4412
 30
0.0
 10
23.3702
 20
3.4412
 30
0.0
 10
23.3702
 20
3.7742
 30
0.0
 10
23.3702
 20
3.7742
 30
0.0
  0
SPLINE
  5
82
330
1F
100
AcDbEntity
  8
AXIS
100
AcDbSpline
210
0.0
220
0.0
230
1.0
 70
     8
 71
     3
 72
    12
 73
     8
 74
     0
 42
0.0000000001
 43
0.0000000001
 40
0.0
 40
0.0
 40
0.0
 40
0.0
 40
0.3333333333333333
 40
0.3333333333333333
 40
0.3333333333333333
 40
0.3333333333333333
 40
1.0
 40
1.0
 40
1.0
 40
1.0
 10
23.3702
 20
3.7742
 30
0.0
 10
23.3704
 20
3.802
 30
0.0
 10
23.3932
 20
3.8153
 30
0.0
 10
23.4182
 20
3.8153
 30
0.0
 10
23.4182
 20
3.8153
 30
0.0
 10
23.4378
 20
3.8091
 30
0.0
 10
23.4534
 20
3.7967
 30
0.0
 10
23.4536
 20
3.7742
 30
0.0
  0
SPLINE
  5
83
330
1F
100
AcDbEntity
  8
AXIS
100
AcDbSpline
210
0.0
220
0.0
230
1.0
 70
    24
 71
     3
 72
     8
 73
     4
 74
     0
 42
0.0000000001
 43
0.0000000001
 40
0.0
 40
0.0
 40
0.0
 40
0.0
 40
1.0
 40
1.0
 40
1.0
 40
1.0
 10
23.4536
 20
3.7742
 30
0.0
 10
23.4536
 20
3.7742
 30
0.0
 10
23.4536
 20
3.4412
 30
0.0
 10
23.4536
 20
3.4412
 30
0.0
  0
SPLINE
  5
84
330
1F
100
AcDbEntity
  8
AXIS
100
AcDbSpline
210
0.0
220
0.0
230
1.0
 70
    24
 71
     3
 72
     8
 73
     4
 74
     0
 42
0.0000000001
 43
0.0000000001
 40
0.0
 40
0.0
 40
0.0
 40
0.0
 40
1.0
 40
1.0
 40
1.0
 40
1.0
 10
22.814
 20
2.8135
 30
0.0
 10
22.814
 20
2.8135
 30
0.0
 10
23.1051
 20
2.9817
 30
0.0
 10
23.1051
 20
2.9817
 30
0.0
  0
SPLINE
  5
85
330
1F
100
AcDbEntity
  8
AXIS
100
AcDbSpline
210
0.0
220
0.0
230
1.0
 70
     8
 71
     3
 72
     8
 73
     4
 74
     0
 42
0.0000000001
 43
0.0000000001
 40
0.0
 40
0.0
 40
0.0
 40
0.0
 40
1.0
 40
1.0
 40
1.0
 40
1.0
 10
22.8497
 20
3.4823
 30
0.0
 10
22.8055
 20
3.4887
 30
0.0
 10
22.7815
 20
3.447
 30
0.0
 10
22.8091
 20
3.412
 30
0.0
  0
SPLINE
  5
86
330
1F
100
AcDbEntity
  8
AXIS
100
AcDbSpline
210
0.0
220
0.0
230
1.0
 70
    24
 71
     3
 72
     8
 73
     4
 74
     0
 42
0.0000000001
 43
0.0000000001
 40
0.0
 40
0.0
 40
0.0
 40
0.0
 40
1.0
 40
1.0
 40
1.0
 40
1.0
 10
23.1467
 20
2.9096
 30
0.0
 10
23.1467
 20
2.9096
 30
0.0
 10
22.8555
 20
2.7418
 30
0.0
 10
22.8555
 20
2.7418
 30
0.0
  0
SPLINE
  5
87
330
1F
100
AcDbEntity
  8
AXIS
100
AcDbSpline
210
0.0
220
0.0
230
1.0
 70
     8
 71
     3
 72
    20
 73
    16
 74
     0
 42
0.0000000001
 43
0.0000000001
 40
0.0
 40
0.0
 40
0.0
 40
0.0
 40
0.2
 40
0.2
 40
0.2
 40
0.2
 40
0.4
 40
0.4
 40
0.4
 40
0.4
 40
0.6
 40
0.6
 40
0.6
 40
0.6
 40
1.0
 40
1.0
 40
1.0
 40
1.0
 10
23.7449
 20
2.2153
 30
0.0
 10
23.2289
 20
1.9889
 30
0.0
 10
22.6163
 20
2.3536
 30
0.0
 10
22.4841
 20
2.8758
 30
0.0
 10
22.4841
 20
2.8758
 30
0.0
 10
22.3917
 20
3.2404
 30
0.0
 10
22.5274
 20
3.6353
 30
0.0
 10
22.8241
 20
3.8661
 30
0.0
 10
22.8241
 20
3.8661
 30
0.0
 10
23.001
 20
4.004
 30
0.0
 10
23.1937
 20
4.05
 30
0.0
 10
23.412
 20
4.068
 30
0.0
 10
23.412
 20
4.068
 30
0.0
 10
23.5289
 20
4.0583
 30
0.0
 10
23.635
 20
4.0547
 30
0.0
 10
23.7449
 20
4.0065
 30
0.0
  0
SPLINE
  5
88
330
1F
100
AcDbEntity
  8
AXIS
100
AcDbSpline
210
0.0
220
0.0
230
1.0
 70
     8
 71
     3
 72
    28
 73
    24
 74
     0
 42
0.0000000001
 43
0.0000000001
 40
0.0
 40
0.0
 40
0.0
 40
0.0
 40
0.1428571428571428
 40
0.1428571428571428
 40
0.1428571428571428
 40
0.1428571428571428
 40
0.2857142857142857
 40
0.2857142857142857
 40
0.2857142857142857
 40
0.2857142857142857
 40
0.4285714285714285
 40
0.4285714285714285
 40
0.4285714285714285
 40
0.4285714285714285
 40
0.5714285714285714
 40
0.5714285714285714
 40
0.5714285714285714
 40
0.5714285714285714
 40
0.7142857142857143
 40
0.7142857142857143
 40
0.7142857142857143
 40
0.7142857142857143
 40
1.0
 40
1.0
 40
1.0
 40
1.0
 10
23.7449
 20
3.9163
 30
0.0
 10
23.6421
 20
3.9641
 30
0.0
 10
23.525
 20
3.9848
 30
0.0
 10
23.412
 20
3.9848
 30
0.0
 10
23.412
 20
3.9848
 30
0.0
 10
23.31
 20
3.9848
 30
0.0
 10
23.2088
 20
3.9669
 30
0.0
 10
23.113
 20
3.9322
 30
0.0
 10
23.113
 20
3.9322
 30
0.0
 10
22.6101
 20
3.749
 30
0.0
 10
22.3876
 20
3.1373
 30
0.0
 10
22.6552
 20
2.6739
 30
0.0
 10
22.6552
 20
2.6739
 30
0.0
 10
22.706
 20
2.5855
 30
0.0
 10
22.7721
 20
2.5068
 30
0.0
 10
22.8502
 20
2.4414
 30
0.0
 10
22.8502
 20
2.4414
 30
0.0
 10
23.0165
 20
2.3017
 30
0.0
 10
23.2012
 20
2.2553
 30
0.0
 10
23.412
 20
2.2369
 30
0.0
 10
23.412
 20
2.2369
 30
0.0
 10
23.53
 20
2.2473
 30
0.0
 10
23.6357
 20
2.2546
 30
0.0
 10
23.7449
 20
2.3054
 30
0.0
  0
SPLINE
  5
89
330
1F
100
AcDbEntity
  8
AXIS
100
AcDbSpline
210
0.0
220
0.0
230
1.0
 70
     8
 71
     3
 72
     8
 73
     4
 74
     0
 42
0.0000000001
 43
0.0000000001
 40
0.0
 40
0.0
 40
0.0
 40
0.0
 40
1.0
 40
1.0
 40
1.0
 40
1.0
 10
23.5174
 20
2.7973
 30
0.0
 10
23.5447
 20
2.8044
 30
0.0
 10
23.5316
 20
2.7991
 30
0.0
 10
23.5566
 20
2.8134
 30
0.0
  0
SPLINE
  5
8A
330
1F
100
AcDbEntity
  8
AXIS
100
AcDbSpline
210
0.0
220
0.0
230
1.0
 70
    24
 71
     3
 72
     8
 73
     4
 74
     0
 42
0.0000000001
 43
0.0000000001
 40
0.0
 40
0.0
 40
0.0
 40
0.0
 40
1.0
 40
1.0
 40
1.0
 40
1.0
 10
23.3702
 20
2.7805
 30
0.0
 10
23.3702
 20
2.7805
 30
0.0
 10
23.3702
 20
2.4476
 30
0.0
 10
23.3702
 20
2.4476
 30
0.0
  0
SPLINE
  5
8B
330
1F
100
AcDbEntity
  8
AXIS
100
AcDbSpline
210
0.0
220
0.0
230
1.0
 70
     8
 71
     3
 72
    12
 73
     8
 74
     0
 42
0.0000000001
 43
0.0000000001
 40
0.0
 40
0.0
 40
0.0
 40
0.0
 40
0.3333333333333333
 40
0.3333333333333333
 40
0.3333333333333333
 40
0.3333333333333333
 40
1.0
 40
1.0
 40
1.0
 40
1.0
 10
23.3702
 20
2.4476
 30
0.0
 10
23.3704
 20
2.4251
 30
0.0
 10
23.3861
 20
2.4124
 30
0.0
 10
23.4059
 20
2.4065
 30
0.0
 10
23.4059
 20
2.4065
 30
0.0
 10
23.4307
 20
2.4065
 30
0.0
 10
23.4534
 20
2.4197
 30
0.0
 10
23.4536
 20
2.4476
 30
0.0
  0
SPLINE
  5
8C
330
1F
100
AcDbEntity
  8
AXIS
100
AcDbSpline
210
0.0
220
0.0
230
1.0
 70
    24
 71
     3
 72
     8
 73
     4
 74
     0
 42
0.0000000001
 43
0.0000000001
 40
0.0
 40
0.0
 40
0.0
 40
0.0
 40
1.0
 40
1.0
 40
1.0
 40
1.0
 10
23.4536
 20
2.4476
 30
0.0
 10
23.4536
 20
2.4476
 30
0.0
 10
23.4536
 20
2.7805
 30
0.0
 10
23.4536
 20
2.7805
 30
0.0
  0
SPLINE
  5
8D
330
1F
100
AcDbEntity
  8
AXIS
100
AcDbSpline
210
0.0
220
0.0
230
1.0
 70
    24
 71
     3
 72
     8
 73
     4
 74
     0
 42
0.0000000001
 43
0.0000000001
 40
0.0
 40
0.0
 40
0.0
 40
0.0
 40
1.0
 40
1.0
 40
1.0
 40
1.0
 10
23.1051
 20
3.2399
 30
0.0
 10
23.1051
 20
3.2399
 30
0.0
 10
22.814
 20
3.4081
 30
0.0
 10
22.814
 20
3.4081
 30
0.0
  0
SPLINE
  5
8E
330
1F
100
AcDbEntity
  8
AXIS
100
AcDbSpline
210
0.0
220
0.0
230
1.0
 70
     8
 71
     3
 72
     8
 73
     4
 74
     0
 42
0.0000000001
 43
0.0000000001
 40
0.0
 40
0.0
 40
0.0
 40
0.0
 40
1.0
 40
1.0
 40
1.0
 40
1.0
 10
23.0822
 20
3.0874
 30
0.0
 10
23.0822
 20
3.0586
 30
0.0
 10
23.0801
 20
3.0725
 30
0.0
 10
23.0876
 20
3.0455
 30
0.0
  0
SPLINE
  5
8F
330
1F
100
AcDbEntity
  8
AXIS
100
AcDbSpline
210
0.0
220
0.0
230
1.0
 70
     8
 71
     3
 72
     8
 73
     4
 74
     0
 42
0.0000000001
 43
0.0000000001
 40
0.0
 40
0.0
 40
0.0
 40
0.0
 40
1.0
 40
1.0
 40
1.0
 40
1.0
 10
22.8091
 20
2.8096
 30
0.0
 10
22.7849
 20
2.7789
 30
0.0
 10
22.7989
 20
2.7436
 30
0.0
 10
22.8374
 20
2.7376
 30
0.0
  0
SPLINE
  5
90
330
1F
100
AcDbEntity
  8
AXIS
100
AcDbSpline
210
0.0
220
0.0
230
1.0
 70
    24
 71
     3
 72
     8
 73
     4
 74
     0
 42
0.0000000001
 43
0.0000000001
 40
0.0
 40
0.0
 40
0.0
 40
0.0
 40
1.0
 40
1.0
 40
1.0
 40
1.0
 10
22.8374
 20
2.7376
 30
0.0
 10
22.8374
 20
2.7376
 30
0.0
 10
22.8497
 20
2.7394
 30
0.0
 10
22.8497
 20
2.7394
 30
0.0
  0
SPLINE
  5
91
330
1F
100
AcDbEntity
  8
AXIS
100
AcDbSpline
210
0.0
220
0.0
230
1.0
 70
     8
 71
     3
 72
     8
 73
     4
 74
     0
 42
0.0000000001
 43
0.0000000001
 40
0.0
 40
0.0
 40
0.0
 40
0.0
 40
1.0
 40
1.0
 40
1.0
 40
1.0
 10
23.1931
 20
2.8628
 30
0.0
 10
23.213
 20
2.8426
 30
0.0
 10
23.2017
 20
2.8513
 30
0.0
 10
23.2267
 20
2.8368
 30
0.0
  0
SPLINE
  5
92
330
1F
100
AcDbEntity
  8
AXIS
100
AcDbSpline
210
0.0
220
0.0
230
1.0
 70
     8
 71
     3
 72
     8
 73
     4
 74
     0
 42
0.0000000001
 43
0.0000000001
 40
0.0
 40
0.0
 40
0.0
 40
0.0
 40
1.0
 40
1.0
 40
1.0
 40
1.0
 10
23.2267
 20
3.3848
 30
0.0
 10
23.2018
 20
3.3703
 30
0.0
 10
23.213
 20
3.3789
 30
0.0
 10
23.1931
 20
3.359
 30
0.0
  0
SPLINE
  5
93
330
1F
100
AcDbEntity
  8
AXIS
100
AcDbSpline
210
0.0
220
0.0
230
1.0
 70
     8
 71
     3
 72
     8
 73
     4
 74
     0
 42
0.0000000001
 43
0.0000000001
 40
0.0
 40
0.0
 40
0.0
 40
0.0
 40
1.0
 40
1.0
 40
1.0
 40
1.0
 10
23.6307
 20
2.8628
 30
0.0
 10
23.611
 20
2.8426
 30
0.0
 10
23.6221
 20
2.8513
 30
0.0
 10
23.5972
 20
2.8368
 30
0.0
  0
SPLINE
  5
94
330
1F
100
AcDbEntity
  8
AXIS
100
AcDbSpline
210
0.0
220
0.0
230
1.0
 70
     8
 71
     3
 72
     8
 73
     4
 74
     0
 42
0.0000000001
 43
0.0000000001
 40
0.0
 40
0.0
 40
0.0
 40
0.0
 40
1.0
 40
1.0
 40
1.0
 40
1.0
 10
23.2674
 20
2.8134
 30
0.0
 10
23.2923
 20
2.7991
 30
0.0
 10
23.2793
 20
2.8044
 30
0.0
 10
23.3064
 20
2.7973
 30
0.0
  0
SPLINE
  5
95
330
1F
100
AcDbEntity
  8
AXIS
100
AcDbSpline
210
0.0
220
0.0
230
1.0
 70
     8
 71
     3
 72
     8
 73
     4
 74
     0
 42
0.0000000001
 43
0.0000000001
 40
0.0
 40
0.0
 40
0.0
 40
0.0
 40
1.0
 40
1.0
 40
1.0
 40
1.0
 10
23.5174
 20
3.4245
 30
0.0
 10
23.5447
 20
3.4174
 30
0.0
 10
23.5316
 20
3.4226
 30
0.0
 10
23.5566
 20
3.4083
 30
0.0
  0
SPLINE
  5
96
330
1F
100
AcDbEntity
  8
AXIS
100
AcDbSpline
210
0.0
220
0.0
230
1.0
 70
     8
 71
     3
 72
     8
 73
     4
 74
     0
 42
0.0000000001
 43
0.0000000001
 40
0.0
 40
0.0
 40
0.0
 40
0.0
 40
1.0
 40
1.0
 40
1.0
 40
1.0
 10
23.7419
 20
3.1344
 30
0.0
 10
23.7419
 20
3.1631
 30
0.0
 10
23.7437
 20
3.1491
 30
0.0
 10
23.7363
 20
3.1763
 30
0.0
  0
SPLINE
  5
97
330
1F
100
AcDbEntity
  8
AXIS
100
AcDbSpline
210
0.0
220
0.0
230
1.0
 70
     8
 71
     3
 72
     8
 73
     4
 74
     0
 42
0.0000000001
 43
0.0000000001
 40
0.0
 40
0.0
 40
0.0
 40
0.0
 40
1.0
 40
1.0
 40
1.0
 40
1.0
 10
23.2674
 20
3.4083
 30
0.0
 10
23.2923
 20
3.4226
 30
0.0
 10
23.2791
 20
3.4172
 30
0.0
 10
23.3064
 20
3.4245
 30
0.0
  0
SPLINE
  5
98
330
1F
100
AcDbEntity
  8
AXIS
100
AcDbSpline
210
0.0
220
0.0
230
1.0
 70
    24
 71
     3
 72
     8
 73
     4
 74
     0
 42
0.0000000001
 43
0.0000000001
 40
0.0
 40
0.0
 40
0.0
 40
0.0
 40
1.0
 40
1.0
 40
1.0
 40
1.0
 10
23.1467
 20
3.3121
 30
0.0
 10
23.1467
 20
3.3121
 30
0.0
 10
22.8555
 20
3.4799
 30
0.0
 10
22.8555
 20
3.4799
 30
0.0
  0
SPLINE
  5
99
330
1F
100
AcDbEntity
  8
AXIS
100
AcDbSpline
210
0.0
220
0.0
230
1.0
 70
     8
 71
     3
 72
     8
 73
     4
 74
     0
 42
0.0000000001
 43
0.0000000001
 40
0.0
 40
0.0
 40
0.0
 40
0.0
 40
1.0
 40
1.0
 40
1.0
 40
1.0
 10
23.0876
 20
3.1763
 30
0.0
 10
23.0801
 20
3.1491
 30
0.0
 10
23.0822
 20
3.1631
 30
0.0
 10
23.0822
 20
3.1344
 30
0.0
  0
SPLINE
  5
9A
330
1F
100
AcDbEntity
  8
AXIS
100
AcDbSpline
210
0.0
220
0.0
230
1.0
 70
     8
 71
     3
 72
     8
 73
     4
 74
     0
 42
0.0000000001
 43
0.0000000001
 40
0.0
 40
0.0
 40
0.0
 40
0.0
 40
1.0
 40
1.0
 40
1.0
 40
1.0
 10
23.7363
 20
3.0455
 30
0.0
 10
23.7437
 20
3.0725
 30
0.0
 10
23.7419
 20
3.0586
 30
0.0
 10
23.7419
 20
3.0874
 30
0.0
  0
SPLINE
  5
9B
330
1F
100
AcDbEntity
  8
AXIS
100
AcDbSpline
210
0.0
220
0.0
230
1.0
 70
     8
 71
     3
 72
     8
 73
     4
 74
     0
 42
0.0000000001
 43
0.0000000001
 40
0.0
 40
0.0
 40
0.0
 40
0.0
 40
1.0
 40
1.0
 40
1.0
 40
1.0
 10
23.6307
 20
3.359
 30
0.0
 10
23.611
 20
3.3789
 30
0.0
 10
23.6221
 20
3.3705
 30
0.0
 10
23.5972
 20
3.3848
 30
0.0
  0
SPLINE
  5
9C
330
1F
100
AcDbEntity
  8
AXIS
100
AcDbSpline
210
0.0
220
0.0
230
1.0
 70
     8
 71
     3
 72
     8
 73
     4
 74
     0
 42
0.0000000001
 43
0.0000000001
 40
0.0
 40
0.0
 40
0.0
 40
0.0
 40
1.0
 40
1.0
 40
1.0
 40
1.0
 10
23.4525
 20
2.4381
 30
0.0
 10
23.6556
 20
2.4741
 30
0.0
 10
23.5581
 20
2.4447
 30
0.0
 10
23.7449
 20
2.5254
 30
0.0
  0
SPLINE
  5
9D
330
1F
100
AcDbEntity
  8
AXIS
100
AcDbSpline
210
0.0
220
0.0
230
1.0
 70
     8
 71
     3
 72
     8
 73
     4
 74
     0
 42
0.0000000001
 43
0.0000000001
 40
0.0
 40
0.0
 40
0.0
 40
0.0
 40
1.0
 40
1.0
 40
1.0
 40
1.0
 10
23.3714
 20
2.4381
 30
0.0
 10
23.2086
 20
2.4671
 30
0.0
 10
23.0747
 20
2.5028
 30
0.0
 10
22.95
 20
2.6202
 30
0.0
  0
SPLINE
  5
9E
330
1F
100
AcDbEntity
  8
AXIS
100
AcDbSpline
210
0.0
220
0.0
230
1.0
 70
    24
 71
     3
 72
     8
 73
     4
 74
     0
 42
0.0000000001
 43
0.0000000001
 40
0.0
 40
0.0
 40
0.0
 40
0.0
 40
1.0
 40
1.0
 40
1.0
 40
1.0
 10
22.95
 20
2.6202
 30
0.0
 10
22.95
 20
2.6202
 30
0.0
 10
22.8497
 20
2.7394
 30
0.0
 10
22.8497
 20
2.7394
 30
0.0
  0
SPLINE
  5
9F
330
1F
100
AcDbEntity
  8
AXIS
100
AcDbSpline
210
0.0
220
0.0
230
1.0
 70
     8
 71
     3
 72
     8
 73
     4
 74
     0
 42
0.0000000001
 43
0.0000000001
 40
0.0
 40
0.0
 40
0.0
 40
0.0
 40
1.0
 40
1.0
 40
1.0
 40
1.0
 10
22.8091
 20
3.412
 30
0.0
 10
22.7527
 20
3.2566
 30
0.0
 10
22.7167
 20
3.1228
 30
0.0
 10
22.7561
 20
2.956
 30
0.0
  0
SPLINE
  5
A0
330
1F
100
AcDbEntity
  8
AXIS
100
AcDbSpline
210
0.0
220
0.0
230
1.0
 70
    24
 71
     3
 72
     8
 73
     4
 74
     0
 42
0.0000000001
 43
0.0000000001
 40
0.0
 40
0.0
 40
0.0
 40
0.0
 40
1.0
 40
1.0
 40
1.0
 40
1.0
 10
22.7561
 20
2.956
 30
0.0
 10
22.7561
 20
2.956
 30
0.0
 10
22.8091
 20
2.8096
 30
0.0
 10
22.8091
 20
2.8096
 30
0.0
  0
SPLINE
  5
A1
330
1F
100
AcDbEntity
  8
AXIS
100
AcDbSpline
210
0.0
220
0.0
230
1.0
 70
    24
 71
     3
 72
     8
 73
     4
 74
     0
 42
0.0000000001
 43
0.0000000001
 40
0.0
 40
0.0
 40
0.0
 40
0.0
 40
1.0
 40
1.0
 40
1.0
 40
1.0
 10
23.3714
 20
3.7837
 30
0.0
 10
23.3714
 20
3.7837
 30
0.0
 10
23.2181
 20
3.7563
 30
0.0
 10
23.2181
 20
3.7563
 30
0.0
  0
SPLINE
  5
A2
330
1F
100
AcDbEntity
  8
AXIS
100
AcDbSpline
210
0.0
220
0.0
230
1.0
 70
     8
 71
     3
 72
     8
 73
     4
 74
     0
 42
0.0000000001
 43
0.0000000001
 40
0.0
 40
0.0
 40
0.0
 40
0.0
 40
1.0
 40
1.0
 40
1.0
 40
1.0
 10
23.2181
 20
3.7563
 30
0.0
 10
23.054
 20
3.707
 30
0.0
 10
22.9562
 20
3.6089
 30
0.0
 10
22.8497
 20
3.4823
 30
0.0
  0
SPLINE
  5
A3
330
1F
100
AcDbEntity
  8
AXIS
100
AcDbSpline
210
0.0
220
0.0
230
1.0
 70
     8
 71
     3
 72
     8
 73
     4
 74
     0
 42
0.0000000001
 43
0.0000000001
 40
0.0
 40
0.0
 40
0.0
 40
0.0
 40
1.0
 40
1.0
 40
1.0
 40
1.0
 10
23.4525
 20
3.7837
 30
0.0
 10
23.6556
 20
3.7474
 30
0.0
 10
23.5581
 20
3.7769
 30
0.0
 10
23.7449
 20
3.6963
 30
0.0
  0
SPLINE
  5
A4
330
1F
100
AcDbEntity
  8
AXIS
100
AcDbSpline
210
0.0
220
0.0
230
1.0
 70
    24
 71
     3
 72
     8
 73
     4
 74
     0
 42
0.0000000001
 43
0.0000000001
 40
0.0
 40
0.0
 40
0.0
 40
0.0
 40
1.0
 40
1.0
 40
1.0
 40
1.0
 10
23.4525
 20
2.4381
 30
0.0
 10
23.4525
 20
2.4381
 30
0.0
 10
23.4534
 20
2.4445
 30
0.0
 10
23.4534
 20
2.4445
 30
0.0
  0
SPLINE
  5
A5
330
1F
100
AcDbEntity
  8
AXIS
100
AcDbSpline
210
0.0
220
0.0
230
1.0
 70
     8
 71
     3
 72
     8
 73
     4
 74
     0
 42
0.0000000001
 43
0.0000000001
 40
0.0
 40
0.0
 40
0.0
 40
0.0
 40
1.0
 40
1.0
 40
1.0
 40
1.0
 10
23.3702
 20
2.7487
 30
0.0
 10
23.257
 20
2.7778
 30
0.0
 10
23.2009
 20
2.8101
 30
0.0
 10
23.1191
 20
2.8937
 30
0.0
  0
SPLINE
  5
A6
330
1F
100
AcDbEntity
  8
AXIS
100
AcDbSpline
210
0.0
220
0.0
230
1.0
 70
     8
 71
     3
 72
     8
 73
     4
 74
     0
 42
0.0000000001
 43
0.0000000001
 40
0.0
 40
0.0
 40
0.0
 40
0.0
 40
1.0
 40
1.0
 40
1.0
 40
1.0
 10
23.3702
 20
3.473
 30
0.0
 10
23.257
 20
3.4439
 30
0.0
 10
23.2009
 20
3.4116
 30
0.0
 10
23.1191
 20
3.328
 30
0.0
  0
SPLINE
  5
A7
330
1F
100
AcDbEntity
  8
AXIS
100
AcDbSpline
210
0.0
220
0.0
230
1.0
 70
    24
 71
     3
 72
     8
 73
     4
 74
     0
 42
0.0000000001
 43
0.0000000001
 40
0.0
 40
0.0
 40
0.0
 40
0.0
 40
1.0
 40
1.0
 40
1.0
 40
1.0
 10
22.814
 20
3.4081
 30
0.0
 10
22.814
 20
3.4081
 30
0.0
 10
22.8091
 20
3.412
 30
0.0
 10
22.8091
 20
3.412
 30
0.0
  0
SPLINE
  5
A8
330
1F
100
AcDbEntity
  8
AXIS
100
AcDbSpline
210
0.0
220
0.0
230
1.0
 70
     8
 71
     3
 72
     8
 73
     4
 74
     0
 42
0.0000000001
 43
0.0000000001
 40
0.0
 40
0.0
 40
0.0
 40
0.0
 40
1.0
 40
1.0
 40
1.0
 40
1.0
 10
23.0775
 20
2.9658
 30
0.0
 10
23.046
 20
3.0785
 30
0.0
 10
23.046
 20
3.1432
 30
0.0
 10
23.0775
 20
3.2558
 30
0.0
  0
SPLINE
  5
A9
330
1F
100
AcDbEntity
  8
AXIS
100
AcDbSpline
210
0.0
220
0.0
230
1.0
 70
     8
 71
     3
 72
     8
 73
     4
 74
     0
 42
0.0000000001
 43
0.0000000001
 40
0.0
 40
0.0
 40
0.0
 40
0.0
 40
1.0
 40
1.0
 40
1.0
 40
1.0
 10
23.4536
 20
3.473
 30
0.0
 10
23.5669
 20
3.4439
 30
0.0
 10
23.623
 20
3.4116
 30
0.0
 10
23.7048
 20
3.328
 30
0.0
  0
SPLINE
  5
AA
330
1F
100
AcDbEntity
  8
AXIS
100
AcDbSpline
210
0.0
220
0.0
230
1.0
 70
     8
 71
     3
 72
     8
 73
     4
 74
     0
 42
0.0000000001
 43
0.0000000001
 40
0.0
 40
0.0
 40
0.0
 40
0.0
 40
1.0
 40
1.0
 40
1.0
 40
1.0
 10
23.7048
 20
2.8937
 30
0.0
 10
23.623
 20
2.8101
 30
0.0
 10
23.5669
 20
2.7778
 30
0.0
 10
23.4536
 20
2.7487
 30
0.0
  0
SPLINE
  5
AB
330
1F
100
AcDbEntity
  8
AXIS
100
AcDbSpline
210
0.0
220
0.0
230
1.0
 70
    24
 71
     3
 72
     8
 73
     4
 74
     0
 42
0.0000000001
 43
0.0000000001
 40
0.0
 40
0.0
 40
0.0
 40
0.0
 40
1.0
 40
1.0
 40
1.0
 40
1.0
 10
23.3714
 20
2.4381
 30
0.0
 10
23.3714
 20
2.4381
 30
0.0
 10
23.3705
 20
2.4445
 30
0.0
 10
23.3705
 20
2.4445
 30
0.0
  0
SPLINE
  5
AC
330
1F
100
AcDbEntity
  8
AXIS
100
AcDbSpline
210
0.0
220
0.0
230
1.0
 70
    24
 71
     3
 72
     8
 73
     4
 74
     0
 42
0.0000000001
 43
0.0000000001
 40
0.0
 40
0.0
 40
0.0
 40
0.0
 40
1.0
 40
1.0
 40
1.0
 40
1.0
 10
23.4525
 20
3.7837
 30
0.0
 10
23.4525
 20
3.7837
 30
0.0
 10
23.4534
 20
3.7772
 30
0.0
 10
23.4534
 20
3.7772
 30
0.0
  0
SPLINE
  5
AD
330
1F
100
AcDbEntity
  8
AXIS
100
AcDbSpline
210
0.0
220
0.0
230
1.0
 70
    24
 71
     3
 72
     8
 73
     4
 74
     0
 42
0.0000000001
 43
0.0000000001
 40
0.0
 40
0.0
 40
0.0
 40
0.0
 40
1.0
 40
1.0
 40
1.0
 40
1.0
 10
23.3714
 20
3.7837
 30
0.0
 10
23.3714
 20
3.7837
 30
0.0
 10
23.3705
 20
3.7772
 30
0.0
 10
23.3705
 20
3.7772
 30
0.0
  0
SPLINE
  5
AE
330
1F
100
AcDbEntity
  8
AXIS
100
AcDbSpline
210
0.0
220
0.0
230
1.0
 70
    24
 71
     3
 72
     8
 73
     4
 74
     0
 42
0.0000000001
 43
0.0000000001
 40
0.0
 40
0.0
 40
0.0
 40
0.0
 40
1.0
 40
1.0
 40
1.0
 40
1.0
 10
22.814
 20
2.8135
 30
0.0
 10
22.814
 20
2.8135
 30
0.0
 10
22.8091
 20
2.8096
 30
0.0
 10
22.8091
 20
2.8096
 30
0.0
  0
SPLINE
  5
AF
330
1F
100
AcDbEntity
  8
AXIS
100
AcDbSpline
210
0.0
220
0.0
230
1.0
 70
    24
 71
     3
 72
     8
 73
     4
 74
     0
 42
0.0000000001
 43
0.0000000001
 40
0.0
 40
0.0
 40
0.0
 40
0.0
 40
1.0
 40
1.0
 40
1.0
 40
1.0
 10
22.8555
 20
2.7418
 30
0.0
 10
22.8555
 20
2.7418
 30
0.0
 10
22.8497
 20
2.7394
 30
0.0
 10
22.8497
 20
2.7394
 30
0.0
  0
SPLINE
  5
B0
330
1F
100
AcDbEntity
  8
AXIS
100
AcDbSpline
210
0.0
220
0.0
230
1.0
 70
    24
 71
     3
 72
     8
 73
     4
 74
     0
 42
0.0000000001
 43
0.0000000001
 40
0.0
 40
0.0
 40
0.0
 40
0.0
 40
1.0
 40
1.0
 40
1.0
 40
1.0
 10
22.8555
 20
3.4799
 30
0.0
 10
22.8555
 20
3.4799
 30
0.0
 10
22.8497
 20
3.4823
 30
0.0
 10
22.8497
 20
3.4823
 30
0.0
  0
SPLINE
  5
B1
330
1F
100
AcDbEntity
  8
AXIS
100
AcDbSpline
210
0.0
220
0.0
230
1.0
 70
    24
 71
     3
 72
     8
 73
     4
 74
     0
 42
0.0000000001
 43
0.0000000001
 40
0.0
 40
0.0
 40
0.0
 40
0.0
 40
1.0
 40
1.0
 40
1.0
 40
1.0
 10
22.7461
 20
5.4747
 30
0.0
 10
22.7461
 20
5.4747
 30
0.0
 10
23.7449
 20
5.4747
 30
0.0
 10
23.7449
 20
5.4747
 30
0.0
  0
SPLINE
  5
B2
330
1F
100
AcDbEntity
  8
AXIS
100
AcDbSpline
210
0.0
220
0.0
230
1.0
 70
    24
 71
     3
 72
     8
 73
     4
 74
     0
 42
0.0000000001
 43
0.0000000001
 40
0.0
 40
0.0
 40
0.0
 40
0.0
 40
1.0
 40
1.0
 40
1.0
 40
1.0
 10
23.7449
 20
5.3083
 30
0.0
 10
23.7449
 20
5.3083
 30
0.0
 10
22.7461
 20
5.3083
 30
0.0
 10
22.7461
 20
5.3083
 30
0.0
  0
SPLINE
  5
B3
330
1F
100
AcDbEntity
  8
AXIS
100
AcDbSpline
210
0.0
220
0.0
230
1.0
 70
    24
 71
     3
 72
     8
 73
     4
 74
     0
 42
0.0000000001
 43
0.0000000001
 40
0.0
 40
0.0
 40
0.0
 40
0.0
 40
1.0
 40
1.0
 40
1.0
 40
1.0
 10
22.7461
 20
5.4747
 30
0.0
 10
22.7461
 20
5.4747
 30
0.0
 10
22.7461
 20
5.3083
 30
0.0
 10
22.7461
 20
5.3083
 30
0.0
  0
SPLINE
  5
B4
330
1F
100
AcDbEntity
  8
AXIS
100
AcDbSpline
210
0.0
220
0.0
230
1.0
 70
    24
 71
     3
 72
     8
 73
     4
 74
     0
 42
0.0000000001
 43
0.0000000001
 40
0.0
 40
0.0
 40
0.0
 40
0.0
 40
1.0
 40
1.0
 40
1.0
 40
1.0
 10
23.2455
 20
5.4747
 30
0.0
 10
23.2455
 20
5.4747
 30
0.0
 10
23.2455
 20
5.3083
 30
0.0
 10
23.2455
 20
5.3083
 30
0.0
  0
SPLINE
  5
B5
330
1F
100
AcDbEntity
  8
AXIS
100
AcDbSpline
210
0.0
220
0.0
230
1.0
 70
    24
 71
     3
 72
     8
 73
     4
 74
     0
 42
0.0000000001
 43
0.0000000001
 40
0.0
 40
0.0
 40
0.0
 40
0.0
 40
1.0
 40
1.0
 40
1.0
 40
1.0
 10
22.7461
 20
-10.6725
 30
0.0
 10
22.7461
 20
-10.6725
 30
0.0
 10
23.7449
 20
-10.6725
 30
0.0
 10
23.7449
 20
-10.6725
 30
0.0
  0
SPLINE
  5
B6
330
1F
100
AcDbEntity
  8
AXIS
100
AcDbSpline
210
0.0
220
0.0
230
1.0
 70
    24
 71
     3
 72
     8
 73
     4
 74
     0
 42
0.0000000001
 43
0.0000000001
 40
0.0
 40
0.0
 40
0.0
 40
0.0
 40
1.0
 40
1.0
 40
1.0
 40
1.0
 10
23.7449
 20
-11.0886
 30
0.0
 10
23.7449
 20
-11.0886
 30
0.0
 10
23.3025
 20
-11.0886
 30
0.0
 10
23.3025
 20
-11.0886
 30
0.0
  0
SPLINE
  5
B7
330
1F
100
AcDbEntity
  8
AXIS
100
AcDbSpline
210
0.0
220
0.0
230
1.0
 70
    24
 71
     3
 72
     8
 73
     4
 74
     0
 42
0.0000000001
 43
0.0000000001
 40
0.0
 40
0.0
 40
0.0
 40
0.0
 40
1.0
 40
1.0
 40
1.0
 40
1.0
 10
22.7461
 20
-10.8389
 30
0.0
 10
22.7461
 20
-10.8389
 30
0.0
 10
23.7449
 20
-10.8389
 30
0.0
 10
23.7449
 20
-10.8389
 30
0.0
  0
SPLINE
  5
B8
330
1F
100
AcDbEntity
  8
AXIS
100
AcDbSpline
210
0.0
220
0.0
230
1.0
 70
    24
 71
     3
 72
     8
 73
     4
 74
     0
 42
0.0000000001
 43
0.0000000001
 40
0.0
 40
0.0
 40
0.0
 40
0.0
 40
1.0
 40
1.0
 40
1.0
 40
1.0
 10
22.7461
 20
-10.8389
 30
0.0
 10
22.7461
 20
-10.8389
 30
0.0
 10
22.7461
 20
-10.6725
 30
0.0
 10
22.7461
 20
-10.6725
 30
0.0
  0
SPLINE
  5
B9
330
1F
100
AcDbEntity
  8
AXIS
100
AcDbSpline
210
0.0
220
0.0
230
1.0
 70
    24
 71
     3
 72
     8
 73
     4
 74
     0
 42
0.0000000001
 43
0.0000000001
 40
0.0
 40
0.0
 40
0.0
 40
0.0
 40
1.0
 40
1.0
 40
1.0
 40
1.0
 10
22.9126
 20
-10.6725
 30
0.0
 10
22.9126
 20
-10.6725
 30
0.0
 10
22.9126
 20
-10.8389
 30
0.0
 10
22.9126
 20
-10.8389
 30
0.0
  0
SPLINE
  5
BA
330
1F
100
AcDbEntity
  8
AXIS
100
AcDbSpline
210
0.0
220
0.0
230
1.0
 70
    24
 71
     3
 72
     8
 73
     4
 74
     0
 42
0.0000000001
 43
0.0000000001
 40
0.0
 40
0.0
 40
0.0
 40
0.0
 40
1.0
 40
1.0
 40
1.0
 40
1.0
 10
23.1017
 20
-10.8877
 30
0.0
 10
23.1017
 20
-10.8877
 30
0.0
 10
23.7449
 20
-10.8877
 30
0.0
 10
23.7449
 20
-10.8877
 30
0.0
  0
SPLINE
  5
BB
330
1F
100
AcDbEntity
  8
AXIS
100
AcDbSpline
210
0.0
220
0.0
230
1.0
 70
    24
 71
     3
 72
     8
 73
     4
 74
     0
 42
0.0000000001
 43
0.0000000001
 40
0.0
 40
0.0
 40
0.0
 40
0.0
 40
1.0
 40
1.0
 40
1.0
 40
1.0
 10
23.7449
 20
-16.4156
 30
0.0
 10
23.7449
 20
-16.4156
 30
0.0
 10
23.7449
 20
11.0513
 30
0.0
 10
23.7449
 20
11.0513
 30
0.0
  0
SPLINE
  5
BC
330
1F
100
AcDbEntity
  8
AXIS
100
AcDbSpline
210
0.0
220
0.0
230
1.0
 70
     8
 71
     3
 72
     8
 73
     4
 74
     0
 42
0.0000000001
 43
0.0000000001
 40
0.0
 40
0.0
 40
0.0
 40
0.0
 40
1.0
 40
1.0
 40
1.0
 40
1.0
 10
22.9839
 20
-10.8389
 30
0.0
 10
23.1207
 20
-10.8449
 30
0.0
 10
23.2285
 20
-11.0146
 30
0.0
 10
23.3025
 20
-11.0886
 30
0.0
  0
SPLINE
  5
BD
330
1F
100
AcDbEntity
  8
AXIS
100
AcDbSpline
210
0.0
220
0.0
230
1.0
 70
     8
 71
     3
 72
    24
 73
    20
 74
     0
 42
0.0000000001
 43
0.0000000001
 40
0.0
 40
0.0
 40
0.0
 40
0.0
 40
0.1666666666666667
 40
0.1666666666666667
 40
0.1666666666666667
 40
0.1666666666666667
 40
0.3333333333333333
 40
0.3333333333333333
 40
0.3333333333333333
 40
0.3333333333333333
 40
0.5
 40
0.5
 40
0.5
 40
0.5
 40
0.6666666666666666
 40
0.6666666666666666
 40
0.6666666666666666
 40
0.6666666666666666
 40
1.0
 40
1.0
 40
1.0
 40
1.0
 10
23.7449
 20
4.3593
 30
0.0
 10
23.4892
 20
4.3593
 30
0.0
 10
23.2433
 20
4.3745
 30
0.0
 10
22.9997
 20
4.2893
 30
0.0
 10
22.9997
 20
4.2893
 30
0.0
 10
22.4853
 20
4.1093
 30
0.0
 10
22.1402
 20
3.5993
 30
0.0
 10
22.1648
 20
3.0548
 30
0.0
 10
22.1648
 20
3.0548
 30
0.0
 10
22.176
 20
2.8022
 30
0.0
 10
22.2655
 20
2.5557
 30
0.0
 10
22.4187
 20
2.3545
 30
0.0
 10
22.4187
 20
2.3545
 30
0.0
 10
22.5017
 20
2.2454
 30
0.0
 10
22.6104
 20
2.1616
 30
0.0
 10
22.6735
 20
2.0375
 30
0.0
 10
22.6735
 20
2.0375
 30
0.0
 10
22.7743
 20
1.8397
 30
0.0
 10
22.7461
 20
1.6173
 30
0.0
 10
22.7461
 20
1.4023
 30
0.0
  0
SPLINE
  5
BE
330
1F
100
AcDbEntity
  8
AXIS
100
AcDbSpline
210
0.0
220
0.0
230
1.0
 70
    24
 71
     3
 72
     8
 73
     4
 74
     0
 42
0.0000000001
 43
0.0000000001
 40
0.0
 40
0.0
 40
0.0
 40
0.0
 40
1.0
 40
1.0
 40
1.0
 40
1.0
 10
22.7461
 20
1.4023
 30
0.0
 10
22.7461
 20
1.4023
 30
0.0
 10
22.7461
 20
-9.2575
 30
0.0
 10
22.7461
 20
-9.2575
 30
0.0
  0
SPLINE
  5
BF
330
1F
100
AcDbEntity
  8
AXIS
100
AcDbSpline
210
0.0
220
0.0
230
1.0
 70
     8
 71
     3
 72
     8
 73
     4
 74
     0
 42
0.0000000001
 43
0.0000000001
 40
0.0
 40
0.0
 40
0.0
 40
0.0
 40
1.0
 40
1.0
 40
1.0
 40
1.0
 10
22.7461
 20
-9.2575
 30
0.0
 10
22.7461
 20
-9.4202
 30
0.0
 10
22.6715
 20
-9.7065
 30
0.0
 10
22.894
 20
-9.7569
 30
0.0
  0
SPLINE
  5
C0
330
1F
100
AcDbEntity
  8
AXIS
100
AcDbSpline
210
0.0
220
0.0
230
1.0
 70
    24
 71
     3
 72
     8
 73
     4
 74
     0
 42
0.0000000001
 43
0.0000000001
 40
0.0
 40
0.0
 40
0.0
 40
0.0
 40
1.0
 40
1.0
 40
1.0
 40
1.0
 10
22.894
 20
-9.7569
 30
0.0
 10
22.894
 20
-9.7569
 30
0.0
 10
23.7449
 20
-9.7569
 30
0.0
 10
23.7449
 20
-9.7569
 30
0.0
  0
SPLINE
  5
C1
330
1F
100
AcDbEntity
  8
AXIS
100
AcDbSpline
210
0.0
220
0.0
230
1.0
 70
    24
 71
     3
 72
     8
 73
     4
 74
     0
 42
0.0000000001
 43
0.0000000001
 40
0.0
 40
0.0
 40
0.0
 40
0.0
 40
1.0
 40
1.0
 40
1.0
 40
1.0
 10
23.7013
 20
3.2746
 30
0.0
 10
23.7013
 20
3.2746
 30
0.0
 10
23.7192
 20
3.2385
 30
0.0
 10
23.7192
 20
3.2385
 30
0.0
  0
SPLINE
  5
C2
330
1F
100
AcDbEntity
  8
AXIS
100
AcDbSpline
210
0.0
220
0.0
230
1.0
 70
    24
 71
     3
 72
     8
 73
     4
 74
     0
 42
0.0000000001
 43
0.0000000001
 40
0.0
 40
0.0
 40
0.0
 40
0.0
 40
1.0
 40
1.0
 40
1.0
 40
1.0
 10
23.4091
 20
2.7783
 30
0.0
 10
23.4091
 20
2.7783
 30
0.0
 10
23.3689
 20
2.7809
 30
0.0
 10
23.3689
 20
2.7809
 30
0.0
  0
SPLINE
  5
C3
330
1F
100
AcDbEntity
  8
AXIS
100
AcDbSpline
210
0.0
220
0.0
230
1.0
 70
    24
 71
     3
 72
     8
 73
     4
 74
     0
 42
0.0000000001
 43
0.0000000001
 40
0.0
 40
0.0
 40
0.0
 40
0.0
 40
1.0
 40
1.0
 40
1.0
 40
1.0
 10
23.1225
 20
2.947
 30
0.0
 10
23.1225
 20
2.947
 30
0.0
 10
23.1048
 20
2.9832
 30
0.0
 10
23.1048
 20
2.9832
 30
0.0
  0
SPLINE
  5
C4
330
1F
100
AcDbEntity
  8
AXIS
100
AcDbSpline
210
0.0
220
0.0
230
1.0
 70
    24
 71
     3
 72
     8
 73
     4
 74
     0
 42
0.0000000001
 43
0.0000000001
 40
0.0
 40
0.0
 40
0.0
 40
0.0
 40
1.0
 40
1.0
 40
1.0
 40
1.0
 10
23.1477
 20
3.313
 30
0.0
 10
23.1477
 20
3.313
 30
0.0
 10
23.1255
 20
3.2796
 30
0.0
 10
23.1255
 20
3.2796
 30
0.0
  0
SPLINE
  5
C5
330
1F
100
AcDbEntity
  8
AXIS
100
AcDbSpline
210
0.0
220
0.0
230
1.0
 70
    24
 71
     3
 72
     8
 73
     4
 74
     0
 42
0.0000000001
 43
0.0000000001
 40
0.0
 40
0.0
 40
0.0
 40
0.0
 40
1.0
 40
1.0
 40
1.0
 40
1.0
 10
23.4148
 20
2.7783
 30
0.0
 10
23.4148
 20
2.7783
 30
0.0
 10
23.4549
 20
2.7809
 30
0.0
 10
23.4549
 20
2.7809
 30
0.0
  0
SPLINE
  5
C6
330
1F
100
AcDbEntity
  8
AXIS
100
AcDbSpline
210
0.0
220
0.0
230
1.0
 70
    24
 71
     3
 72
     8
 73
     4
 74
     0
 42
0.0000000001
 43
0.0000000001
 40
0.0
 40
0.0
 40
0.0
 40
0.0
 40
1.0
 40
1.0
 40
1.0
 40
1.0
 10
23.6986
 20
2.9421
 30
0.0
 10
23.6986
 20
2.9421
 30
0.0
 10
23.6762
 20
2.9087
 30
0.0
 10
23.6762
 20
2.9087
 30
0.0
  0
SPLINE
  5
C7
330
1F
100
AcDbEntity
  8
AXIS
100
AcDbSpline
210
0.0
220
0.0
230
1.0
 70
    24
 71
     3
 72
     8
 73
     4
 74
     0
 42
0.0000000001
 43
0.0000000001
 40
0.0
 40
0.0
 40
0.0
 40
0.0
 40
1.0
 40
1.0
 40
1.0
 40
1.0
 10
23.6762
 20
3.313
 30
0.0
 10
23.6762
 20
3.313
 30
0.0
 10
23.6986
 20
3.2796
 30
0.0
 10
23.6986
 20
3.2796
 30
0.0
  0
SPLINE
  5
C8
330
1F
100
AcDbEntity
  8
AXIS
100
AcDbSpline
210
0.0
220
0.0
230
1.0
 70
    24
 71
     3
 72
     8
 73
     4
 74
     0
 42
0.0000000001
 43
0.0000000001
 40
0.0
 40
0.0
 40
0.0
 40
0.0
 40
1.0
 40
1.0
 40
1.0
 40
1.0
 10
23.4091
 20
3.4434
 30
0.0
 10
23.4091
 20
3.4434
 30
0.0
 10
23.3691
 20
3.4408
 30
0.0
 10
23.3691
 20
3.4408
 30
0.0
  0
SPLINE
  5
C9
330
1F
100
AcDbEntity
  8
AXIS
100
AcDbSpline
210
0.0
220
0.0
230
1.0
 70
    24
 71
     3
 72
     8
 73
     4
 74
     0
 42
0.0000000001
 43
0.0000000001
 40
0.0
 40
0.0
 40
0.0
 40
0.0
 40
1.0
 40
1.0
 40
1.0
 40
1.0
 10
23.1225
 20
3.2746
 30
0.0
 10
23.1225
 20
3.2746
 30
0.0
 10
23.1048
 20
3.2385
 30
0.0
 10
23.1048
 20
3.2385
 30
0.0
  0
SPLINE
  5
CA
330
1F
100
AcDbEntity
  8
AXIS
100
AcDbSpline
210
0.0
220
0.0
230
1.0
 70
    24
 71
     3
 72
     8
 73
     4
 74
     0
 42
0.0000000001
 43
0.0000000001
 40
0.0
 40
0.0
 40
0.0
 40
0.0
 40
1.0
 40
1.0
 40
1.0
 40
1.0
 10
23.1477
 20
2.9087
 30
0.0
 10
23.1477
 20
2.9087
 30
0.0
 10
23.1255
 20
2.9421
 30
0.0
 10
23.1255
 20
2.9421
 30
0.0
  0
SPLINE
  5
CB
330
1F
100
AcDbEntity
  8
AXIS
100
AcDbSpline
210
0.0
220
0.0
230
1.0
 70
     8
 71
     3
 72
    12
 73
     8
 74
     0
 42
0.0000000001
 43
0.0000000001
 40
0.0
 40
0.0
 40
0.0
 40
0.0
 40
0.3333333333333333
 40
0.3333333333333333
 40
0.3333333333333333
 40
0.3333333333333333
 40
1.0
 40
1.0
 40
1.0
 40
1.0
 10
23.4148
 20
3.4434
 30
0.0
 10
23.4148
 20
3.4434
 30
0.0
 10
23.4277
 20
3.4434
 30
0.0
 10
23.4277
 20
3.4434
 30
0.0
 10
23.4277
 20
3.4434
 30
0.0
 10
23.4277
 20
3.4434
 30
0.0
 10
23.4549
 20
3.4408
 30
0.0
 10
23.4549
 20
3.4408
 30
0.0
  0
SPLINE
  5
CC
330
1F
100
AcDbEntity
  8
AXIS
100
AcDbSpline
210
0.0
220
0.0
230
1.0
 70
    24
 71
     3
 72
     8
 73
     4
 74
     0
 42
0.0000000001
 43
0.0000000001
 40
0.0
 40
0.0
 40
0.0
 40
0.0
 40
1.0
 40
1.0
 40
1.0
 40
1.0
 10
23.7192
 20
2.9832
 30
0.0
 10
23.7192
 20
2.9832
 30
0.0
 10
23.7013
 20
2.947
 30
0.0
 10
23.7013
 20
2.947
 30
0.0
  0
SPLINE
  5
CD
330
1F
100
AcDbEntity
  8
AXIS
100
AcDbSpline
210
0.0
220
0.0
230
1.0
 70
     8
 71
     3
 72
    20
 73
    16
 74
     0
 42
0.0000000001
 43
0.0000000001
 40
0.0
 40
0.0
 40
0.0
 40
0.0
 40
0.2
 40
0.2
 40
0.2
 40
0.2
 40
0.4
 40
0.4
 40
0.4
 40
0.4
 40
0.6
 40
0.6
 40
0.6
 40
0.6
 40
1.0
 40
1.0
 40
1.0
 40
1.0
 10
23.7449
 20
11.0513
 30
0.0
 10
24.1332
 20
11.0513
 30
0.0
 10
24.5218
 20
11.0513
 30
0.0
 10
24.9101
 20
11.0513
 30
0.0
 10
24.9101
 20
11.0513
 30
0.0
 10
24.9692
 20
11.0486
 30
0.0
 10
25.0251
 20
11.0416
 30
0.0
 10
25.081
 20
11.0212
 30
0.0
 10
25.081
 20
11.0212
 30
0.0
 10
25.1219
 20
11.0062
 30
0.0
 10
25.1608
 20
10.9859
 30
0.0
 10
25.1966
 20
10.9609
 30
0.0
 10
25.1966
 20
10.9609
 30
0.0
 10
25.4494
 20
10.7839
 30
0.0
 10
25.4095
 20
10.494
 30
0.0
 10
25.4095
 20
10.2189
 30
0.0
  0
SPLINE
  5
CE
330
1F
100
AcDbEntity
  8
AXIS
100
AcDbSpline
210
0.0
220
0.0
230
1.0
 70
    24
 71
     3
 72
     8
 73
     4
 74
     0
 42
0.0000000001
 43
0.0000000001
 40
0.0
 40
0.0
 40
0.0
 40
0.0
 40
1.0
 40
1.0
 40
1.0
 40
1.0
 10
25.4095
 20
10.2189
 30
0.0
 10
25.4095
 20
10.2189
 30
0.0
 10
25.4095
 20
-15.5832
 30
0.0
 10
25.4095
 20
-15.5832
 30
0.0
  0
SPLINE
  5
CF
330
1F
100
AcDbEntity
  8
AXIS
100
AcDbSpline
210
0.0
220
0.0
230
1.0
 70
     8
 71
     3
 72
    16
 73
    12
 74
     0
 42
0.0000000001
 43
0.0000000001
 40
0.0
 40
0.0
 40
0.0
 40
0.0
 40
0.25
 40
0.25
 40
0.25
 40
0.25
 40
0.5
 40
0.5
 40
0.5
 40
0.5
 40
1.0
 40
1.0
 40
1.0
 40
1.0
 10
25.4095
 20
-15.5832
 30
0.0
 10
25.4095
 20
-15.8431
 30
0.0
 10
25.4503
 20
-16.1149
 30
0.0
 10
25.2312
 20
-16.2988
 30
0.0
 10
25.2312
 20
-16.2988
 30
0.0
 10
25.1978
 20
-16.3268
 30
0.0
 10
25.1607
 20
-16.3504
 30
0.0
 10
25.1213
 20
-16.3687
 30
0.0
 10
25.1213
 20
-16.3687
 30
0.0
 10
25.0686
 20
-16.3934
 30
0.0
 10
25.0117
 20
-16.4086
 30
0.0
 10
24.9537
 20
-16.4138
 30
0.0
  0
SPLINE
  5
D0
330
1F
100
AcDbEntity
  8
AXIS
100
AcDbSpline
210
0.0
220
0.0
230
1.0
 70
     8
 71
     3
 72
    20
 73
    16
 74
     0
 42
0.0000000001
 43
0.0000000001
 40
0.0
 40
0.0
 40
0.0
 40
0.0
 40
0.2
 40
0.2
 40
0.2
 40
0.2
 40
0.4
 40
0.4
 40
0.4
 40
0.4
 40
0.6
 40
0.6
 40
0.6
 40
0.6
 40
1.0
 40
1.0
 40
1.0
 40
1.0
 10
24.9537
 20
-16.4138
 30
0.0
 10
24.9537
 20
-16.4138
 30
0.0
 10
24.9101
 20
-16.4156
 30
0.0
 10
24.9101
 20
-16.4156
 30
0.0
 10
24.9101
 20
-16.4156
 30
0.0
 10
24.9101
 20
-16.4156
 30
0.0
 10
24.5771
 20
-16.4156
 30
0.0
 10
24.5771
 20
-16.4156
 30
0.0
 10
24.5771
 20
-16.4156
 30
0.0
 10
24.5771
 20
-16.4156
 30
0.0
 10
24.0779
 20
-16.4156
 30
0.0
 10
24.0779
 20
-16.4156
 30
0.0
 10
24.0779
 20
-16.4156
 30
0.0
 10
24.0779
 20
-16.4156
 30
0.0
 10
23.7449
 20
-16.4156
 30
0.0
 10
23.7449
 20
-16.4156
 30
0.0
  0
SPLINE
  5
D1
330
1F
100
AcDbEntity
  8
AXIS
100
AcDbSpline
210
0.0
220
0.0
230
1.0
 70
    24
 71
     3
 72
     8
 73
     4
 74
     0
 42
0.0000000001
 43
0.0000000001
 40
0.0
 40
0.0
 40
0.0
 40
0.0
 40
1.0
 40
1.0
 40
1.0
 40
1.0
 10
22.5932
 20
-11.4503
 30
0.0
 10
22.5932
 20
-11.4503
 30
0.0
 10
22.757
 20
-11.4213
 30
0.0
 10
22.757
 20
-11.4213
 30
0.0
  0
SPLINE
  5
D2
330
1F
100
AcDbEntity
  8
AXIS
100
AcDbSpline
210
0.0
220
0.0
230
1.0
 70
    24
 71
     3
 72
     8
 73
     4
 74
     0
 42
0.0000000001
 43
0.0000000001
 40
0.0
 40
0.0
 40
0.0
 40
0.0
 40
1.0
 40
1.0
 40
1.0
 40
1.0
 10
22.7137
 20
-11.1755
 30
0.0
 10
22.7137
 20
-11.1755
 30
0.0
 10
22.5497
 20
-11.2044
 30
0.0
 10
22.5497
 20
-11.2044
 30
0.0
  0
SPLINE
  5
D3
330
1F
100
AcDbEntity
  8
AXIS
100
AcDbSpline
210
0.0
220
0.0
230
1.0
 70
    24
 71
     3
 72
     8
 73
     4
 74
     0
 42
0.0000000001
 43
0.0000000001
 40
0.0
 40
0.0
 40
0.0
 40
0.0
 40
1.0
 40
1.0
 40
1.0
 40
1.0
 10
22.8294
 20
-10.2564
 30
0.0
 10
22.8294
 20
-10.2564
 30
0.0
 10
22.8294
 20
-10.4228
 30
0.0
 10
22.8294
 20
-10.4228
 30
0.0
  0
SPLINE
  5
D4
330
1F
100
AcDbEntity
  8
AXIS
100
AcDbSpline
210
0.0
220
0.0
230
1.0
 70
    24
 71
     3
 72
     8
 73
     4
 74
     0
 42
0.0000000001
 43
0.0000000001
 40
0.0
 40
0.0
 40
0.0
 40
0.0
 40
1.0
 40
1.0
 40
1.0
 40
1.0
 10
23.2703
 20
-9.8143
 30
0.0
 10
23.2703
 20
-9.8143
 30
0.0
 10
23.3034
 20
-9.9293
 30
0.0
 10
23.3034
 20
-9.9293
 30
0.0
  0
SPLINE
  5
D5
330
1F
100
AcDbEntity
  8
AXIS
100
AcDbSpline
210
0.0
220
0.0
230
1.0
 70
    24
 71
     3
 72
     8
 73
     4
 74
     0
 42
0.0000000001
 43
0.0000000001
 40
0.0
 40
0.0
 40
0.0
 40
0.0
 40
1.0
 40
1.0
 40
1.0
 40
1.0
 10
22.7794
 20
-10.4228
 30
0.0
 10
22.7794
 20
-10.4228
 30
0.0
 10
22.7794
 20
-10.2564
 30
0.0
 10
22.7794
 20
-10.2564
 30
0.0
  0
SPLINE
  5
D6
330
1F
100
AcDbEntity
  8
AXIS
100
AcDbSpline
210
0.0
220
0.0
230
1.0
 70
    24
 71
     3
 72
    16
 73
    12
 74
     0
 42
0.0000000001
 43
0.0000000001
 40
0.0
 40
0.0
 40
0.0
 40
0.0
 40
0.25
 40
0.25
 40
0.25
 40
0.25
 40
0.5
 40
0.5
 40
0.5
 40
0.5
 40
1.0
 40
1.0
 40
1.0
 40
1.0
 10
23.7449
 20
-10.4228
 30
0.0
 10
23.7449
 20
-10.4228
 30
0.0
 10
23.412
 20
-10.4228
 30
0.0
 10
23.412
 20
-10.4228
 30
0.0
 10
23.412
 20
-10.4228
 30
0.0
 10
23.412
 20
-10.4228
 30
0.0
 10
23.1123
 20
-10.4228
 30
0.0
 10
23.1123
 20
-10.4228
 30
0.0
 10
23.1123
 20
-10.4228
 30
0.0
 10
23.1123
 20
-10.4228
 30
0.0
 10
22.7794
 20
-10.4228
 30
0.0
 10
22.7794
 20
-10.4228
 30
0.0
  0
SPLINE
  5
D7
330
1F
100
AcDbEntity
  8
AXIS
100
AcDbSpline
210
0.0
220
0.0
230
1.0
 70
     8
 71
     3
 72
    12
 73
     8
 74
     0
 42
0.0000000001
 43
0.0000000001
 40
0.0
 40
0.0
 40
0.0
 40
0.0
 40
0.3333333333333333
 40
0.3333333333333333
 40
0.3333333333333333
 40
0.3333333333333333
 40
1.0
 40
1.0
 40
1.0
 40
1.0
 10
22.7794
 20
-10.4228
 30
0.0
 10
22.7551
 20
-10.4229
 30
0.0
 10
22.7311
 20
-10.4282
 30
0.0
 10
22.7091
 20
-10.4384
 30
0.0
 10
22.7091
 20
-10.4384
 30
0.0
 10
22.5248
 20
-10.5243
 30
0.0
 10
22.6536
 20
-10.8351
 30
0.0
 10
22.6733
 20
-10.9461
 30
0.0
  0
SPLINE
  5
D8
330
1F
100
AcDbEntity
  8
AXIS
100
AcDbSpline
210
0.0
220
0.0
230
1.0
 70
     8
 71
     3
 72
    12
 73
     8
 74
     0
 42
0.0000000001
 43
0.0000000001
 40
0.0
 40
0.0
 40
0.0
 40
0.0
 40
0.3333333333333333
 40
0.3333333333333333
 40
0.3333333333333333
 40
0.3333333333333333
 40
1.0
 40
1.0
 40
1.0
 40
1.0
 10
22.6733
 20
-10.9461
 30
0.0
 10
22.6733
 20
-10.9461
 30
0.0
 10
22.6993
 20
-11.0935
 30
0.0
 10
22.6993
 20
-11.0935
 30
0.0
 10
22.6993
 20
-11.0935
 30
0.0
 10
22.6993
 20
-11.0935
 30
0.0
 10
22.757
 20
-11.4213
 30
0.0
 10
22.757
 20
-11.4213
 30
0.0
  0
SPLINE
  5
D9
330
1F
100
AcDbEntity
  8
AXIS
100
AcDbSpline
210
0.0
220
0.0
230
1.0
 70
     8
 71
     3
 72
    16
 73
    12
 74
     0
 42
0.0000000001
 43
0.0000000001
 40
0.0
 40
0.0
 40
0.0
 40
0.0
 40
0.25
 40
0.25
 40
0.25
 40
0.25
 40
0.5
 40
0.5
 40
0.5
 40
0.5
 40
1.0
 40
1.0
 40
1.0
 40
1.0
 10
22.5932
 20
-11.4503
 30
0.0
 10
22.5932
 20
-11.4503
 30
0.0
 10
22.5354
 20
-11.1225
 30
0.0
 10
22.5354
 20
-11.1225
 30
0.0
 10
22.5354
 20
-11.1225
 30
0.0
 10
22.5354
 20
-11.1225
 30
0.0
 10
22.5093
 20
-10.975
 30
0.0
 10
22.5093
 20
-10.975
 30
0.0
 10
22.5093
 20
-10.975
 30
0.0
 10
22.5093
 20
-10.975
 30
0.0
 10
22.4515
 20
-10.6471
 30
0.0
 10
22.4515
 20
-10.6471
 30
0.0
  0
SPLINE
  5
DA
330
1F
100
AcDbEntity
  8
AXIS
100
AcDbSpline
210
0.0
220
0.0
230
1.0
 70
     8
 71
     3
 72
    16
 73
    12
 74
     0
 42
0.0000000001
 43
0.0000000001
 40
0.0
 40
0.0
 40
0.0
 40
0.0
 40
0.25
 40
0.25
 40
0.25
 40
0.25
 40
0.5
 40
0.5
 40
0.5
 40
0.5
 40
1.0
 40
1.0
 40
1.0
 40
1.0
 10
22.4515
 20
-10.6471
 30
0.0
 10
22.445
 20
-10.6089
 30
0.0
 10
22.4448
 20
-10.5698
 30
0.0
 10
22.4515
 20
-10.5314
 30
0.0
 10
22.4515
 20
-10.5314
 30
0.0
 10
22.4582
 20
-10.4934
 30
0.0
 10
22.4717
 20
-10.4564
 30
0.0
 10
22.4911
 20
-10.4229
 30
0.0
 10
22.4911
 20
-10.4229
 30
0.0
 10
22.6189
 20
-10.2012
 30
0.0
 10
22.8993
 20
-10.2564
 30
0.0
 10
23.1123
 20
-10.2564
 30
0.0
  0
SPLINE
  5
DB
330
1F
100
AcDbEntity
  8
AXIS
100
AcDbSpline
210
0.0
220
0.0
230
1.0
 70
    24
 71
     3
 72
    12
 73
     8
 74
     0
 42
0.0000000001
 43
0.0000000001
 40
0.0
 40
0.0
 40
0.0
 40
0.0
 40
0.3333333333333333
 40
0.3333333333333333
 40
0.3333333333333333
 40
0.3333333333333333
 40
1.0
 40
1.0
 40
1.0
 40
1.0
 10
23.1123
 20
-10.2564
 30
0.0
 10
23.1123
 20
-10.2564
 30
0.0
 10
23.412
 20
-10.2564
 30
0.0
 10
23.412
 20
-10.2564
 30
0.0
 10
23.412
 20
-10.2564
 30
0.0
 10
23.412
 20
-10.2564
 30
0.0
 10
23.7449
 20
-10.2564
 30
0.0
 10
23.7449
 20
-10.2564
 30
0.0
  0
SPLINE
  5
DC
330
1F
100
AcDbEntity
  8
AXIS
100
AcDbSpline
210
0.0
220
0.0
230
1.0
 70
     8
 71
     3
 72
    12
 73
     8
 74
     0
 42
0.0000000001
 43
0.0000000001
 40
0.0
 40
0.0
 40
0.0
 40
0.0
 40
0.3333333333333333
 40
0.3333333333333333
 40
0.3333333333333333
 40
0.3333333333333333
 40
1.0
 40
1.0
 40
1.0
 40
1.0
 10
23.2606
 20
-9.7569
 30
0.0
 10
23.272
 20
-9.8284
 30
0.0
 10
23.2874
 20
-9.8986
 30
0.0
 10
23.3179
 20
-9.9647
 30
0.0
 10
23.3179
 20
-9.9647
 30
0.0
 10
23.3992
 20
-10.1402
 30
0.0
 10
23.5632
 20
-10.2215
 30
0.0
 10
23.7449
 20
-10.2556
 30
0.0
  0
SPLINE
  5
DD
330
1F
100
AcDbEntity
  8
AXIS
100
AcDbSpline
210
0.0
220
0.0
230
1.0
 70
    24
 71
     3
 72
     8
 73
     4
 74
     0
 42
0.0000000001
 43
0.0000000001
 40
0.0
 40
0.0
 40
0.0
 40
0.0
 40
1.0
 40
1.0
 40
1.0
 40
1.0
 10
22.6689
 20
-10.2755
 30
0.0
 10
22.6689
 20
-10.2755
 30
0.0
 10
22.6725
 20
-10.274
 30
0.0
 10
22.6725
 20
-10.274
 30
0.0
  0
SPLINE
  5
DE
330
1F
100
AcDbEntity
  8
AXIS
100
AcDbSpline
210
0.0
220
0.0
230
1.0
 70
    24
 71
     3
 72
     8
 73
     4
 74
     0
 42
0.0000000001
 43
0.0000000001
 40
0.0
 40
0.0
 40
0.0
 40
0.0
 40
1.0
 40
1.0
 40
1.0
 40
1.0
 10
22.6646
 20
-10.4693
 30
0.0
 10
22.6646
 20
-10.4693
 30
0.0
 10
22.6721
 20
-10.4623
 30
0.0
 10
22.6721
 20
-10.4623
 30
0.0
  0
SPLINE
  5
DF
330
1F
100
AcDbEntity
  8
AXIS
100
AcDbSpline
210
0.0
220
0.0
230
1.0
 70
    24
 71
     3
 72
     8
 73
     4
 74
     0
 42
0.0000000001
 43
0.0000000001
 40
0.0
 40
0.0
 40
0.0
 40
0.0
 40
1.0
 40
1.0
 40
1.0
 40
1.0
 10
22.6489
 20
-10.4864
 30
0.0
 10
22.6489
 20
-10.4864
 30
0.0
 10
22.6554
 20
-10.4786
 30
0.0
 10
22.6554
 20
-10.4786
 30
0.0
  0
SPLINE
  5
E0
330
1F
100
AcDbEntity
  8
AXIS
100
AcDbSpline
210
0.0
220
0.0
230
1.0
 70
    24
 71
     3
 72
     8
 73
     4
 74
     0
 42
0.0000000001
 43
0.0000000001
 40
0.0
 40
0.0
 40
0.0
 40
0.0
 40
1.0
 40
1.0
 40
1.0
 40
1.0
 10
22.6357
 20
-10.5057
 30
0.0
 10
22.6357
 20
-10.5057
 30
0.0
 10
22.6411
 20
-10.4971
 30
0.0
 10
22.6411
 20
-10.4971
 30
0.0
  0
SPLINE
  5
E1
330
1F
100
AcDbEntity
  8
AXIS
100
AcDbSpline
210
0.0
220
0.0
230
1.0
 70
    24
 71
     3
 72
     8
 73
     4
 74
     0
 42
0.0000000001
 43
0.0000000001
 40
0.0
 40
0.0
 40
0.0
 40
0.0
 40
1.0
 40
1.0
 40
1.0
 40
1.0
 10
23.2689
 20
-9.8055
 30
0.0
 10
23.2689
 20
-9.8055
 30
0.0
 10
23.2659
 20
-9.7907
 30
0.0
 10
23.2659
 20
-9.7907
 30
0.0
  0
SPLINE
  5
E2
330
1F
100
AcDbEntity
  8
AXIS
100
AcDbSpline
210
0.0
220
0.0
230
1.0
 70
    24
 71
     3
 72
     8
 73
     4
 74
     0
 42
0.0000000001
 43
0.0000000001
 40
0.0
 40
0.0
 40
0.0
 40
0.0
 40
1.0
 40
1.0
 40
1.0
 40
1.0
 10
23.4439
 20
-10.1306
 30
0.0
 10
23.4439
 20
-10.1306
 30
0.0
 10
23.4744
 20
-10.154
 30
0.0
 10
23.4744
 20
-10.154
 30
0.0
  0
SPLINE
  5
E3
330
1F
100
AcDbEntity
  8
AXIS
100
AcDbSpline
210
0.0
220
0.0
230
1.0
 70
    24
 71
     3
 72
     8
 73
     4
 74
     0
 42
0.0000000001
 43
0.0000000001
 40
0.0
 40
0.0
 40
0.0
 40
0.0
 40
1.0
 40
1.0
 40
1.0
 40
1.0
 10
23.4148
 20
-10.1042
 30
0.0
 10
23.4148
 20
-10.1042
 30
0.0
 10
23.44
 20
-10.127
 30
0.0
 10
23.44
 20
-10.127
 30
0.0
  0
SPLINE
  5
E4
330
1F
100
AcDbEntity
  8
AXIS
100
AcDbSpline
210
0.0
220
0.0
230
1.0
 70
    24
 71
     3
 72
     8
 73
     4
 74
     0
 42
0.0000000001
 43
0.0000000001
 40
0.0
 40
0.0
 40
0.0
 40
0.0
 40
1.0
 40
1.0
 40
1.0
 40
1.0
 10
23.3525
 20
-10.027
 30
0.0
 10
23.3525
 20
-10.027
 30
0.0
 10
23.3445
 20
-10.0146
 30
0.0
 10
23.3445
 20
-10.0146
 30
0.0
  0
SPLINE
  5
E5
330
1F
100
AcDbEntity
  8
AXIS
100
AcDbSpline
210
0.0
220
0.0
230
1.0
 70
    24
 71
     3
 72
     8
 73
     4
 74
     0
 42
0.0000000001
 43
0.0000000001
 40
0.0
 40
0.0
 40
0.0
 40
0.0
 40
1.0
 40
1.0
 40
1.0
 40
1.0
 10
22.6341
 20
-10.2899
 30
0.0
 10
22.6341
 20
-10.2899
 30
0.0
 10
22.6542
 20
-10.2813
 30
0.0
 10
22.6542
 20
-10.2813
 30
0.0
  0
SPLINE
  5
E6
330
1F
100
AcDbEntity
  8
AXIS
100
AcDbSpline
210
0.0
220
0.0
230
1.0
 70
    24
 71
     3
 72
     8
 73
     4
 74
     0
 42
0.0000000001
 43
0.0000000001
 40
0.0
 40
0.0
 40
0.0
 40
0.0
 40
1.0
 40
1.0
 40
1.0
 40
1.0
 10
22.451
 20
-10.535
 30
0.0
 10
22.451
 20
-10.535
 30
0.0
 10
22.4497
 20
-10.546
 30
0.0
 10
22.4497
 20
-10.546
 30
0.0
  0
SPLINE
  5
E7
330
1F
100
AcDbEntity
  8
AXIS
100
AcDbSpline
210
0.0
220
0.0
230
1.0
 70
    24
 71
     3
 72
     8
 73
     4
 74
     0
 42
0.0000000001
 43
0.0000000001
 40
0.0
 40
0.0
 40
0.0
 40
0.0
 40
1.0
 40
1.0
 40
1.0
 40
1.0
 10
22.6014
 20
-10.3083
 30
0.0
 10
22.6014
 20
-10.3083
 30
0.0
 10
22.6197
 20
-10.2977
 30
0.0
 10
22.6197
 20
-10.2977
 30
0.0
  0
SPLINE
  5
E8
330
1F
100
AcDbEntity
  8
AXIS
100
AcDbSpline
210
0.0
220
0.0
230
1.0
 70
    24
 71
     3
 72
     8
 73
     4
 74
     0
 42
0.0000000001
 43
0.0000000001
 40
0.0
 40
0.0
 40
0.0
 40
0.0
 40
1.0
 40
1.0
 40
1.0
 40
1.0
 10
22.4594
 20
-10.4983
 30
0.0
 10
22.4594
 20
-10.4983
 30
0.0
 10
22.4544
 20
-10.5194
 30
0.0
 10
22.4544
 20
-10.5194
 30
0.0
  0
SPLINE
  5
E9
330
1F
100
AcDbEntity
  8
AXIS
100
AcDbSpline
210
0.0
220
0.0
230
1.0
 70
    24
 71
     3
 72
     8
 73
     4
 74
     0
 42
0.0000000001
 43
0.0000000001
 40
0.0
 40
0.0
 40
0.0
 40
0.0
 40
1.0
 40
1.0
 40
1.0
 40
1.0
 10
22.5708
 20
-10.33
 30
0.0
 10
22.5708
 20
-10.33
 30
0.0
 10
22.5876
 20
-10.3177
 30
0.0
 10
22.5876
 20
-10.3177
 30
0.0
  0
SPLINE
  5
EA
330
1F
100
AcDbEntity
  8
AXIS
100
AcDbSpline
210
0.0
220
0.0
230
1.0
 70
    24
 71
     3
 72
     8
 73
     4
 74
     0
 42
0.0000000001
 43
0.0000000001
 40
0.0
 40
0.0
 40
0.0
 40
0.0
 40
1.0
 40
1.0
 40
1.0
 40
1.0
 10
22.4717
 20
-10.4628
 30
0.0
 10
22.4717
 20
-10.4628
 30
0.0
 10
22.4645
 20
-10.4826
 30
0.0
 10
22.4645
 20
-10.4826
 30
0.0
  0
SPLINE
  5
EB
330
1F
100
AcDbEntity
  8
AXIS
100
AcDbSpline
210
0.0
220
0.0
230
1.0
 70
    24
 71
     3
 72
     8
 73
     4
 74
     0
 42
0.0000000001
 43
0.0000000001
 40
0.0
 40
0.0
 40
0.0
 40
0.0
 40
1.0
 40
1.0
 40
1.0
 40
1.0
 10
22.5429
 20
-10.3554
 30
0.0
 10
22.5429
 20
-10.3554
 30
0.0
 10
22.558
 20
-10.3412
 30
0.0
 10
22.558
 20
-10.3412
 30
0.0
  0
SPLINE
  5
EC
330
1F
100
AcDbEntity
  8
AXIS
100
AcDbSpline
210
0.0
220
0.0
230
1.0
 70
    24
 71
     3
 72
     8
 73
     4
 74
     0
 42
0.0000000001
 43
0.0000000001
 40
0.0
 40
0.0
 40
0.0
 40
0.0
 40
1.0
 40
1.0
 40
1.0
 40
1.0
 10
22.488
 20
-10.429
 30
0.0
 10
22.488
 20
-10.429
 30
0.0
 10
22.4785
 20
-10.4476
 30
0.0
 10
22.4785
 20
-10.4476
 30
0.0
  0
SPLINE
  5
ED
330
1F
100
AcDbEntity
  8
AXIS
100
AcDbSpline
210
0.0
220
0.0
230
1.0
 70
    24
 71
     3
 72
     8
 73
     4
 74
     0
 42
0.0000000001
 43
0.0000000001
 40
0.0
 40
0.0
 40
0.0
 40
0.0
 40
1.0
 40
1.0
 40
1.0
 40
1.0
 10
22.5182
 20
-10.3835
 30
0.0
 10
22.5182
 20
-10.3835
 30
0.0
 10
22.5314
 20
-10.3678
 30
0.0
 10
22.5314
 20
-10.3678
 30
0.0
  0
SPLINE
  5
EE
330
1F
100
AcDbEntity
  8
AXIS
100
AcDbSpline
210
0.0
220
0.0
230
1.0
 70
    24
 71
     3
 72
     8
 73
     4
 74
     0
 42
0.0000000001
 43
0.0000000001
 40
0.0
 40
0.0
 40
0.0
 40
0.0
 40
1.0
 40
1.0
 40
1.0
 40
1.0
 10
22.5079
 20
-10.3972
 30
0.0
 10
22.5079
 20
-10.3972
 30
0.0
 10
22.4966
 20
-10.4144
 30
0.0
 10
22.4966
 20
-10.4144
 30
0.0
  0
SPLINE
  5
EF
330
1F
100
AcDbEntity
  8
AXIS
100
AcDbSpline
210
0.0
220
0.0
230
1.0
 70
    24
 71
     3
 72
     8
 73
     4
 74
     0
 42
0.0000000001
 43
0.0000000001
 40
0.0
 40
0.0
 40
0.0
 40
0.0
 40
1.0
 40
1.0
 40
1.0
 40
1.0
 10
23.7075
 20
-10.2488
 30
0.0
 10
23.7075
 20
-10.2488
 30
0.0
 10
23.7322
 20
-10.2533
 30
0.0
 10
23.7322
 20
-10.2533
 30
0.0
  0
SPLINE
  5
F0
330
1F
100
AcDbEntity
  8
AXIS
100
AcDbSpline
210
0.0
220
0.0
230
1.0
 70
    24
 71
     3
 72
     8
 73
     4
 74
     0
 42
0.0000000001
 43
0.0000000001
 40
0.0
 40
0.0
 40
0.0
 40
0.0
 40
1.0
 40
1.0
 40
1.0
 40
1.0
 10
23.2752
 20
-9.8365
 30
0.0
 10
23.2752
 20
-9.8365
 30
0.0
 10
23.272
 20
-9.821
 30
0.0
 10
23.272
 20
-9.821
 30
0.0
  0
SPLINE
  5
F1
330
1F
100
AcDbEntity
  8
AXIS
100
AcDbSpline
210
0.0
220
0.0
230
1.0
 70
    24
 71
     3
 72
     8
 73
     4
 74
     0
 42
0.0000000001
 43
0.0000000001
 40
0.0
 40
0.0
 40
0.0
 40
0.0
 40
1.0
 40
1.0
 40
1.0
 40
1.0
 10
23.6567
 20
-10.2366
 30
0.0
 10
23.6567
 20
-10.2366
 30
0.0
 10
23.6844
 20
-10.2435
 30
0.0
 10
23.6844
 20
-10.2435
 30
0.0
  0
SPLINE
  5
F2
330
1F
100
AcDbEntity
  8
AXIS
100
AcDbSpline
210
0.0
220
0.0
230
1.0
 70
    24
 71
     3
 72
     8
 73
     4
 74
     0
 42
0.0000000001
 43
0.0000000001
 40
0.0
 40
0.0
 40
0.0
 40
0.0
 40
1.0
 40
1.0
 40
1.0
 40
1.0
 10
23.2861
 20
-9.8783
 30
0.0
 10
23.2861
 20
-9.8783
 30
0.0
 10
23.2838
 20
-9.8704
 30
0.0
 10
23.2838
 20
-9.8704
 30
0.0
  0
SPLINE
  5
F3
330
1F
100
AcDbEntity
  8
AXIS
100
AcDbSpline
210
0.0
220
0.0
230
1.0
 70
    24
 71
     3
 72
     8
 73
     4
 74
     0
 42
0.0000000001
 43
0.0000000001
 40
0.0
 40
0.0
 40
0.0
 40
0.0
 40
1.0
 40
1.0
 40
1.0
 40
1.0
 10
23.6109
 20
-10.2222
 30
0.0
 10
23.6109
 20
-10.2222
 30
0.0
 10
23.6357
 20
-10.2305
 30
0.0
 10
23.6357
 20
-10.2305
 30
0.0
  0
SPLINE
  5
F4
330
1F
100
AcDbEntity
  8
AXIS
100
AcDbSpline
210
0.0
220
0.0
230
1.0
 70
    24
 71
     3
 72
     8
 73
     4
 74
     0
 42
0.0000000001
 43
0.0000000001
 40
0.0
 40
0.0
 40
0.0
 40
0.0
 40
1.0
 40
1.0
 40
1.0
 40
1.0
 10
23.2984
 20
-9.9162
 30
0.0
 10
23.2984
 20
-9.9162
 30
0.0
 10
23.2914
 20
-9.8951
 30
0.0
 10
23.2914
 20
-9.8951
 30
0.0
  0
SPLINE
  5
F5
330
1F
100
AcDbEntity
  8
AXIS
100
AcDbSpline
210
0.0
220
0.0
230
1.0
 70
    24
 71
     3
 72
     8
 73
     4
 74
     0
 42
0.0000000001
 43
0.0000000001
 40
0.0
 40
0.0
 40
0.0
 40
0.0
 40
1.0
 40
1.0
 40
1.0
 40
1.0
 10
23.5382
 20
-10.1916
 30
0.0
 10
23.5382
 20
-10.1916
 30
0.0
 10
23.5506
 20
-10.1978
 30
0.0
 10
23.5506
 20
-10.1978
 30
0.0
  0
SPLINE
  5
F6
330
1F
100
AcDbEntity
  8
AXIS
100
AcDbSpline
210
0.0
220
0.0
230
1.0
 70
    24
 71
     3
 72
     8
 73
     4
 74
     0
 42
0.0000000001
 43
0.0000000001
 40
0.0
 40
0.0
 40
0.0
 40
0.0
 40
1.0
 40
1.0
 40
1.0
 40
1.0
 10
23.3167
 20
-9.9614
 30
0.0
 10
23.3167
 20
-9.9614
 30
0.0
 10
23.3054
 20
-9.9346
 30
0.0
 10
23.3054
 20
-9.9346
 30
0.0
  0
SPLINE
  5
F7
330
1F
100
AcDbEntity
  8
AXIS
100
AcDbSpline
210
0.0
220
0.0
230
1.0
 70
    24
 71
     3
 72
     8
 73
     4
 74
     0
 42
0.0000000001
 43
0.0000000001
 40
0.0
 40
0.0
 40
0.0
 40
0.0
 40
1.0
 40
1.0
 40
1.0
 40
1.0
 10
23.4933
 20
-10.1661
 30
0.0
 10
23.4933
 20
-10.1661
 30
0.0
 10
23.5116
 20
-10.1775
 30
0.0
 10
23.5116
 20
-10.1775
 30
0.0
  0
SPLINE
  5
F8
330
1F
100
AcDbEntity
  8
AXIS
100
AcDbSpline
210
0.0
220
0.0
230
1.0
 70
    24
 71
     3
 72
     8
 73
     4
 74
     0
 42
0.0000000001
 43
0.0000000001
 40
0.0
 40
0.0
 40
0.0
 40
0.0
 40
1.0
 40
1.0
 40
1.0
 40
1.0
 10
23.3322
 20
-9.9926
 30
0.0
 10
23.3322
 20
-9.9926
 30
0.0
 10
23.3223
 20
-9.9734
 30
0.0
 10
23.3223
 20
-9.9734
 30
0.0
  0
SPLINE
  5
F9
330
1F
100
AcDbEntity
  8
AXIS
100
AcDbSpline
210
0.0
220
0.0
230
1.0
 70
    24
 71
     3
 72
     8
 73
     4
 74
     0
 42
0.0000000001
 43
0.0000000001
 40
0.0
 40
0.0
 40
0.0
 40
0.0
 40
1.0
 40
1.0
 40
1.0
 40
1.0
 10
23.3861
 20
-10.0728
 30
0.0
 10
23.3861
 20
-10.0728
 30
0.0
 10
23.3991
 20
-10.0874
 30
0.0
 10
23.3991
 20
-10.0874
 30
0.0
  0
SPLINE
  5
FA
330
1F
100
AcDbEntity
  8
AXIS
100
AcDbSpline
210
0.0
220
0.0
230
1.0
 70
    24
 71
     3
 72
     8
 73
     4
 74
     0
 42
0.0000000001
 43
0.0000000001
 40
0.0
 40
0.0
 40
0.0
 40
0.0
 40
1.0
 40
1.0
 40
1.0
 40
1.0
 10
23.3697
 20
-10.0518
 30
0.0
 10
23.3697
 20
-10.0518
 30
0.0
 10
23.3619
 20
-10.0413
 30
0.0
 10
23.3619
 20
-10.0413
 30
0.0
  0
SPLINE
  5
FB
330
1F
100
AcDbEntity
  8
AXIS
100
AcDbSpline
210
0.0
220
0.0
230
1.0
 70
    24
 71
     3
 72
     8
 73
     4
 74
     0
 42
0.0000000001
 43
0.0000000001
 40
0.0
 40
0.0
 40
0.0
 40
0.0
 40
1.0
 40
1.0
 40
1.0
 40
1.0
 10
22.7137
 20
-11.1755
 30
0.0
 10
22.7137
 20
-11.1755
 30
0.0
 10
22.7957
 20
-11.161
 30
0.0
 10
22.7957
 20
-11.161
 30
0.0
  0
SPLINE
  5
FC
330
1F
100
AcDbEntity
  8
AXIS
100
AcDbSpline
210
0.0
220
0.0
230
1.0
 70
    24
 71
     3
 72
     8
 73
     4
 74
     0
 42
0.0000000001
 43
0.0000000001
 40
0.0
 40
0.0
 40
0.0
 40
0.0
 40
1.0
 40
1.0
 40
1.0
 40
1.0
 10
22.4678
 20
-11.2188
 30
0.0
 10
22.4678
 20
-11.2188
 30
0.0
 10
22.3521
 20
-10.5631
 30
0.0
 10
22.3521
 20
-10.5631
 30
0.0
  0
SPLINE
  5
FD
330
1F
100
AcDbEntity
  8
AXIS
100
AcDbSpline
210
0.0
220
0.0
230
1.0
 70
    24
 71
     3
 72
     8
 73
     4
 74
     0
 42
0.0000000001
 43
0.0000000001
 40
0.0
 40
0.0
 40
0.0
 40
0.0
 40
1.0
 40
1.0
 40
1.0
 40
1.0
 10
22.4497
 20
-10.5459
 30
0.0
 10
22.4497
 20
-10.5459
 30
0.0
 10
22.3521
 20
-10.5631
 30
0.0
 10
22.3521
 20
-10.5631
 30
0.0
  0
SPLINE
  5
FE
330
1F
100
AcDbEntity
  8
AXIS
100
AcDbSpline
210
0.0
220
0.0
230
1.0
 70
    24
 71
     3
 72
     8
 73
     4
 74
     0
 42
0.0000000001
 43
0.0000000001
 40
0.0
 40
0.0
 40
0.0
 40
0.0
 40
1.0
 40
1.0
 40
1.0
 40
1.0
 10
22.68
 20
-10.5052
 30
0.0
 10
22.68
 20
-10.5052
 30
0.0
 10
22.6321
 20
-10.5138
 30
0.0
 10
22.6321
 20
-10.5138
 30
0.0
  0
SPLINE
  5
FF
330
1F
100
AcDbEntity
  8
AXIS
100
AcDbSpline
210
0.0
220
0.0
230
1.0
 70
    24
 71
     3
 72
     8
 73
     4
 74
     0
 42
0.0000000001
 43
0.0000000001
 40
0.0
 40
0.0
 40
0.0
 40
0.0
 40
1.0
 40
1.0
 40
1.0
 40
1.0
 10
22.68
 20
-10.5052
 30
0.0
 10
22.68
 20
-10.5052
 30
0.0
 10
22.7957
 20
-11.161
 30
0.0
 10
22.7957
 20
-11.161
 30
0.0
  0
SPLINE
  5
100
330
1F
100
AcDbEntity
  8
AXIS
100
AcDbSpline
210
0.0
220
0.0
230
1.0
 70
    24
 71
     3
 72
     8
 73
     4
 74
     0
 42
0.0000000001
 43
0.0000000001
 40
0.0
 40
0.0
 40
0.0
 40
0.0
 40
1.0
 40
1.0
 40
1.0
 40
1.0
 10
22.4678
 20
-11.2188
 30
0.0
 10
22.4678
 20
-11.2188
 30
0.0
 10
22.5497
 20
-11.2044
 30
0.0
 10
22.5497
 20
-11.2044
 30
0.0
  0
SPLINE
  5
101
330
1F
100
AcDbEntity
  8
AXIS
100
AcDbSpline
210
0.0
220
0.0
230
1.0
 70
    24
 71
     3
 72
     8
 73
     4
 74
     0
 42
0.0000000001
 43
0.0000000001
 40
0.0
 40
0.0
 40
0.0
 40
0.0
 40
1.0
 40
1.0
 40
1.0
 40
1.0
 10
10.243
 20
2.4347
 30
0.0
 10
10.243
 20
2.4347
 30
0.0
 10
10.0766
 20
2.4347
 30
0.0
 10
10.0766
 20
2.4347
 30
0.0
  0
SPLINE
  5
102
330
1F
100
AcDbEntity
  8
AXIS
100
AcDbSpline
210
0.0
220
0.0
230
1.0
 70
    24
 71
     3
 72
     8
 73
     4
 74
     0
 42
0.0000000001
 43
0.0000000001
 40
0.0
 40
0.0
 40
0.0
 40
0.0
 40
1.0
 40
1.0
 40
1.0
 40
1.0
 10
10.243
 20
3.9328
 30
0.0
 10
10.243
 20
3.9328
 30
0.0
 10
10.243
 20
2.4347
 30
0.0
 10
10.243
 20
2.4347
 30
0.0
  0
SPLINE
  5
103
330
1F
100
AcDbEntity
  8
AXIS
100
AcDbSpline
210
0.0
220
0.0
230
1.0
 70
    24
 71
     3
 72
     8
 73
     4
 74
     0
 42
0.0000000001
 43
0.0000000001
 40
0.0
 40
0.0
 40
0.0
 40
0.0
 40
1.0
 40
1.0
 40
1.0
 40
1.0
 10
10.0766
 20
3.9328
 30
0.0
 10
10.0766
 20
3.9328
 30
0.0
 10
10.243
 20
3.9328
 30
0.0
 10
10.243
 20
3.9328
 30
0.0
  0
SPLINE
  5
104
330
1F
100
AcDbEntity
  8
AXIS
100
AcDbSpline
210
0.0
220
0.0
230
1.0
 70
    24
 71
     3
 72
     8
 73
     4
 74
     0
 42
0.0000000001
 43
0.0000000001
 40
0.0
 40
0.0
 40
0.0
 40
0.0
 40
1.0
 40
1.0
 40
1.0
 40
1.0
 10
-18.6888
 20
2.4347
 30
0.0
 10
-18.6888
 20
2.4347
 30
0.0
 10
-18.6888
 20
3.9328
 30
0.0
 10
-18.6888
 20
3.9328
 30
0.0
  0
SPLINE
  5
105
330
1F
100
AcDbEntity
  8
AXIS
100
AcDbSpline
210
0.0
220
0.0
230
1.0
 70
    24
 71
     3
 72
     8
 73
     4
 74
     0
 42
0.0000000001
 43
0.0000000001
 40
0.0
 40
0.0
 40
0.0
 40
0.0
 40
1.0
 40
1.0
 40
1.0
 40
1.0
 10
-18.5223
 20
3.9328
 30
0.0
 10
-18.5223
 20
3.9328
 30
0.0
 10
-18.6888
 20
3.9328
 30
0.0
 10
-18.6888
 20
3.9328
 30
0.0
  0
SPLINE
  5
106
330
1F
100
AcDbEntity
  8
AXIS
100
AcDbSpline
210
0.0
220
0.0
230
1.0
 70
    24
 71
     3
 72
     8
 73
     4
 74
     0
 42
0.0000000001
 43
0.0000000001
 40
0.0
 40
0.0
 40
0.0
 40
0.0
 40
1.0
 40
1.0
 40
1.0
 40
1.0
 10
-18.5223
 20
2.4347
 30
0.0
 10
-18.5223
 20
2.4347
 30
0.0
 10
-18.6888
 20
2.4347
 30
0.0
 10
-18.6888
 20
2.4347
 30
0.0
  0
SPLINE
  5
107
330
1F
100
AcDbEntity
  8
AXIS
100
AcDbSpline
210
0.0
220
0.0
230
1.0
 70
    24
 71
     3
 72
     8
 73
     4
 74
     0
 42
0.0000000001
 43
0.0000000001
 40
0.0
 40
0.0
 40
0.0
 40
0.0
 40
1.0
 40
1.0
 40
1.0
 40
1.0
 10
1.4536
 20
3.0555
 30
0.0
 10
1.4536
 20
3.0555
 30
0.0
 10
1.4536
 20
2.8335
 30
0.0
 10
1.4536
 20
2.8335
 30
0.0
  0
SPLINE
  5
108
330
1F
100
AcDbEntity
  8
AXIS
100
AcDbSpline
210
0.0
220
0.0
230
1.0
 70
    24
 71
     3
 72
     8
 73
     4
 74
     0
 42
0.0000000001
 43
0.0000000001
 40
0.0
 40
0.0
 40
0.0
 40
0.0
 40
1.0
 40
1.0
 40
1.0
 40
1.0
 10
1.4536
 20
3.9328
 30
0.0
 10
1.4536
 20
3.9328
 30
0.0
 10
1.4536
 20
2.4347
 30
0.0
 10
1.4536
 20
2.4347
 30
0.0
  0
SPLINE
  5
109
330
1F
100
AcDbEntity
  8
AXIS
100
AcDbSpline
210
0.0
220
0.0
230
1.0
 70
    24
 71
     3
 72
     8
 73
     4
 74
     0
 42
0.0000000001
 43
0.0000000001
 40
0.0
 40
0.0
 40
0.0
 40
0.0
 40
1.0
 40
1.0
 40
1.0
 40
1.0
 10
1.6201
 20
2.4347
 30
0.0
 10
1.6201
 20
2.4347
 30
0.0
 10
1.4536
 20
2.4347
 30
0.0
 10
1.4536
 20
2.4347
 30
0.0
  0
SPLINE
  5
10A
330
1F
100
AcDbEntity
  8
AXIS
100
AcDbSpline
210
0.0
220
0.0
230
1.0
 70
    24
 71
     3
 72
     8
 73
     4
 74
     0
 42
0.0000000001
 43
0.0000000001
 40
0.0
 40
0.0
 40
0.0
 40
0.0
 40
1.0
 40
1.0
 40
1.0
 40
1.0
 10
1.6201
 20
3.9328
 30
0.0
 10
1.6201
 20
3.9328
 30
0.0
 10
1.4536
 20
3.9328
 30
0.0
 10
1.4536
 20
3.9328
 30
0.0
  0
SPLINE
  5
10B
330
1F
100
AcDbEntity
  8
AXIS
100
AcDbSpline
210
0.0
220
0.0
230
1.0
 70
    24
 71
     3
 72
     8
 73
     4
 74
     0
 42
0.0000000001
 43
0.0000000001
 40
0.0
 40
0.0
 40
0.0
 40
0.0
 40
1.0
 40
1.0
 40
1.0
 40
1.0
 10
1.4536
 20
3.5339
 30
0.0
 10
1.4536
 20
3.5339
 30
0.0
 10
1.4536
 20
3.3119
 30
0.0
 10
1.4536
 20
3.3119
 30
0.0
  0
SPLINE
  5
10C
330
1F
100
AcDbEntity
  8
AXIS
100
AcDbSpline
210
0.0
220
0.0
230
1.0
 70
     8
 71
     3
 72
    16
 73
    12
 74
     0
 42
0.0000000001
 43
0.0000000001
 40
0.0
 40
0.0
 40
0.0
 40
0.0
 40
0.25
 40
0.25
 40
0.25
 40
0.25
 40
0.5
 40
0.5
 40
0.5
 40
0.5
 40
1.0
 40
1.0
 40
1.0
 40
1.0
 10
-18.7221
 20
-9.684
 30
0.0
 10
-18.7141
 20
-9.807
 30
0.0
 10
-18.7001
 20
-9.9192
 30
0.0
 10
-18.6524
 20
-10.0345
 30
0.0
 10
-18.6524
 20
-10.0345
 30
0.0
 10
-18.5445
 20
-10.2953
 30
0.0
 10
-18.3162
 20
-10.4954
 30
0.0
 10
-18.0436
 20
-10.5684
 30
0.0
 10
-18.0436
 20
-10.5684
 30
0.0
 10
-17.8605
 20
-10.6175
 30
0.0
 10
-17.6584
 20
-10.5996
 30
0.0
 10
-17.4736
 20
-10.5996
 30
0.0
  0
SPLINE
  5
10D
330
1F
100
AcDbEntity
  8
AXIS
100
AcDbSpline
210
0.0
220
0.0
230
1.0
 70
    24
 71
     3
 72
     8
 73
     4
 74
     0
 42
0.0000000001
 43
0.0000000001
 40
0.0
 40
0.0
 40
0.0
 40
0.0
 40
1.0
 40
1.0
 40
1.0
 40
1.0
 10
-17.4736
 20
-10.5996
 30
0.0
 10
-17.4736
 20
-10.5996
 30
0.0
 10
9.0279
 20
-10.5996
 30
0.0
 10
9.0279
 20
-10.5996
 30
0.0
  0
SPLINE
  5
10E
330
1F
100
AcDbEntity
  8
AXIS
100
AcDbSpline
210
0.0
220
0.0
230
1.0
 70
     8
 71
     3
 72
    12
 73
     8
 74
     0
 42
0.0000000001
 43
0.0000000001
 40
0.0
 40
0.0
 40
0.0
 40
0.0
 40
0.3333333333333333
 40
0.3333333333333333
 40
0.3333333333333333
 40
0.3333333333333333
 40
1.0
 40
1.0
 40
1.0
 40
1.0
 10
9.0279
 20
-10.5996
 30
0.0
 10
9.3066
 20
-10.5996
 30
0.0
 10
9.5697
 20
-10.6206
 30
0.0
 10
9.8185
 20
-10.477
 30
0.0
 10
9.8185
 20
-10.477
 30
0.0
 10
10.063
 20
-10.3358
 30
0.0
 10
10.2317
 20
-10.0834
 30
0.0
 10
10.2684
 20
-9.8036
 30
0.0
  0
SPLINE
  5
10F
330
1F
100
AcDbEntity
  8
AXIS
100
AcDbSpline
210
0.0
220
0.0
230
1.0
 70
     8
 71
     3
 72
    16
 73
    12
 74
     0
 42
0.0000000001
 43
0.0000000001
 40
0.0
 40
0.0
 40
0.0
 40
0.0
 40
0.25
 40
0.25
 40
0.25
 40
0.25
 40
0.5
 40
0.5
 40
0.5
 40
0.5
 40
1.0
 40
1.0
 40
1.0
 40
1.0
 10
10.2684
 20
-9.8036
 30
0.0
 10
10.2684
 20
-9.8036
 30
0.0
 10
10.2762
 20
-9.684
 30
0.0
 10
10.2762
 20
-9.684
 30
0.0
 10
10.2762
 20
-9.684
 30
0.0
 10
10.2762
 20
-9.684
 30
0.0
 10
10.2762
 20
-9.3511
 30
0.0
 10
10.2762
 20
-9.3511
 30
0.0
 10
10.2762
 20
-9.3511
 30
0.0
 10
10.2762
 20
-9.3511
 30
0.0
 10
10.2762
 20
4.1326
 30
0.0
 10
10.2762
 20
4.1326
 30
0.0
  0
SPLINE
  5
110
330
1F
100
AcDbEntity
  8
AXIS
100
AcDbSpline
210
0.0
220
0.0
230
1.0
 70
     8
 71
     3
 72
    16
 73
    12
 74
     0
 42
0.0000000001
 43
0.0000000001
 40
0.0
 40
0.0
 40
0.0
 40
0.0
 40
0.25
 40
0.25
 40
0.25
 40
0.25
 40
0.5
 40
0.5
 40
0.5
 40
0.5
 40
1.0
 40
1.0
 40
1.0
 40
1.0
 10
10.2762
 20
4.1326
 30
0.0
 10
10.2762
 20
4.3173
 30
0.0
 10
10.2941
 20
4.5195
 30
0.0
 10
10.245
 20
4.7025
 30
0.0
 10
10.245
 20
4.7025
 30
0.0
 10
10.1613
 20
5.0155
 30
0.0
 10
9.9106
 20
5.266
 30
0.0
 10
9.5977
 20
5.35
 30
0.0
 10
9.5977
 20
5.35
 30
0.0
 10
9.4147
 20
5.3989
 30
0.0
 10
9.2125
 20
5.3812
 30
0.0
 10
9.0279
 20
5.3812
 30
0.0
  0
SPLINE
  5
111
330
1F
100
AcDbEntity
  8
AXIS
100
AcDbSpline
210
0.0
220
0.0
230
1.0
 70
    24
 71
     3
 72
    12
 73
     8
 74
     0
 42
0.0000000001
 43
0.0000000001
 40
0.0
 40
0.0
 40
0.0
 40
0.0
 40
0.3333333333333333
 40
0.3333333333333333
 40
0.3333333333333333
 40
0.3333333333333333
 40
1.0
 40
1.0
 40
1.0
 40
1.0
 10
9.0279
 20
5.3812
 30
0.0
 10
9.0279
 20
5.3812
 30
0.0
 10
-17.4736
 20
5.3812
 30
0.0
 10
-17.4736
 20
5.3812
 30
0.0
 10
-17.4736
 20
5.3812
 30
0.0
 10
-17.4736
 20
5.3812
 30
0.0
 10
-17.8066
 20
5.3812
 30
0.0
 10
-17.8066
 20
5.3812
 30
0.0
  0
SPLINE
  5
112
330
1F
100
AcDbEntity
  8
AXIS
100
AcDbSpline
210
0.0
220
0.0
230
1.0
 70
     8
 71
     3
 72
    16
 73
    12
 74
     0
 42
0.0000000001
 43
0.0000000001
 40
0.0
 40
0.0
 40
0.0
 40
0.0
 40
0.25
 40
0.25
 40
0.25
 40
0.25
 40
0.5
 40
0.5
 40
0.5
 40
0.5
 40
1.0
 40
1.0
 40
1.0
 40
1.0
 10
-17.8066
 20
5.3812
 30
0.0
 10
-17.9295
 20
5.373
 30
0.0
 10
-18.0417
 20
5.3591
 30
0.0
 10
-18.157
 20
5.3113
 30
0.0
 10
-18.157
 20
5.3113
 30
0.0
 10
-18.4177
 20
5.2034
 30
0.0
 10
-18.6179
 20
4.9752
 30
0.0
 10
-18.6909
 20
4.7025
 30
0.0
 10
-18.6909
 20
4.7025
 30
0.0
 10
-18.74
 20
4.5195
 30
0.0
 10
-18.7221
 20
4.3173
 30
0.0
 10
-18.7221
 20
4.1326
 30
0.0
  0
SPLINE
  5
113
330
1F
100
AcDbEntity
  8
AXIS
100
AcDbSpline
210
0.0
220
0.0
230
1.0
 70
    24
 71
     3
 72
    12
 73
     8
 74
     0
 42
0.0000000001
 43
0.0000000001
 40
0.0
 40
0.0
 40
0.0
 40
0.0
 40
0.3333333333333333
 40
0.3333333333333333
 40
0.3333333333333333
 40
0.3333333333333333
 40
1.0
 40
1.0
 40
1.0
 40
1.0
 10
-18.7221
 20
4.1326
 30
0.0
 10
-18.7221
 20
4.1326
 30
0.0
 10
-18.7221
 20
-9.3511
 30
0.0
 10
-18.7221
 20
-9.3511
 30
0.0
 10
-18.7221
 20
-9.3511
 30
0.0
 10
-18.7221
 20
-9.3511
 30
0.0
 10
-18.7221
 20
-9.684
 30
0.0
 10
-18.7221
 20
-9.684
 30
0.0
  0
SPLINE
  5
114
330
1F
100
AcDbEntity
  8
AXIS
100
AcDbSpline
210
0.0
220
0.0
230
1.0
 70
     8
 71
     3
 72
     8
 73
     4
 74
     0
 42
0.0000000001
 43
0.0000000001
 40
0.0
 40
0.0
 40
0.0
 40
0.0
 40
1.0
 40
1.0
 40
1.0
 40
1.0
 10
-24.7509
 20
-15.6597
 30
0.0
 10
-24.7945
 20
-15.4893
 30
0.0
 10
-24.7815
 20
-15.3452
 30
0.0
 10
-24.7815
 20
-15.1595
 30
0.0
  0
SPLINE
  5
115
330
1F
100
AcDbEntity
  8
AXIS
100
AcDbSpline
210
0.0
220
0.0
230
1.0
 70
    24
 71
     3
 72
     8
 73
     4
 74
     0
 42
0.0000000001
 43
0.0000000001
 40
0.0
 40
0.0
 40
0.0
 40
0.0
 40
1.0
 40
1.0
 40
1.0
 40
1.0
 10
-24.7815
 20
-15.1595
 30
0.0
 10
-24.7815
 20
-15.1595
 30
0.0
 10
-24.7815
 20
9.941
 30
0.0
 10
-24.7815
 20
9.941
 30
0.0
  0
SPLINE
  5
116
330
1F
100
AcDbEntity
  8
AXIS
100
AcDbSpline
210
0.0
220
0.0
230
1.0
 70
     8
 71
     3
 72
     8
 73
     4
 74
     0
 42
0.0000000001
 43
0.0000000001
 40
0.0
 40
0.0
 40
0.0
 40
0.0
 40
1.0
 40
1.0
 40
1.0
 40
1.0
 10
-24.7815
 20
9.941
 30
0.0
 10
-24.7815
 20
10.1266
 30
0.0
 10
-24.7945
 20
10.2707
 30
0.0
 10
-24.7509
 20
10.4412
 30
0.0
  0
SPLINE
  5
117
330
1F
100
AcDbEntity
  8
AXIS
100
AcDbSpline
210
0.0
220
0.0
230
1.0
 70
     8
 71
     3
 72
     8
 73
     4
 74
     0
 42
0.0000000001
 43
0.0000000001
 40
0.0
 40
0.0
 40
0.0
 40
0.0
 40
1.0
 40
1.0
 40
1.0
 40
1.0
 10
-24.0985
 20
11.0935
 30
0.0
 10
-23.928
 20
11.1371
 30
0.0
 10
-23.7839
 20
11.1242
 30
0.0
 10
-23.5984
 20
11.1242
 30
0.0
  0
SPLINE
  5
118
330
1F
100
AcDbEntity
  8
AXIS
100
AcDbSpline
210
0.0
220
0.0
230
1.0
 70
    24
 71
     3
 72
     8
 73
     4
 74
     0
 42
0.0000000001
 43
0.0000000001
 40
0.0
 40
0.0
 40
0.0
 40
0.0
 40
1.0
 40
1.0
 40
1.0
 40
1.0
 10
-23.5984
 20
11.1242
 30
0.0
 10
-23.5984
 20
11.1242
 30
0.0
 10
15.1525
 20
11.1242
 30
0.0
 10
15.1525
 20
11.1242
 30
0.0
  0
SPLINE
  5
119
330
1F
100
AcDbEntity
  8
AXIS
100
AcDbSpline
210
0.0
220
0.0
230
1.0
 70
     8
 71
     3
 72
     8
 73
     4
 74
     0
 42
0.0000000001
 43
0.0000000001
 40
0.0
 40
0.0
 40
0.0
 40
0.0
 40
1.0
 40
1.0
 40
1.0
 40
1.0
 10
15.1525
 20
11.1242
 30
0.0
 10
15.338
 20
11.1242
 30
0.0
 10
15.4821
 20
11.1371
 30
0.0
 10
15.6527
 20
11.0935
 30
0.0
  0
SPLINE
  5
11A
330
1F
100
AcDbEntity
  8
AXIS
100
AcDbSpline
210
0.0
220
0.0
230
1.0
 70
     8
 71
     3
 72
     8
 73
     4
 74
     0
 42
0.0000000001
 43
0.0000000001
 40
0.0
 40
0.0
 40
0.0
 40
0.0
 40
1.0
 40
1.0
 40
1.0
 40
1.0
 10
16.305
 20
10.4412
 30
0.0
 10
16.3485
 20
10.2707
 30
0.0
 10
16.3357
 20
10.1266
 30
0.0
 10
16.3357
 20
9.941
 30
0.0
  0
SPLINE
  5
11B
330
1F
100
AcDbEntity
  8
AXIS
100
AcDbSpline
210
0.0
220
0.0
230
1.0
 70
    24
 71
     3
 72
     8
 73
     4
 74
     0
 42
0.0000000001
 43
0.0000000001
 40
0.0
 40
0.0
 40
0.0
 40
0.0
 40
1.0
 40
1.0
 40
1.0
 40
1.0
 10
16.3357
 20
9.941
 30
0.0
 10
16.3357
 20
9.941
 30
0.0
 10
16.3357
 20
-15.1595
 30
0.0
 10
16.3357
 20
-15.1595
 30
0.0
  0
SPLINE
  5
11C
330
1F
100
AcDbEntity
  8
AXIS
100
AcDbSpline
210
0.0
220
0.0
230
1.0
 70
     8
 71
     3
 72
     8
 73
     4
 74
     0
 42
0.0000000001
 43
0.0000000001
 40
0.0
 40
0.0
 40
0.0
 40
0.0
 40
1.0
 40
1.0
 40
1.0
 40
1.0
 10
16.3357
 20
-15.1595
 30
0.0
 10
16.3357
 20
-15.3452
 30
0.0
 10
16.3485
 20
-15.4893
 30
0.0
 10
16.305
 20
-15.6597
 30
0.0
  0
SPLINE
  5
11D
330
1F
100
AcDbEntity
  8
AXIS
100
AcDbSpline
210
0.0
220
0.0
230
1.0
 70
     8
 71
     3
 72
     8
 73
     4
 74
     0
 42
0.0000000001
 43
0.0000000001
 40
0.0
 40
0.0
 40
0.0
 40
0.0
 40
1.0
 40
1.0
 40
1.0
 40
1.0
 10
-24.0985
 20
-16.312
 30
0.0
 10
-23.928
 20
-16.3557
 30
0.0
 10
-23.7839
 20
-16.3427
 30
0.0
 10
-23.5984
 20
-16.3427
 30
0.0
  0
SPLINE
  5
11E
330
1F
100
AcDbEntity
  8
AXIS
100
AcDbSpline
210
0.0
220
0.0
230
1.0
 70
    24
 71
     3
 72
     8
 73
     4
 74
     0
 42
0.0000000001
 43
0.0000000001
 40
0.0
 40
0.0
 40
0.0
 40
0.0
 40
1.0
 40
1.0
 40
1.0
 40
1.0
 10
-23.5984
 20
-16.3427
 30
0.0
 10
-23.5984
 20
-16.3427
 30
0.0
 10
15.0872
 20
-16.3427
 30
0.0
 10
15.0872
 20
-16.3427
 30
0.0
  0
SPLINE
  5
11F
330
1F
100
AcDbEntity
  8
AXIS
100
AcDbSpline
210
0.0
220
0.0
230
1.0
 70
     8
 71
     3
 72
    12
 73
     8
 74
     0
 42
0.0000000001
 43
0.0000000001
 40
0.0
 40
0.0
 40
0.0
 40
0.0
 40
0.3333333333333333
 40
0.3333333333333333
 40
0.3333333333333333
 40
0.3333333333333333
 40
1.0
 40
1.0
 40
1.0
 40
1.0
 10
15.0872
 20
-16.3427
 30
0.0
 10
15.2539
 20
-16.3427
 30
0.0
 10
15.4865
 20
-16.3573
 30
0.0
 10
15.6571
 20
-16.3115
 30
0.0
 10
15.6571
 20
-16.3115
 30
0.0
 10
15.9702
 20
-16.2277
 30
0.0
 10
16.2206
 20
-15.9772
 30
0.0
 10
16.3044
 20
-15.6641
 30
0.0
  0
SPLINE
  5
120
330
1F
100
AcDbEntity
  8
AXIS
100
AcDbSpline
210
0.0
220
0.0
230
1.0
 70
    24
 71
     3
 72
     8
 73
     4
 74
     0
 42
0.0000000001
 43
0.0000000001
 40
0.0
 40
0.0
 40
0.0
 40
0.0
 40
1.0
 40
1.0
 40
1.0
 40
1.0
 10
16.3044
 20
-15.6641
 30
0.0
 10
16.3044
 20
-15.6641
 30
0.0
 10
16.3357
 20
-15.4271
 30
0.0
 10
16.3357
 20
-15.4271
 30
0.0
  0
SPLINE
  5
121
330
1F
100
AcDbEntity
  8
AXIS
100
AcDbSpline
210
0.0
220
0.0
230
1.0
 70
    24
 71
     3
 72
     8
 73
     4
 74
     0
 42
0.0000000001
 43
0.0000000001
 40
0.0
 40
0.0
 40
0.0
 40
0.0
 40
1.0
 40
1.0
 40
1.0
 40
1.0
 10
-24.7815
 20
-15.4271
 30
0.0
 10
-24.7815
 20
-15.4271
 30
0.0
 10
-24.7504
 20
-15.6641
 30
0.0
 10
-24.7504
 20
-15.6641
 30
0.0
  0
SPLINE
  5
122
330
1F
100
AcDbEntity
  8
AXIS
100
AcDbSpline
210
0.0
220
0.0
230
1.0
 70
     8
 71
     3
 72
     8
 73
     4
 74
     0
 42
0.0000000001
 43
0.0000000001
 40
0.0
 40
0.0
 40
0.0
 40
0.0
 40
1.0
 40
1.0
 40
1.0
 40
1.0
 10
-24.7504
 20
-15.6641
 30
0.0
 10
-24.6664
 20
-15.9772
 30
0.0
 10
-24.416
 20
-16.2277
 30
0.0
 10
-24.1029
 20
-16.3115
 30
0.0
  0
SPLINE
  5
123
330
1F
100
AcDbEntity
  8
AXIS
100
AcDbSpline
210
0.0
220
0.0
230
1.0
 70
    24
 71
     3
 72
     8
 73
     4
 74
     0
 42
0.0000000001
 43
0.0000000001
 40
0.0
 40
0.0
 40
0.0
 40
0.0
 40
1.0
 40
1.0
 40
1.0
 40
1.0
 10
-24.1029
 20
-16.3115
 30
0.0
 10
-24.1029
 20
-16.3115
 30
0.0
 10
-23.8659
 20
-16.3427
 30
0.0
 10
-23.8659
 20
-16.3427
 30
0.0
  0
SPLINE
  5
124
330
1F
100
AcDbEntity
  8
AXIS
100
AcDbSpline
210
0.0
220
0.0
230
1.0
 70
    24
 71
     3
 72
     8
 73
     4
 74
     0
 42
0.0000000001
 43
0.0000000001
 40
0.0
 40
0.0
 40
0.0
 40
0.0
 40
1.0
 40
1.0
 40
1.0
 40
1.0
 10
15.4201
 20
11.1242
 30
0.0
 10
15.4201
 20
11.1242
 30
0.0
 10
15.6571
 20
11.093
 30
0.0
 10
15.6571
 20
11.093
 30
0.0
  0
SPLINE
  5
125
330
1F
100
AcDbEntity
  8
AXIS
100
AcDbSpline
210
0.0
220
0.0
230
1.0
 70
     8
 71
     3
 72
     8
 73
     4
 74
     0
 42
0.0000000001
 43
0.0000000001
 40
0.0
 40
0.0
 40
0.0
 40
0.0
 40
1.0
 40
1.0
 40
1.0
 40
1.0
 10
15.6571
 20
11.093
 30
0.0
 10
15.9702
 20
11.0091
 30
0.0
 10
16.2206
 20
10.7587
 30
0.0
 10
16.3044
 20
10.4455
 30
0.0
  0
SPLINE
  5
126
330
1F
100
AcDbEntity
  8
AXIS
100
AcDbSpline
210
0.0
220
0.0
230
1.0
 70
    24
 71
     3
 72
     8
 73
     4
 74
     0
 42
0.0000000001
 43
0.0000000001
 40
0.0
 40
0.0
 40
0.0
 40
0.0
 40
1.0
 40
1.0
 40
1.0
 40
1.0
 10
16.3044
 20
10.4455
 30
0.0
 10
16.3044
 20
10.4455
 30
0.0
 10
16.3357
 20
10.2086
 30
0.0
 10
16.3357
 20
10.2086
 30
0.0
  0
SPLINE
  5
127
330
1F
100
AcDbEntity
  8
AXIS
100
AcDbSpline
210
0.0
220
0.0
230
1.0
 70
    24
 71
     3
 72
     8
 73
     4
 74
     0
 42
0.0000000001
 43
0.0000000001
 40
0.0
 40
0.0
 40
0.0
 40
0.0
 40
1.0
 40
1.0
 40
1.0
 40
1.0
 10
-24.7815
 20
10.2086
 30
0.0
 10
-24.7815
 20
10.2086
 30
0.0
 10
-24.7504
 20
10.4455
 30
0.0
 10
-24.7504
 20
10.4455
 30
0.0
  0
SPLINE
  5
128
330
1F
100
AcDbEntity
  8
AXIS
100
AcDbSpline
210
0.0
220
0.0
230
1.0
 70
     8
 71
     3
 72
     8
 73
     4
 74
     0
 42
0.0000000001
 43
0.0000000001
 40
0.0
 40
0.0
 40
0.0
 40
0.0
 40
1.0
 40
1.0
 40
1.0
 40
1.0
 10
-24.7504
 20
10.4455
 30
0.0
 10
-24.6664
 20
10.7587
 30
0.0
 10
-24.416
 20
11.0091
 30
0.0
 10
-24.1029
 20
11.093
 30
0.0
  0
SPLINE
  5
129
330
1F
100
AcDbEntity
  8
AXIS
100
AcDbSpline
210
0.0
220
0.0
230
1.0
 70
    24
 71
     3
 72
     8
 73
     4
 74
     0
 42
0.0000000001
 43
0.0000000001
 40
0.0
 40
0.0
 40
0.0
 40
0.0
 40
1.0
 40
1.0
 40
1.0
 40
1.0
 10
-24.1029
 20
11.093
 30
0.0
 10
-24.1029
 20
11.093
 30
0.0
 10
-23.8659
 20
11.1242
 30
0.0
 10
-23.8659
 20
11.1242
 30
0.0
  0
SPLINE
  5
12A
330
1F
100
AcDbEntity
  8
AXIS
100
AcDbSpline
210
0.0
220
0.0
230
1.0
 70
    24
 71
     3
 72
     8
 73
     4
 74
     0
 42
0.0000000001
 43
0.0000000001
 40
0.0
 40
0.0
 40
0.0
 40
0.0
 40
1.0
 40
1.0
 40
1.0
 40
1.0
 10
9.5829
 20
-10.3272
 30
0.0
 10
9.5829
 20
-10.3272
 30
0.0
 10
9.4107
 20
-10.3499
 30
0.0
 10
9.4107
 20
-10.3499
 30
0.0
  0
SPLINE
  5
12B
330
1F
100
AcDbEntity
  8
AXIS
100
AcDbSpline
210
0.0
220
0.0
230
1.0
 70
    24
 71
     3
 72
     8
 73
     4
 74
     0
 42
0.0000000001
 43
0.0000000001
 40
0.0
 40
0.0
 40
0.0
 40
0.0
 40
1.0
 40
1.0
 40
1.0
 40
1.0
 10
2.2859
 20
-10.3499
 30
0.0
 10
2.2859
 20
-10.3499
 30
0.0
 10
2.1136
 20
-10.3272
 30
0.0
 10
2.1136
 20
-10.3272
 30
0.0
  0
SPLINE
  5
12C
330
1F
100
AcDbEntity
  8
AXIS
100
AcDbSpline
210
0.0
220
0.0
230
1.0
 70
     8
 71
     3
 72
     8
 73
     4
 74
     0
 42
0.0000000001
 43
0.0000000001
 40
0.0
 40
0.0
 40
0.0
 40
0.0
 40
1.0
 40
1.0
 40
1.0
 40
1.0
 10
10.0547
 20
4.6817
 30
0.0
 10
10.0947
 20
4.5215
 30
0.0
 10
10.0766
 20
4.3415
 30
0.0
 10
10.0766
 20
4.1826
 30
0.0
  0
SPLINE
  5
12D
330
1F
100
AcDbEntity
  8
AXIS
100
AcDbSpline
210
0.0
220
0.0
230
1.0
 70
    24
 71
     3
 72
     8
 73
     4
 74
     0
 42
0.0000000001
 43
0.0000000001
 40
0.0
 40
0.0
 40
0.0
 40
0.0
 40
1.0
 40
1.0
 40
1.0
 40
1.0
 10
10.0766
 20
4.1826
 30
0.0
 10
10.0766
 20
4.1826
 30
0.0
 10
10.0766
 20
-9.3511
 30
0.0
 10
10.0766
 20
-9.3511
 30
0.0
  0
SPLINE
  5
12E
330
1F
100
AcDbEntity
  8
AXIS
100
AcDbSpline
210
0.0
220
0.0
230
1.0
 70
     8
 71
     3
 72
    12
 73
     8
 74
     0
 42
0.0000000001
 43
0.0000000001
 40
0.0
 40
0.0
 40
0.0
 40
0.0
 40
0.3333333333333333
 40
0.3333333333333333
 40
0.3333333333333333
 40
0.3333333333333333
 40
1.0
 40
1.0
 40
1.0
 40
1.0
 10
10.0766
 20
-9.3511
 30
0.0
 10
10.0766
 20
-9.5175
 30
0.0
 10
10.0918
 20
-9.6844
 30
0.0
 10
10.0562
 20
-9.8476
 30
0.0
 10
10.0562
 20
-9.8476
 30
0.0
 10
9.9908
 20
-10.1462
 30
0.0
 10
9.7056
 20
-10.3424
 30
0.0
 10
9.4107
 20
-10.3499
 30
0.0
  0
SPLINE
  5
12F
330
1F
100
AcDbEntity
  8
AXIS
100
AcDbSpline
210
0.0
220
0.0
230
1.0
 70
     8
 71
     3
 72
    20
 73
    16
 74
     0
 42
0.0000000001
 43
0.0000000001
 40
0.0
 40
0.0
 40
0.0
 40
0.0
 40
0.2
 40
0.2
 40
0.2
 40
0.2
 40
0.4
 40
0.4
 40
0.4
 40
0.4
 40
0.6
 40
0.6
 40
0.6
 40
0.6
 40
1.0
 40
1.0
 40
1.0
 40
1.0
 10
9.4107
 20
-10.3499
 30
0.0
 10
9.4107
 20
-10.3499
 30
0.0
 10
9.0778
 20
-10.3499
 30
0.0
 10
9.0778
 20
-10.3499
 30
0.0
 10
9.0778
 20
-10.3499
 30
0.0
 10
9.0778
 20
-10.3499
 30
0.0
 10
2.6188
 20
-10.3499
 30
0.0
 10
2.6188
 20
-10.3499
 30
0.0
 10
2.6188
 20
-10.3499
 30
0.0
 10
2.6188
 20
-10.3499
 30
0.0
 10
2.2859
 20
-10.3499
 30
0.0
 10
2.2859
 20
-10.3499
 30
0.0
 10
2.2859
 20
-10.3499
 30
0.0
 10
2.2859
 20
-10.3499
 30
0.0
 10
2.252
 20
-10.349
 30
0.0
 10
2.252
 20
-10.349
 30
0.0
  0
SPLINE
  5
130
330
1F
100
AcDbEntity
  8
AXIS
100
AcDbSpline
210
0.0
220
0.0
230
1.0
 70
     8
 71
     3
 72
    12
 73
     8
 74
     0
 42
0.0000000001
 43
0.0000000001
 40
0.0
 40
0.0
 40
0.0
 40
0.0
 40
0.3333333333333333
 40
0.3333333333333333
 40
0.3333333333333333
 40
0.3333333333333333
 40
1.0
 40
1.0
 40
1.0
 40
1.0
 10
2.252
 20
-10.349
 30
0.0
 10
1.9703
 20
-10.3336
 30
0.0
 10
1.7023
 20
-10.13
 30
0.0
 10
1.6404
 20
-9.8476
 30
0.0
 10
1.6404
 20
-9.8476
 30
0.0
 10
1.6048
 20
-9.6844
 30
0.0
 10
1.6201
 20
-9.5175
 30
0.0
 10
1.6201
 20
-9.3511
 30
0.0
  0
SPLINE
  5
131
330
1F
100
AcDbEntity
  8
AXIS
100
AcDbSpline
210
0.0
220
0.0
230
1.0
 70
    24
 71
     3
 72
     8
 73
     4
 74
     0
 42
0.0000000001
 43
0.0000000001
 40
0.0
 40
0.0
 40
0.0
 40
0.0
 40
1.0
 40
1.0
 40
1.0
 40
1.0
 10
1.6201
 20
-9.3511
 30
0.0
 10
1.6201
 20
-9.3511
 30
0.0
 10
1.6201
 20
4.1826
 30
0.0
 10
1.6201
 20
4.1826
 30
0.0
  0
SPLINE
  5
132
330
1F
100
AcDbEntity
  8
AXIS
100
AcDbSpline
210
0.0
220
0.0
230
1.0
 70
     8
 71
     3
 72
     8
 73
     4
 74
     0
 42
0.0000000001
 43
0.0000000001
 40
0.0
 40
0.0
 40
0.0
 40
0.0
 40
1.0
 40
1.0
 40
1.0
 40
1.0
 10
1.6201
 20
4.1826
 30
0.0
 10
1.6201
 20
4.3415
 30
0.0
 10
1.6019
 20
4.5215
 30
0.0
 10
1.642
 20
4.6817
 30
0.0
  0
SPLINE
  5
133
330
1F
100
AcDbEntity
  8
AXIS
100
AcDbSpline
210
0.0
220
0.0
230
1.0
 70
    24
 71
     3
 72
     8
 73
     4
 74
     0
 42
0.0000000001
 43
0.0000000001
 40
0.0
 40
0.0
 40
0.0
 40
0.0
 40
1.0
 40
1.0
 40
1.0
 40
1.0
 10
1.6201
 20
4.5155
 30
0.0
 10
1.6201
 20
4.5155
 30
0.0
 10
1.6428
 20
4.6878
 30
0.0
 10
1.6428
 20
4.6878
 30
0.0
  0
SPLINE
  5
134
330
1F
100
AcDbEntity
  8
AXIS
100
AcDbSpline
210
0.0
220
0.0
230
1.0
 70
     8
 71
     3
 72
     8
 73
     4
 74
     0
 42
0.0000000001
 43
0.0000000001
 40
0.0
 40
0.0
 40
0.0
 40
0.0
 40
1.0
 40
1.0
 40
1.0
 40
1.0
 10
1.6428
 20
4.6878
 30
0.0
 10
1.6881
 20
4.8575
 30
0.0
 10
1.7993
 20
4.9992
 30
0.0
 10
1.9481
 20
5.0883
 30
0.0
  0
SPLINE
  5
135
330
1F
100
AcDbEntity
  8
AXIS
100
AcDbSpline
210
0.0
220
0.0
230
1.0
 70
     8
 71
     3
 72
     8
 73
     4
 74
     0
 42
0.0000000001
 43
0.0000000001
 40
0.0
 40
0.0
 40
0.0
 40
0.0
 40
1.0
 40
1.0
 40
1.0
 40
1.0
 10
2.1197
 20
5.1594
 30
0.0
 10
2.2799
 20
5.1995
 30
0.0
 10
2.4599
 20
5.1813
 30
0.0
 10
2.6188
 20
5.1813
 30
0.0
  0
SPLINE
  5
136
330
1F
100
AcDbEntity
  8
AXIS
100
AcDbSpline
210
0.0
220
0.0
230
1.0
 70
    24
 71
     3
 72
     8
 73
     4
 74
     0
 42
0.0000000001
 43
0.0000000001
 40
0.0
 40
0.0
 40
0.0
 40
0.0
 40
1.0
 40
1.0
 40
1.0
 40
1.0
 10
2.6188
 20
5.1813
 30
0.0
 10
2.6188
 20
5.1813
 30
0.0
 10
9.0778
 20
5.1813
 30
0.0
 10
9.0778
 20
5.1813
 30
0.0
  0
SPLINE
  5
137
330
1F
100
AcDbEntity
  8
AXIS
100
AcDbSpline
210
0.0
220
0.0
230
1.0
 70
     8
 71
     3
 72
     8
 73
     4
 74
     0
 42
0.0000000001
 43
0.0000000001
 40
0.0
 40
0.0
 40
0.0
 40
0.0
 40
1.0
 40
1.0
 40
1.0
 40
1.0
 10
9.0778
 20
5.1813
 30
0.0
 10
9.2368
 20
5.1813
 30
0.0
 10
9.4167
 20
5.1995
 30
0.0
 10
9.5768
 20
5.1594
 30
0.0
  0
SPLINE
  5
138
330
1F
100
AcDbEntity
  8
AXIS
100
AcDbSpline
210
0.0
220
0.0
230
1.0
 70
    24
 71
     3
 72
     8
 73
     4
 74
     0
 42
0.0000000001
 43
0.0000000001
 40
0.0
 40
0.0
 40
0.0
 40
0.0
 40
1.0
 40
1.0
 40
1.0
 40
1.0
 10
9.4107
 20
5.1813
 30
0.0
 10
9.4107
 20
5.1813
 30
0.0
 10
9.5829
 20
5.1586
 30
0.0
 10
9.5829
 20
5.1586
 30
0.0
  0
SPLINE
  5
139
330
1F
100
AcDbEntity
  8
AXIS
100
AcDbSpline
210
0.0
220
0.0
230
1.0
 70
     8
 71
     3
 72
     8
 73
     4
 74
     0
 42
0.0000000001
 43
0.0000000001
 40
0.0
 40
0.0
 40
0.0
 40
0.0
 40
1.0
 40
1.0
 40
1.0
 40
1.0
 10
9.5829
 20
5.1586
 30
0.0
 10
9.7527
 20
5.1133
 30
0.0
 10
9.8944
 20
5.0021
 30
0.0
 10
9.9835
 20
4.8533
 30
0.0
  0
SPLINE
  5
13A
330
1F
100
AcDbEntity
  8
AXIS
100
AcDbSpline
210
0.0
220
0.0
230
1.0
 70
     8
 71
     3
 72
     8
 73
     4
 74
     0
 42
0.0000000001
 43
0.0000000001
 40
0.0
 40
0.0
 40
0.0
 40
0.0
 40
1.0
 40
1.0
 40
1.0
 40
1.0
 10
9.7485
 20
5.0883
 30
0.0
 10
9.8972
 20
4.9992
 30
0.0
 10
10.0084
 20
4.8575
 30
0.0
 10
10.0538
 20
4.6878
 30
0.0
  0
SPLINE
  5
13B
330
1F
100
AcDbEntity
  8
AXIS
100
AcDbSpline
210
0.0
220
0.0
230
1.0
 70
    24
 71
     3
 72
     8
 73
     4
 74
     0
 42
0.0000000001
 43
0.0000000001
 40
0.0
 40
0.0
 40
0.0
 40
0.0
 40
1.0
 40
1.0
 40
1.0
 40
1.0
 10
10.0538
 20
4.6878
 30
0.0
 10
10.0538
 20
4.6878
 30
0.0
 10
10.0766
 20
4.5155
 30
0.0
 10
10.0766
 20
4.5155
 30
0.0
  0
SPLINE
  5
13C
330
1F
100
AcDbEntity
  8
AXIS
100
AcDbSpline
210
0.0
220
0.0
230
1.0
 70
     8
 71
     3
 72
     8
 73
     4
 74
     0
 42
0.0000000001
 43
0.0000000001
 40
0.0
 40
0.0
 40
0.0
 40
0.0
 40
1.0
 40
1.0
 40
1.0
 40
1.0
 10
1.7131
 20
4.8533
 30
0.0
 10
1.8022
 20
5.0021
 30
0.0
 10
1.9439
 20
5.1133
 30
0.0
 10
2.1136
 20
5.1586
 30
0.0
  0
SPLINE
  5
13D
330
1F
100
AcDbEntity
  8
AXIS
100
AcDbSpline
210
0.0
220
0.0
230
1.0
 70
    24
 71
     3
 72
     8
 73
     4
 74
     0
 42
0.0000000001
 43
0.0000000001
 40
0.0
 40
0.0
 40
0.0
 40
0.0
 40
1.0
 40
1.0
 40
1.0
 40
1.0
 10
2.1136
 20
5.1586
 30
0.0
 10
2.1136
 20
5.1586
 30
0.0
 10
2.2859
 20
5.1813
 30
0.0
 10
2.2859
 20
5.1813
 30
0.0
  0
SPLINE
  5
13E
330
1F
100
AcDbEntity
  8
AXIS
100
AcDbSpline
210
0.0
220
0.0
230
1.0
 70
    24
 71
     3
 72
     8
 73
     4
 74
     0
 42
0.0000000001
 43
0.0000000001
 40
0.0
 40
0.0
 40
0.0
 40
0.0
 40
1.0
 40
1.0
 40
1.0
 40
1.0
 10
0.9268
 20
-10.3272
 30
0.0
 10
0.9268
 20
-10.3272
 30
0.0
 10
1.0874
 20
-10.2607
 30
0.0
 10
1.0874
 20
-10.2607
 30
0.0
  0
SPLINE
  5
13F
330
1F
100
AcDbEntity
  8
AXIS
100
AcDbSpline
210
0.0
220
0.0
230
1.0
 70
    24
 71
     3
 72
     8
 73
     4
 74
     0
 42
0.0000000001
 43
0.0000000001
 40
0.0
 40
0.0
 40
0.0
 40
0.0
 40
1.0
 40
1.0
 40
1.0
 40
1.0
 10
-18.0288
 20
-10.3272
 30
0.0
 10
-18.0288
 20
-10.3272
 30
0.0
 10
-18.1894
 20
-10.2607
 30
0.0
 10
-18.1894
 20
-10.2607
 30
0.0
  0
SPLINE
  5
140
330
1F
100
AcDbEntity
  8
AXIS
100
AcDbSpline
210
0.0
220
0.0
230
1.0
 70
     8
 71
     3
 72
     8
 73
     4
 74
     0
 42
0.0000000001
 43
0.0000000001
 40
0.0
 40
0.0
 40
0.0
 40
0.0
 40
1.0
 40
1.0
 40
1.0
 40
1.0
 10
-18.5002
 20
4.6839
 30
0.0
 10
-18.5388
 20
4.5198
 30
0.0
 10
-18.5223
 20
4.3497
 30
0.0
 10
-18.5223
 20
4.1826
 30
0.0
  0
SPLINE
  5
141
330
1F
100
AcDbEntity
  8
AXIS
100
AcDbSpline
210
0.0
220
0.0
230
1.0
 70
    24
 71
     3
 72
     8
 73
     4
 74
     0
 42
0.0000000001
 43
0.0000000001
 40
0.0
 40
0.0
 40
0.0
 40
0.0
 40
1.0
 40
1.0
 40
1.0
 40
1.0
 10
-18.5223
 20
4.1826
 30
0.0
 10
-18.5223
 20
4.1826
 30
0.0
 10
-18.5223
 20
-9.3511
 30
0.0
 10
-18.5223
 20
-9.3511
 30
0.0
  0
SPLINE
  5
142
330
1F
100
AcDbEntity
  8
AXIS
100
AcDbSpline
210
0.0
220
0.0
230
1.0
 70
     8
 71
     3
 72
    12
 73
     8
 74
     0
 42
0.0000000001
 43
0.0000000001
 40
0.0
 40
0.0
 40
0.0
 40
0.0
 40
0.3333333333333333
 40
0.3333333333333333
 40
0.3333333333333333
 40
0.3333333333333333
 40
1.0
 40
1.0
 40
1.0
 40
1.0
 10
-18.5223
 20
-9.3511
 30
0.0
 10
-18.5223
 20
-9.5023
 30
0.0
 10
-18.5384
 20
-9.6762
 30
0.0
 10
-18.5059
 20
-9.8307
 30
0.0
 10
-18.5059
 20
-9.8307
 30
0.0
 10
-18.4559
 20
-10.0699
 30
0.0
 10
-18.2649
 20
-10.2616
 30
0.0
 10
-18.0323
 20
-10.3258
 30
0.0
  0
SPLINE
  5
143
330
1F
100
AcDbEntity
  8
AXIS
100
AcDbSpline
210
0.0
220
0.0
230
1.0
 70
     8
 71
     3
 72
     8
 73
     4
 74
     0
 42
0.0000000001
 43
0.0000000001
 40
0.0
 40
0.0
 40
0.0
 40
0.0
 40
1.0
 40
1.0
 40
1.0
 40
1.0
 10
-18.0254
 20
-10.3277
 30
0.0
 10
-17.8692
 20
-10.3708
 30
0.0
 10
-17.6718
 20
-10.3499
 30
0.0
 10
-17.5236
 20
-10.3499
 30
0.0
  0
SPLINE
  5
144
330
1F
100
AcDbEntity
  8
AXIS
100
AcDbSpline
210
0.0
220
0.0
230
1.0
 70
    24
 71
     3
 72
     8
 73
     4
 74
     0
 42
0.0000000001
 43
0.0000000001
 40
0.0
 40
0.0
 40
0.0
 40
0.0
 40
1.0
 40
1.0
 40
1.0
 40
1.0
 10
-17.5236
 20
-10.3499
 30
0.0
 10
-17.5236
 20
-10.3499
 30
0.0
 10
0.4215
 20
-10.3499
 30
0.0
 10
0.4215
 20
-10.3499
 30
0.0
  0
SPLINE
  5
145
330
1F
100
AcDbEntity
  8
AXIS
100
AcDbSpline
210
0.0
220
0.0
230
1.0
 70
     8
 71
     3
 72
     8
 73
     4
 74
     0
 42
0.0000000001
 43
0.0000000001
 40
0.0
 40
0.0
 40
0.0
 40
0.0
 40
1.0
 40
1.0
 40
1.0
 40
1.0
 10
0.4215
 20
-10.3499
 30
0.0
 10
0.5698
 20
-10.3499
 30
0.0
 10
0.7672
 20
-10.3708
 30
0.0
 10
0.9233
 20
-10.3277
 30
0.0
  0
SPLINE
  5
146
330
1F
100
AcDbEntity
  8
AXIS
100
AcDbSpline
210
0.0
220
0.0
230
1.0
 70
     8
 71
     3
 72
    12
 73
     8
 74
     0
 42
0.0000000001
 43
0.0000000001
 40
0.0
 40
0.0
 40
0.0
 40
0.0
 40
0.3333333333333333
 40
0.3333333333333333
 40
0.3333333333333333
 40
0.3333333333333333
 40
1.0
 40
1.0
 40
1.0
 40
1.0
 10
0.9304
 20
-10.3258
 30
0.0
 10
1.1629
 20
-10.2616
 30
0.0
 10
1.3538
 20
-10.0699
 30
0.0
 10
1.4039
 20
-9.8307
 30
0.0
 10
1.4039
 20
-9.8307
 30
0.0
 10
1.4363
 20
-9.6762
 30
0.0
 10
1.4202
 20
-9.5023
 30
0.0
 10
1.4202
 20
-9.3511
 30
0.0
  0
SPLINE
  5
147
330
1F
100
AcDbEntity
  8
AXIS
100
AcDbSpline
210
0.0
220
0.0
230
1.0
 70
    24
 71
     3
 72
     8
 73
     4
 74
     0
 42
0.0000000001
 43
0.0000000001
 40
0.0
 40
0.0
 40
0.0
 40
0.0
 40
1.0
 40
1.0
 40
1.0
 40
1.0
 10
1.4202
 20
-9.3511
 30
0.0
 10
1.4202
 20
-9.3511
 30
0.0
 10
1.4202
 20
4.1826
 30
0.0
 10
1.4202
 20
4.1826
 30
0.0
  0
SPLINE
  5
148
330
1F
100
AcDbEntity
  8
AXIS
100
AcDbSpline
210
0.0
220
0.0
230
1.0
 70
     8
 71
     3
 72
     8
 73
     4
 74
     0
 42
0.0000000001
 43
0.0000000001
 40
0.0
 40
0.0
 40
0.0
 40
0.0
 40
1.0
 40
1.0
 40
1.0
 40
1.0
 10
1.4202
 20
4.1826
 30
0.0
 10
1.4202
 20
4.3497
 30
0.0
 10
1.4366
 20
4.5198
 30
0.0
 10
1.3981
 20
4.6839
 30
0.0
  0
SPLINE
  5
149
330
1F
100
AcDbEntity
  8
AXIS
100
AcDbSpline
210
0.0
220
0.0
230
1.0
 70
     8
 71
     3
 72
     8
 73
     4
 74
     0
 42
0.0000000001
 43
0.0000000001
 40
0.0
 40
0.0
 40
0.0
 40
0.0
 40
1.0
 40
1.0
 40
1.0
 40
1.0
 10
-18.0248
 20
5.1592
 30
0.0
 10
-17.8608
 20
5.1977
 30
0.0
 10
-17.6908
 20
5.1813
 30
0.0
 10
-17.5236
 20
5.1813
 30
0.0
  0
SPLINE
  5
14A
330
1F
100
AcDbEntity
  8
AXIS
100
AcDbSpline
210
0.0
220
0.0
230
1.0
 70
    24
 71
     3
 72
     8
 73
     4
 74
     0
 42
0.0000000001
 43
0.0000000001
 40
0.0
 40
0.0
 40
0.0
 40
0.0
 40
1.0
 40
1.0
 40
1.0
 40
1.0
 10
-17.5236
 20
5.1813
 30
0.0
 10
-17.5236
 20
5.1813
 30
0.0
 10
0.4215
 20
5.1813
 30
0.0
 10
0.4215
 20
5.1813
 30
0.0
  0
SPLINE
  5
14B
330
1F
100
AcDbEntity
  8
AXIS
100
AcDbSpline
210
0.0
220
0.0
230
1.0
 70
     8
 71
     3
 72
     8
 73
     4
 74
     0
 42
0.0000000001
 43
0.0000000001
 40
0.0
 40
0.0
 40
0.0
 40
0.0
 40
1.0
 40
1.0
 40
1.0
 40
1.0
 10
0.4215
 20
5.1813
 30
0.0
 10
0.7139
 20
5.1813
 30
0.0
 10
1.0013
 20
5.2103
 30
0.0
 10
1.2253
 20
4.9864
 30
0.0
  0
SPLINE
  5
14C
330
1F
100
AcDbEntity
  8
AXIS
100
AcDbSpline
210
0.0
220
0.0
230
1.0
 70
    24
 71
     3
 72
     8
 73
     4
 74
     0
 42
0.0000000001
 43
0.0000000001
 40
0.0
 40
0.0
 40
0.0
 40
0.0
 40
1.0
 40
1.0
 40
1.0
 40
1.0
 10
1.2253
 20
4.9864
 30
0.0
 10
1.2253
 20
4.9864
 30
0.0
 10
1.3311
 20
4.8484
 30
0.0
 10
1.3311
 20
4.8484
 30
0.0
  0
SPLINE
  5
14D
330
1F
100
AcDbEntity
  8
AXIS
100
AcDbSpline
210
0.0
220
0.0
230
1.0
 70
     8
 71
     3
 72
     8
 73
     4
 74
     0
 42
0.0000000001
 43
0.0000000001
 40
0.0
 40
0.0
 40
0.0
 40
0.0
 40
1.0
 40
1.0
 40
1.0
 40
1.0
 10
1.3311
 20
4.8484
 30
0.0
 10
1.4094
 20
4.7127
 30
0.0
 10
1.4003
 20
4.6669
 30
0.0
 10
1.4202
 20
4.5155
 30
0.0
  0
SPLINE
  5
14E
330
1F
100
AcDbEntity
  8
AXIS
100
AcDbSpline
210
0.0
220
0.0
230
1.0
 70
    24
 71
     3
 72
     8
 73
     4
 74
     0
 42
0.0000000001
 43
0.0000000001
 40
0.0
 40
0.0
 40
0.0
 40
0.0
 40
1.0
 40
1.0
 40
1.0
 40
1.0
 10
-17.8565
 20
5.1813
 30
0.0
 10
-17.8565
 20
5.1813
 30
0.0
 10
-18.0288
 20
5.1586
 30
0.0
 10
-18.0288
 20
5.1586
 30
0.0
  0
SPLINE
  5
14F
330
1F
100
AcDbEntity
  8
AXIS
100
AcDbSpline
210
0.0
220
0.0
230
1.0
 70
     8
 71
     3
 72
     8
 73
     4
 74
     0
 42
0.0000000001
 43
0.0000000001
 40
0.0
 40
0.0
 40
0.0
 40
0.0
 40
1.0
 40
1.0
 40
1.0
 40
1.0
 10
-18.0288
 20
5.1586
 30
0.0
 10
-18.2565
 20
5.0975
 30
0.0
 10
-18.4386
 20
4.9155
 30
0.0
 10
-18.4997
 20
4.6878
 30
0.0
  0
SPLINE
  5
150
330
1F
100
AcDbEntity
  8
AXIS
100
AcDbSpline
210
0.0
220
0.0
230
1.0
 70
    24
 71
     3
 72
     8
 73
     4
 74
     0
 42
0.0000000001
 43
0.0000000001
 40
0.0
 40
0.0
 40
0.0
 40
0.0
 40
1.0
 40
1.0
 40
1.0
 40
1.0
 10
-18.4997
 20
4.6878
 30
0.0
 10
-18.4997
 20
4.6878
 30
0.0
 10
-18.5223
 20
4.5155
 30
0.0
 10
-18.5223
 20
4.5155
 30
0.0
  0
SPLINE
  5
151
330
1F
100
AcDbEntity
  8
AXIS
100
AcDbSpline
210
0.0
220
0.0
230
1.0
 70
    24
 71
     3
 72
     8
 73
     4
 74
     0
 42
0.0000000001
 43
0.0000000001
 40
0.0
 40
0.0
 40
0.0
 40
0.0
 40
1.0
 40
1.0
 40
1.0
 40
1.0
 10
1.2253
 20
-10.155
 30
0.0
 10
1.2253
 20
-10.155
 30
0.0
 10
1.0874
 20
-10.2607
 30
0.0
 10
1.0874
 20
-10.2607
 30
0.0
  0
SPLINE
  5
152
330
1F
100
AcDbEntity
  8
AXIS
100
AcDbSpline
210
0.0
220
0.0
230
1.0
 70
     8
 71
     3
 72
     8
 73
     4
 74
     0
 42
0.0000000001
 43
0.0000000001
 40
0.0
 40
0.0
 40
0.0
 40
0.0
 40
1.0
 40
1.0
 40
1.0
 40
1.0
 10
1.0874
 20
-10.2607
 30
0.0
 10
0.9856
 20
-10.328
 30
0.0
 10
0.872
 20
-10.3345
 30
0.0
 10
0.7544
 20
-10.3499
 30
0.0
  0
SPLINE
  5
153
330
1F
100
AcDbEntity
  8
AXIS
100
AcDbSpline
210
0.0
220
0.0
230
1.0
 70
    24
 71
     3
 72
     8
 73
     4
 74
     0
 42
0.0000000001
 43
0.0000000001
 40
0.0
 40
0.0
 40
0.0
 40
0.0
 40
1.0
 40
1.0
 40
1.0
 40
1.0
 10
-17.8565
 20
-10.3499
 30
0.0
 10
-17.8565
 20
-10.3499
 30
0.0
 10
-18.0288
 20
-10.3272
 30
0.0
 10
-18.0288
 20
-10.3272
 30
0.0
  0
SPLINE
  5
154
330
1F
100
AcDbEntity
  8
AXIS
100
AcDbSpline
210
0.0
220
0.0
230
1.0
 70
     8
 71
     3
 72
     8
 73
     4
 74
     0
 42
0.0000000001
 43
0.0000000001
 40
0.0
 40
0.0
 40
0.0
 40
0.0
 40
1.0
 40
1.0
 40
1.0
 40
1.0
 10
-18.0288
 20
-10.3272
 30
0.0
 10
-18.2552
 20
-10.2833
 30
0.0
 10
-18.4419
 20
-10.0717
 30
0.0
 10
-18.4997
 20
-9.8564
 30
0.0
  0
SPLINE
  5
155
330
1F
100
AcDbEntity
  8
AXIS
100
AcDbSpline
210
0.0
220
0.0
230
1.0
 70
    24
 71
     3
 72
     8
 73
     4
 74
     0
 42
0.0000000001
 43
0.0000000001
 40
0.0
 40
0.0
 40
0.0
 40
0.0
 40
1.0
 40
1.0
 40
1.0
 40
1.0
 10
-18.4997
 20
-9.8564
 30
0.0
 10
-18.4997
 20
-9.8564
 30
0.0
 10
-18.5223
 20
-9.684
 30
0.0
 10
-18.5223
 20
-9.684
 30
0.0
  0
ENDSEC
  0
SECTION
  2
OBJECTS
  0
DICTIONARY
  5
C
330
0
100
AcDbDictionary
  3
ACAD_GROUP
350
D
  3
ACAD_LAYOUT
350
1A
  3
ACAD_MATERIAL
350
3B
  3
ACAD_MLEADERSTYLE
350
178
  3
ACAD_MLINESTYLE
350
17
  3
ACAD_PLOTSETTINGS
350
19
  3
ACAD_VISUALSTYLE
350
2A
  3
ACDBHEADERROUNDTRIPXREC
350
156
  3
ACDBVARIABLEDICTIONARY
350
176
  0
DICTIONARY
  5
D
102
{ACAD_REACTORS
330
C
102
}
330
C
100
AcDbDictionary
  0
DICTIONARY
  5
1A
102
{ACAD_REACTORS
330
C
102
}
330
C
100
AcDbDictionary
  0
DICTIONARY
  5
3B
102
{ACAD_REACTORS
330
C
102
}
330
C
100
AcDbDictionary
  3
BYBLOCK
350
3D
  3
BYLAYER
350
3C
  3
GLOBAL
350
3E
  0
DICTIONARY
  5
178
102
{ACAD_REACTORS
330
C
102
}
330
C
100
AcDbDictionary
  0
DICTIONARY
  5
17
102
{ACAD_REACTORS
330
C
102
}
330
C
100
AcDbDictionary
  3
STANDARD
350
18
  0
DICTIONARY
  5
19
102
{ACAD_REACTORS
330
C
102
}
330
C
100
AcDbDictionary
  0
DICTIONARY
  5
2A
102
{ACAD_REACTORS
330
C
102
}
330
C
100
AcDbDictionary
  3
2DWIREFRAME
350
2F
  3
3D_HIDDEN
350
31
  3
3DWIREFRAME
350
30
  3
BASIC
350
32
  3
BRIGHTEN
350
36
  3
COLORCHANGE
350
3A
  3
CONCEPTUAL
350
34
  3
DIM
350
35
  3
FACEPATTERN
350
39
  3
FLAT
350
2B
  3
FLATWITHEDGES
350
2C
  3
GOURAUD
350
2D
  3
GOURAUDWITHEDGES
350
2E
  3
LINEPATTERN
350
38
  3
REALISTIC
350
33
  3
THICKEN
350
37
  0
DICTIONARY
  5
156
102
{ACAD_REACTORS
330
C
102
}
330
C
100
AcDbDictionary
  3
CEPSNTYPE
350
15F
  3
DIMSTYLEDATA
350
175
  3
FINGERPRINTGUID
350
160
  3
HYPERLINKBASE
350
159
  3
INSUNITS
350
15E
  3
LAYOUTDICT
350
15B
  3
LWETCUNION
350
15D
  3
PLOTSETDICT
350
15C
  3
PSVPSCALE
350
162
  3
PUCSBASE
350
165
  3
PUCSORGBACK
350
16B
  3
PUCSORGBOTTOM
350
167
  3
PUCSORGFRONT
350
16A
  3
PUCSORGLEFT
350
168
  3
PUCSORGRIGHT
350
169
  3
PUCSORGTOP
350
166
  3
PUCSORTHOREF
350
163
  3
PUCSORTHOVIEW
350
164
  3
STYLESHEET
350
15A
  3
TSTACKALIGN
350
157
  3
TSTACKSIZE
350
158
  3
UCSBASE
350
16E
  3
UCSORGBACK
350
174
  3
UCSORGBOTTOM
350
170
  3
UCSORGFRONT
350
173
  3
UCSORGLEFT
350
171
  3
UCSORGRIGHT
350
172
  3
UCSORGTOP
350
16F
  3
UCSORTHOREF
350
16C
  3
UCSORTHOVIEW
350
16D
  3
VERSIONGUID
350
161
  0
DICTIONARY
  5
176
102
{ACAD_REACTORS
330
C
102
}
330
C
100
AcDbDictionary
  3
DIMASSOC
350
179
  3
HIDETEXT
350
17A
  0
MATERIAL
  5
3D
102
{ACAD_REACTORS
330
3B
102
}
102
{ACAD_XDICTIONARY
360
17D
102
}
330
3B
100
AcDbMaterial
  1
ByBlock
  0
MATERIAL
  5
3C
102
{ACAD_REACTORS
330
3B
102
}
102
{ACAD_XDICTIONARY
360
17B
102
}
330
3B
100
AcDbMaterial
  1
ByLayer
  0
MATERIAL
  5
3E
102
{ACAD_REACTORS
330
3B
102
}
102
{ACAD_XDICTIONARY
360
17F
102
}
330
3B
100
AcDbMaterial
  1
Global
  0
MLINESTYLE
  5
18
102
{ACAD_REACTORS
330
17
102
}
330
17
100
AcDbMlineStyle
  2
Standard
 70
     0
  3

 62
   256
 51
90.0
 52
90.0
 71
     2
 49
0.5
 62
   256
  6
BYLAYER
 49
-0.5
 62
   256
  6
BYLAYER
  0
ACAD_PROXY_OBJECT
  5
2F
102
{ACAD_REACTORS
330
2A
102
}
330
2A
100
AcDbProxyObject
 90
      499
 91
      501
 93
      436
310
42CC9915DA5C99599C985B595049028333333333333E3BF0000000000000FB0107901411070040501600405405064090741402480A0340
1001
ACAD
1000
AcDbSavedByObjectVersion
1070
     0
  0
ACAD_PROXY_OBJECT
  5
31
102
{ACAD_REACTORS
330
2A
102
}
330
2A
100
AcDbProxyObject
 90
      499
 91
      501
 93
      500
310
424CD108121A5919195B90640502408333333333333E3BF0000000000000FB01079024090700405020000000000001110200405405064090740C02480A0340
1001
ACAD
1000
AcDbSavedByObjectVersion
1070
     0
  0
ACAD_PROXY_OBJECT
  5
30
102
{ACAD_REACTORS
330
2A
102
}
330
2A
100
AcDbProxyObject
 90
      499
 91
      501
 93
      436
310
42CCD915DA5C99599C985B595059028333333333333E3BF0000000000000FB0107901411070040501600405405064090741402480A0340
1001
ACAD
1000
AcDbSavedByObjectVersion
1070
     0
  0
ACAD_PROXY_OBJECT
  5
32
102
{ACAD_REACTORS
330
2A
102
}
330
2A
100
AcDbProxyObject
 90
      499
 91
      501
 93
      388
310
4150985CDA58D07406404333333333333E3BF0000000000000FB0107A41107004050150841D405064090741402480A0350
1001
ACAD
1000
AcDbSavedByObjectVersion
1070
     0
  0
ACAD_PROXY_OBJECT
  5
36
102
{ACAD_REACTORS
330
2A
102
}
330
2A
100
AcDbProxyObject
 90
      499
 91
      501
 93
      428
310
42109C9A59DA1D195B90C409028333333333333E3BF0000000000000FB010790141107004050150841D405064090741402480A029950
1001
ACAD
1000
AcDbSavedByObjectVersion
1070
     0
  0
ACAD_PROXY_OBJECT
  5
3A
102
{ACAD_REACTORS
330
2A
102
}
330
2A
100
AcDbProxyObject
 90
      499
 91
      501
 93
      452
310
42D0DBDB1BDC90DA185B99D95104090240C333333333333E3BF0000000000000FB0108901411070040501508421405064090741402480A0350
1001
ACAD
1000
AcDbSavedByObjectVersion
1070
     0
  0
ACAD_PROXY_OBJECT
  5
34
102
{ACAD_REACTORS
330
2A
102
}
330
2A
100
AcDbProxyObject
 90
      499
 91
      501
 93
      500
310
4290DBDB98D95C1D1D585B10940D028333333333333E3BF0000000000000FB0107902409070040501000000000000111010841D405064090740C02480A0340
1001
ACAD
1000
AcDbSavedByObjectVersion
1070
     0
  0
ACAD_PROXY_OBJECT
  5
35
102
{ACAD_REACTORS
330
2A
102
}
330
2A
100
AcDbProxyObject
 90
      499
 91
      501
 93
      412
310
40D11A5B50B409028333333333333E3BF0000000000000FB010790141107004050150841D405064090741402480A02677FFFFFD0
1001
ACAD
1000
AcDbSavedByObjectVersion
1070
     0
  0
ACAD_PROXY_OBJECT
  5
39
102
{ACAD_REACTORS
330
2A
102
}
330
2A
100
AcDbProxyObject
 90
      499
 91
      501
 93
      444
310
42D19858D95C185D1D195C9B90F409028333333333333E3BF0000000000000FB010790141107004050150841D405064090741402480A0350
1001
ACAD
1000
AcDbSavedByObjectVersion
1070
     0
  0
ACAD_PROXY_OBJECT
  5
2B
102
{ACAD_REACTORS
330
2A
102
}
330
2A
100
AcDbProxyObject
 90
      499
 91
      501
 93
      388
310
41119B185D240901404333333333333E3BF0000000000000F9010740A41107004050150841D405064090741402480A1B50
1001
ACAD
1000
AcDbSavedByObjectVersion
1070
     0
  0
ACAD_PROXY_OBJECT
  5
2C
102
{ACAD_REACTORS
330
2A
102
}
330
2A
100
AcDbProxyObject
 90
      499
 91
      501
 93
      476
310
43519B185D15DA5D1A115919D95CD0140901404333333333333E3BF0000000000000F9010740901411070040501600405405064090741402480A1B50
1001
ACAD
1000
AcDbSavedByObjectVersion
1070
     0
  0
ACAD_PROXY_OBJECT
  5
2D
102
{ACAD_REACTORS
330
2A
102
}
330
2A
100
AcDbProxyObject
 90
      499
 91
      501
 93
      412
310
41D1DBDD5C985D5910240902404333333333333E3BF0000000000000F9010740A411070040501641D405064090741402480A1B50
1001
ACAD
1000
AcDbSavedByObjectVersion
1070
     0
  0
ACAD_PROXY_OBJECT
  5
2E
102
{ACAD_REACTORS
330
2A
102
}
330
2A
100
AcDbProxyObject
 90
      499
 91
      501
 93
      500
310
4411DBDD5C985D5915DA5D1A115919D95CD0340902404333333333333E3BF0000000000000F9010740901411070040501600405405064090741402480A1B50
1001
ACAD
1000
AcDbSavedByObjectVersion
1070
     0
  0
ACAD_PROXY_OBJECT
  5
38
102
{ACAD_REACTORS
330
2A
102
}
330
2A
100
AcDbProxyObject
 90
      499
 91
      501
 93
      444
310
42D31A5B995C185D1D195C9B90E409028333333333333E3BF0000000000000FB010790141107004050750841D405064090741402483A0350
1001
ACAD
1000
AcDbSavedByObjectVersion
1070
     0
  0
ACAD_PROXY_OBJECT
  5
33
102
{ACAD_REACTORS
330
2A
102
}
330
2A
100
AcDbProxyObject
 90
      499
 91
      501
 93
      420
310
425499585B1A5CDD1A58D08409028333333333333E3BF0000000000000FB01079019070040501508421405064090741402480A1B40
1001
ACAD
1000
AcDbSavedByObjectVersion
1070
     0
  0
ACAD_PROXY_OBJECT
  5
37
102
{ACAD_REACTORS
330
2A
102
}
330
2A
100
AcDbProxyObject
 90
      499
 91
      501
 93
      412
310
41D51A1A58DAD95B90D409028333333333333E3BF0000000000000FB010790141107004050150C41D405064090741402480A0350
1001
ACAD
1000
AcDbSavedByObjectVersion
1070
     0
  0
XRECORD
  5
15F
102
{ACAD_REACTORS
330
156
102
}
330
156
100
AcDbXrecord
 90
        0
  0
XRECORD
  5
175
102
{ACAD_REACTORS
330
156
102
}
330
156
100
AcDbXrecord
1000
DSTYLE
1002
{
1070
   340
340
11
1002
}
  0
XRECORD
  5
160
102
{ACAD_REACTORS
330
156
102
}
330
156
100
AcDbXrecord
  1
{50147B70-459E-44EF-81E0-42C2A949170D}
  0
XRECORD
  5
159
102
{ACAD_REACTORS
330
156
102
}
330
156
100
AcDbXrecord
  1

  0
XRECORD
  5
15E
102
{ACAD_REACTORS
330
156
102
}
330
156
100
AcDbXrecord
 90
        4
  0
XRECORD
  5
15B
102
{ACAD_REACTORS
330
156
102
}
330
156
100
AcDbXrecord
340
1A
  0
XRECORD
  5
15D
102
{ACAD_REACTORS
330
156
102
}
330
156
100
AcDbXrecord
 90
    10781
  0
XRECORD
  5
15C
102
{ACAD_REACTORS
330
156
102
}
330
156
100
AcDbXrecord
340
19
  0
XRECORD
  5
162
102
{ACAD_REACTORS
330
156
102
}
330
156
100
AcDbXrecord
 40
0.0
  0
XRECORD
  5
165
102
{ACAD_REACTORS
330
156
102
}
330
156
100
AcDbXrecord
340
0
  0
XRECORD
  5
16B
102
{ACAD_REACTORS
330
156
102
}
330
156
100
AcDbXrecord
 10
0.0
 20
0.0
 30
0.0
  0
XRECORD
  5
167
102
{ACAD_REACTORS
330
156
102
}
330
156
100
AcDbXrecord
 10
0.0
 20
0.0
 30
0.0
  0
XRECORD
  5
16A
102
{ACAD_REACTORS
330
156
102
}
330
156
100
AcDbXrecord
 10
0.0
 20
0.0
 30
0.0
  0
XRECORD
  5
168
102
{ACAD_REACTORS
330
156
102
}
330
156
100
AcDbXrecord
 10
0.0
 20
0.0
 30
0.0
  0
XRECORD
  5
169
102
{ACAD_REACTORS
330
156
102
}
330
156
100
AcDbXrecord
 10
0.0
 20
0.0
 30
0.0
  0
XRECORD
  5
166
102
{ACAD_REACTORS
330
156
102
}
330
156
100
AcDbXrecord
 10
0.0
 20
0.0
 30
0.0
  0
XRECORD
  5
163
102
{ACAD_REACTORS
330
156
102
}
330
156
100
AcDbXrecord
340
0
  0
XRECORD
  5
164
102
{ACAD_REACTORS
330
156
102
}
330
156
100
AcDbXrecord
 70
     0
  0
XRECORD
  5
15A
102
{ACAD_REACTORS
330
156
102
}
330
156
100
AcDbXrecord
  1

  0
XRECORD
  5
157
102
{ACAD_REACTORS
330
156
102
}
330
156
100
AcDbXrecord
 90
        1
  0
XRECORD
  5
158
102
{ACAD_REACTORS
330
156
102
}
330
156
100
AcDbXrecord
 90
       70
  0
XRECORD
  5
16E
102
{ACAD_REACTORS
330
156
102
}
330
156
100
AcDbXrecord
340
0
  0
XRECORD
  5
174
102
{ACAD_REACTORS
330
156
102
}
330
156
100
AcDbXrecord
 10
0.0
 20
0.0
 30
0.0
  0
XRECORD
  5
170
102
{ACAD_REACTORS
330
156
102
}
330
156
100
AcDbXrecord
 10
0.0
 20
0.0
 30
0.0
  0
XRECORD
  5
173
102
{ACAD_REACTORS
330
156
102
}
330
156
100
AcDbXrecord
 10
0.0
 20
0.0
 30
0.0
  0
XRECORD
  5
171
102
{ACAD_REACTORS
330
156
102
}
330
156
100
AcDbXrecord
 10
0.0
 20
0.0
 30
0.0
  0
XRECORD
  5
172
102
{ACAD_REACTORS
330
156
102
}
330
156
100
AcDbXrecord
 10
0.0
 20
0.0
 30
0.0
  0
XRECORD
  5
16F
102
{ACAD_REACTORS
330
156
102
}
330
156
100
AcDbXrecord
 10
0.0
 20
0.0
 30
0.0
  0
XRECORD
  5
16C
102
{ACAD_REACTORS
330
156
102
}
330
156
100
AcDbXrecord
340
0
  0
XRECORD
  5
16D
102
{ACAD_REACTORS
330
156
102
}
330
156
100
AcDbXrecord
 70
     0
  0
XRECORD
  5
161
102
{ACAD_REACTORS
330
156
102
}
330
156
100
AcDbXrecord
  1
{FAEB1C32-E019-11D5-929B-00C0DF256EC4}
  0
DICTIONARYVAR
  5
179
102
{ACAD_REACTORS
330
176
102
}
330
176
100
DictionaryVariables
280
     0
  1
2
  0
DICTIONARYVAR
  5
17A
102
{ACAD_REACTORS
330
176
102
}
330
176
100
DictionaryVariables
280
     0
  1
1
  0
DICTIONARY
  5
17D
330
3D
100
AcDbDictionary
280
     1
  3
ACAD_XREC_ROUNDTRIP
360
17E
  0
DICTIONARY
  5
17B
330
3C
100
AcDbDictionary
280
     1
  3
ACAD_XREC_ROUNDTRIP
360
17C
  0
DICTIONARY
  5
17F
330
3E
100
AcDbDictionary
280
     1
  3
ACAD_XREC_ROUNDTRIP
360
180
  0
XRECORD
  5
17E
102
{ACAD_REACTORS
330
17D
102
}
330
17D
100
AcDbXrecord
102
MATERIAL
148
0.0
149
0.0
149
0.0
 93
        0
 94
      127
282
     0
 72
     1
 77
     1
171
     1
175
     1
179
     1
273
     0
  0
XRECORD
  5
17C
102
{ACAD_REACTORS
330
17B
102
}
330
17B
100
AcDbXrecord
102
MATERIAL
148
0.0
149
0.0
149
0.0
 93
        0
 94
      127
282
     0
 72
     1
 77
     1
171
     1
175
     1
179
     1
273
     0
  0
XRECORD
  5
180
102
{ACAD_REACTORS
330
17F
102
}
330
17F
100
AcDbXrecord
102
MATERIAL
148
0.0
149
0.0
149
0.0
 93
        0
 94
      127
282
     0
 72
     1
 77
     1
171
     1
175
     1
179
     1
273
     0
  0
ENDSEC
  0
EOF
