  0
SECTION
  2
HEADER
  9
$ACADVER
  1
AC1014
  9
$ACADMAINTVER
 70
     9
  9
$DWGCODEPAGE
  3
ANSI_1250
  9
$INSBASE
 10
0.0
 20
0.0
 30
0.0
  9
$EXTMIN
 10
-19.7226
 20
-36.506
 30
0.0
  9
$EXTMAX
 10
19.793
 20
36.4357
 30
0.0
  9
$LIMMIN
 10
0.0
 20
0.0
  9
$LIMMAX
 10
12.0
 20
9.0
  9
$ORTHOMODE
 70
     0
  9
$REGENMODE
 70
     1
  9
$FILLMODE
 70
     1
  9
$QTEXTMODE
 70
     0
  9
$MIRRTEXT
 70
     1
  9
$DRAGMODE
 70
     2
  9
$LTSCALE
 40
1.0
  9
$OSMODE
 70
    37
  9
$ATTMODE
 70
     1
  9
$TEXTSIZE
 40
0.2
  9
$TRACEWID
 40
0.05
  9
$TEXTSTYLE
  7
STANDARD
  9
$CLAYER
  8
0
  9
$CELTYPE
  6
BYLAYER
  9
$CECOLOR
 62
   256
  9
$CELTSCALE
 40
1.0
  9
$DELOBJ
 70
     1
  9
$DISPSILH
 70
     0
  9
$DIMSCALE
 40
1.0
  9
$DIMASZ
 40
0.18
  9
$DIMEXO
 40
0.0625
  9
$DIMDLI
 40
0.38
  9
$DIMRND
 40
0.0
  9
$DIMDLE
 40
0.0
  9
$DIMEXE
 40
0.18
  9
$DIMTP
 40
0.0
  9
$DIMTM
 40
0.0
  9
$DIMTXT
 40
0.18
  9
$DIMCEN
 40
0.09
  9
$DIMTSZ
 40
0.0
  9
$DIMTOL
 70
     0
  9
$DIMLIM
 70
     0
  9
$DIMTIH
 70
     1
  9
$DIMTOH
 70
     1
  9
$DIMSE1
 70
     0
  9
$DIMSE2
 70
     0
  9
$DIMTAD
 70
     0
  9
$DIMZIN
 70
     0
  9
$DIMBLK
  1

  9
$DIMASO
 70
     1
  9
$DIMSHO
 70
     1
  9
$DIMPOST
  1

  9
$DIMAPOST
  1

  9
$DIMALT
 70
     0
  9
$DIMALTD
 70
     2
  9
$DIMALTF
 40
25.4
  9
$DIMLFAC
 40
1.0
  9
$DIMTOFL
 70
     0
  9
$DIMTVP
 40
0.0
  9
$DIMTIX
 70
     0
  9
$DIMSOXD
 70
     0
  9
$DIMSAH
 70
     0
  9
$DIMBLK1
  1

  9
$DIMBLK2
  1

  9
$DIMSTYLE
  2
STANDARD
  9
$DIMCLRD
 70
     0
  9
$DIMCLRE
 70
     0
  9
$DIMCLRT
 70
     0
  9
$DIMTFAC
 40
1.0
  9
$DIMGAP
 40
0.09
  9
$DIMJUST
 70
     0
  9
$DIMSD1
 70
     0
  9
$DIMSD2
 70
     0
  9
$DIMTOLJ
 70
     1
  9
$DIMTZIN
 70
     0
  9
$DIMALTZ
 70
     0
  9
$DIMALTTZ
 70
     0
  9
$DIMFIT
 70
     3
  9
$DIMUPT
 70
     0
  9
$DIMUNIT
 70
     2
  9
$DIMDEC
 70
     4
  9
$DIMTDEC
 70
     4
  9
$DIMALTU
 70
     2
  9
$DIMALTTD
 70
     2
  9
$DIMTXSTY
  7
STANDARD
  9
$DIMAUNIT
 70
     0
  9
$LUNITS
 70
     2
  9
$LUPREC
 70
     4
  9
$SKETCHINC
 40
0.1
  9
$FILLETRAD
 40
0.5
  9
$AUNITS
 70
     0
  9
$AUPREC
 70
     0
  9
$MENU
  1
.
  9
$ELEVATION
 40
0.0
  9
$PELEVATION
 40
0.0
  9
$THICKNESS
 40
0.0
  9
$LIMCHECK
 70
     0
  9
$CHAMFERA
 40
0.5
  9
$CHAMFERB
 40
0.5
  9
$CHAMFERC
 40
1.0
  9
$CHAMFERD
 40
0.0
  9
$SKPOLY
 70
     0
  9
$TDCREATE
 40
2456232.482301377
  9
$TDUPDATE
 40
2456232.482301389
  9
$TDINDWG
 40
0.0000000116
  9
$TDUSRTIMER
 40
0.0000000116
  9
$USRTIMER
 70
     1
  9
$ANGBASE
 50
0.0
  9
$ANGDIR
 70
     0
  9
$PDMODE
 70
     0
  9
$PDSIZE
 40
0.0
  9
$PLINEWID
 40
0.0
  9
$COORDS
 70
     1
  9
$SPLFRAME
 70
     0
  9
$SPLINETYPE
 70
     6
  9
$SPLINESEGS
 70
     8
  9
$ATTDIA
 70
     0
  9
$ATTREQ
 70
     1
  9
$HANDLING
 70
     1
  9
$HANDSEED
  5
1FE
  9
$SURFTAB1
 70
     6
  9
$SURFTAB2
 70
     6
  9
$SURFTYPE
 70
     6
  9
$SURFU
 70
     6
  9
$SURFV
 70
     6
  9
$UCSNAME
  2

  9
$UCSORG
 10
0.0
 20
0.0
 30
0.0
  9
$UCSXDIR
 10
1.0
 20
0.0
 30
0.0
  9
$UCSYDIR
 10
0.0
 20
1.0
 30
0.0
  9
$PUCSNAME
  2

  9
$PUCSORG
 10
0.0
 20
0.0
 30
0.0
  9
$PUCSXDIR
 10
1.0
 20
0.0
 30
0.0
  9
$PUCSYDIR
 10
0.0
 20
1.0
 30
0.0
  9
$USERI1
 70
     0
  9
$USERI2
 70
     0
  9
$USERI3
 70
     0
  9
$USERI4
 70
     0
  9
$USERI5
 70
     0
  9
$USERR1
 40
0.0
  9
$USERR2
 40
0.0
  9
$USERR3
 40
0.0
  9
$USERR4
 40
0.0
  9
$USERR5
 40
0.0
  9
$WORLDVIEW
 70
     1
  9
$SHADEDGE
 70
     3
  9
$SHADEDIF
 70
    70
  9
$TILEMODE
 70
     1
  9
$MAXACTVP
 70
    64
  9
$PINSBASE
 10
0.0
 20
0.0
 30
0.0
  9
$PLIMCHECK
 70
     0
  9
$PEXTMIN
 10
1.000000000000000E+20
 20
1.000000000000000E+20
 30
1.000000000000000E+20
  9
$PEXTMAX
 10
-1.000000000000000E+20
 20
-1.000000000000000E+20
 30
-1.000000000000000E+20
  9
$PLIMMIN
 10
0.0
 20
0.0
  9
$PLIMMAX
 10
12.0
 20
9.0
  9
$UNITMODE
 70
     0
  9
$VISRETAIN
 70
     1
  9
$PLINEGEN
 70
     0
  9
$PSLTSCALE
 70
     1
  9
$TREEDEPTH
 70
  3020
  9
$PICKSTYLE
 70
     1
  9
$CMLSTYLE
  2
STANDARD
  9
$CMLJUST
 70
     0
  9
$CMLSCALE
 40
1.0
  9
$PROXYGRAPHICS
 70
     1
  9
$MEASUREMENT
 70
     0
  0
ENDSEC
  0
SECTION
  2
CLASSES
  0
CLASS
  1
ACDBDICTIONARYWDFLT
  2
AcDbDictionaryWithDefault
  3
ObjectDBX Classes
 90
        0
280
     0
281
     0
  0
CLASS
  1
VISUALSTYLE
  2
AcDbVisualStyle
  3
ObjectDBX Classes
 90
     4095
280
     0
281
     0
  0
CLASS
  1
MATERIAL
  2
AcDbMaterial
  3
ObjectDBX Classes
 90
     1153
280
     0
281
     0
  0
CLASS
  1
DICTIONARYVAR
  2
AcDbDictionaryVar
  3
ObjectDBX Classes
 90
        0
280
     0
281
     0
  0
CLASS
  1
XRECORD
  2
AcDbXrecord
  3
AutoCAD 2000
 90
        0
280
     0
281
     0
  0
CLASS
  1
LWPOLYLINE
  2
AcDbPolyline
  3
AutoCAD 2000
 90
        0
280
     0
281
     1
  0
CLASS
  1
HATCH
  2
AcDbHatch
  3
AutoCAD 2000
 90
        0
280
     0
281
     1
  0
CLASS
  1
ACDBPLACEHOLDER
  2
AcDbPlaceHolder
  3
ObjectDBX Classes
 90
        0
280
     0
281
     0
  0
CLASS
  1
LAYOUT
  2
AcDbLayout
  3
ObjectDBX Classes
 90
        0
280
     0
281
     0
  0
ENDSEC
  0
SECTION
  2
TABLES
  0
TABLE
  2
VPORT
  5
8
330
0
100
AcDbSymbolTable
 70
     1
  0
VPORT
  5
29
330
8
100
AcDbSymbolTableRecord
100
AcDbViewportTableRecord
  2
*ACTIVE
 70
     0
 10
0.0
 20
0.0
 11
1.0
 21
1.0
 12
10.42990654205607
 22
4.5
 13
0.0
 23
0.0
 14
0.5
 24
0.5
 15
0.5
 25
0.5
 16
0.0
 26
0.0
 36
1.0
 17
0.0
 27
0.0
 37
0.0
 40
9.0
 41
1.972972972850329
 42
50.0
 43
0.0
 44
0.0
 50
0.0
 51
0.0
 71
     0
 72
   100
 73
     1
 74
     3
 75
     0
 76
     0
 77
     0
 78
     0
  0
ENDTAB
  0
TABLE
  2
LTYPE
  5
5
330
0
100
AcDbSymbolTable
 70
     4
  0
LTYPE
  5
14
330
5
100
AcDbSymbolTableRecord
100
AcDbLinetypeTableRecord
  2
BYBLOCK
 70
     0
  3

 72
    65
 73
     0
 40
0.0
  0
LTYPE
  5
15
330
5
100
AcDbSymbolTableRecord
100
AcDbLinetypeTableRecord
  2
BYLAYER
 70
     0
  3

 72
    65
 73
     0
 40
0.0
  0
LTYPE
  5
16
330
5
100
AcDbSymbolTableRecord
100
AcDbLinetypeTableRecord
  2
CONTINUOUS
 70
     0
  3
Solid line
 72
    65
 73
     0
 40
0.0
  0
LTYPE
  5
165
330
5
100
AcDbSymbolTableRecord
100
AcDbLinetypeTableRecord
  2
NEW_LINE1
 70
     0
  3

 72
    65
 73
     4
 40
1.2
 49
0.5
 74
     4
 75
     0
340
0
 46
1.0
 50
0.0
 44
0.0
 45
0.0
 49
-0.3
 74
     4
 75
     0
340
0
 46
1.0
 50
0.0
 44
0.0
 45
0.0
 49
0.1
 74
     4
 75
     0
340
0
 46
1.0
 50
0.0
 44
0.0
 45
0.0
 49
-0.3
 74
     4
 75
     0
340
0
 46
1.0
 50
0.0
 44
0.0
 45
0.0
  0
LTYPE
  5
178
330
5
100
AcDbSymbolTableRecord
100
AcDbLinetypeTableRecord
  2
NEW_LINE2
 70
     0
  3

 72
    65
 73
     4
 40
1.2
 49
0.5
 74
     4
 75
     0
340
0
 46
1.0
 50
0.0
 44
0.0
 45
0.0
 49
-0.3
 74
     4
 75
     0
340
0
 46
1.0
 50
0.0
 44
0.0
 45
0.0
 49
0.1
 74
     4
 75
     0
340
0
 46
1.0
 50
0.0
 44
0.0
 45
0.0
 49
-0.3
 74
     4
 75
     0
340
0
 46
1.0
 50
0.0
 44
0.0
 45
0.0
  0
LTYPE
  5
17C
330
5
100
AcDbSymbolTableRecord
100
AcDbLinetypeTableRecord
  2
NEW_LINE3
 70
     0
  3

 72
    65
 73
     4
 40
1.2
 49
0.5
 74
     4
 75
     0
340
0
 46
1.0
 50
0.0
 44
0.0
 45
0.0
 49
-0.3
 74
     4
 75
     0
340
0
 46
1.0
 50
0.0
 44
0.0
 45
0.0
 49
0.1
 74
     4
 75
     0
340
0
 46
1.0
 50
0.0
 44
0.0
 45
0.0
 49
-0.3
 74
     4
 75
     0
340
0
 46
1.0
 50
0.0
 44
0.0
 45
0.0
  0
ENDTAB
  0
TABLE
  2
LAYER
  5
2
330
0
100
AcDbSymbolTable
 70
     2
  0
LAYER
  5
10
330
2
100
AcDbSymbolTableRecord
100
AcDbLayerTableRecord
  2
0
 70
     0
 62
     7
  6
CONTINUOUS
  0
LAYER
  5
40
330
2
100
AcDbSymbolTableRecord
100
AcDbLayerTableRecord
  2
AXIS
 70
     0
 62
     7
  6
CONTINUOUS
  0
ENDTAB
  0
TABLE
  2
STYLE
  5
3
330
0
100
AcDbSymbolTable
 70
     1
  0
STYLE
  5
11
330
3
100
AcDbSymbolTableRecord
100
AcDbTextStyleTableRecord
  2
STANDARD
 70
     0
 40
0.0
 41
1.0
 50
0.0
 71
     0
 42
0.2
  3
txt
  4

  0
ENDTAB
  0
TABLE
  2
VIEW
  5
6
330
0
100
AcDbSymbolTable
 70
     0
  0
ENDTAB
  0
TABLE
  2
UCS
  5
7
330
0
100
AcDbSymbolTable
 70
     0
  0
ENDTAB
  0
TABLE
  2
APPID
  5
9
330
0
100
AcDbSymbolTable
 70
     2
  0
APPID
  5
12
330
9
100
AcDbSymbolTableRecord
100
AcDbRegAppTableRecord
  2
ACAD
 70
     0
  0
APPID
  5
3F
330
9
100
AcDbSymbolTableRecord
100
AcDbRegAppTableRecord
  2
ODA
 70
     0
  0
ENDTAB
  0
TABLE
  2
DIMSTYLE
  5
A
330
0
100
AcDbSymbolTable
 70
     1
  0
DIMSTYLE
105
27
330
A
100
AcDbSymbolTableRecord
100
AcDbDimStyleTableRecord
  2
STANDARD
 70
     0
  3

  4

  5

  6

  7

 40
1.0
 41
0.18
 42
0.0625
 43
0.38
 44
0.18
 45
0.0
 46
0.0
 47
0.0
 48
0.0
140
0.18
141
0.09
142
0.0
143
25.4
144
1.0
145
0.0
146
1.0
147
0.09
 71
     0
 72
     0
 73
     1
 74
     1
 75
     0
 76
     0
 77
     0
 78
     0
170
     0
171
     2
172
     0
173
     0
174
     0
175
     0
176
     0
177
     0
178
     0
270
     2
271
     4
272
     4
273
     2
274
     2
340
11
275
     0
280
     0
281
     0
282
     0
283
     1
284
     0
285
     0
286
     0
287
     3
288
     0
  0
ENDTAB
  0
TABLE
  2
BLOCK_RECORD
  5
1
330
0
100
AcDbSymbolTable
 70
     1
  0
BLOCK_RECORD
  5
1F
330
1
100
AcDbSymbolTableRecord
100
AcDbBlockTableRecord
  2
*MODEL_SPACE
  0
BLOCK_RECORD
  5
1B
330
1
100
AcDbSymbolTableRecord
100
AcDbBlockTableRecord
  2
*PAPER_SPACE
  0
ENDTAB
  0
ENDSEC
  0
SECTION
  2
BLOCKS
  0
BLOCK
  5
20
330
1F
100
AcDbEntity
  8
0
100
AcDbBlockBegin
  2
*MODEL_SPACE
 70
     0
 10
0.0
 20
0.0
 30
0.0
  3
*MODEL_SPACE
  1

  0
ENDBLK
  5
21
330
1F
100
AcDbEntity
  8
0
100
AcDbBlockEnd
  0
BLOCK
  5
1C
330
1B
100
AcDbEntity
 67
     1
  8
0
100
AcDbBlockBegin
  2
*PAPER_SPACE
 70
     0
 10
0.0
 20
0.0
 30
0.0
  3
*PAPER_SPACE
  1

  0
ENDBLK
  5
1D
330
1B
100
AcDbEntity
 67
     1
  8
0
100
AcDbBlockEnd
  0
ENDSEC
  0
SECTION
  2
ENTITIES
  0
SPLINE
  5
41
330
1F
100
AcDbEntity
  8
AXIS
 62
   250
100
AcDbSpline
210
0.0
220
0.0
230
1.0
 70
    24
 71
     3
 72
     8
 73
     4
 74
     0
 42
0.0000000001
 43
0.0000000001
 40
0.0
 40
0.0
 40
0.0
 40
0.0
 40
1.0
 40
1.0
 40
1.0
 40
1.0
 10
-1.357
 20
5.2057
 30
0.0
 10
-1.357
 20
5.2057
 30
0.0
 10
-17.8828
 20
5.2057
 30
0.0
 10
-17.8828
 20
5.2057
 30
0.0
  0
SPLINE
  5
42
330
1F
100
AcDbEntity
  8
AXIS
 62
   250
100
AcDbSpline
210
0.0
220
0.0
230
1.0
 70
    24
 71
     3
 72
     8
 73
     4
 74
     0
 42
0.0000000001
 43
0.0000000001
 40
0.0
 40
0.0
 40
0.0
 40
0.0
 40
1.0
 40
1.0
 40
1.0
 40
1.0
 10
-13.208
 20
28.6205
 30
0.0
 10
-13.208
 20
28.6205
 30
0.0
 10
-17.701
 20
28.6205
 30
0.0
 10
-17.701
 20
28.6205
 30
0.0
  0
SPLINE
  5
43
330
1F
100
AcDbEntity
  8
AXIS
 62
   250
100
AcDbSpline
210
0.0
220
0.0
230
1.0
 70
    24
 71
     3
 72
     8
 73
     4
 74
     0
 42
0.0000000001
 43
0.0000000001
 40
0.0
 40
0.0
 40
0.0
 40
0.0
 40
1.0
 40
1.0
 40
1.0
 40
1.0
 10
13.5452
 20
31.8283
 30
0.0
 10
13.5452
 20
31.8283
 30
0.0
 10
13.5452
 20
34.2611
 30
0.0
 10
13.5452
 20
34.2611
 30
0.0
  0
SPLINE
  5
44
330
1F
100
AcDbEntity
  8
AXIS
 62
   250
100
AcDbSpline
210
0.0
220
0.0
230
1.0
 70
    24
 71
     3
 72
     8
 73
     4
 74
     0
 42
0.0000000001
 43
0.0000000001
 40
0.0
 40
0.0
 40
0.0
 40
0.0
 40
1.0
 40
1.0
 40
1.0
 40
1.0
 10
-6.3433
 20
31.8283
 30
0.0
 10
-6.3433
 20
31.8283
 30
0.0
 10
-6.3433
 20
34.2611
 30
0.0
 10
-6.3433
 20
34.2611
 30
0.0
  0
SPLINE
  5
45
330
1F
100
AcDbEntity
  8
AXIS
 62
   250
100
AcDbSpline
210
0.0
220
0.0
230
1.0
 70
    24
 71
     3
 72
     8
 73
     4
 74
     0
 42
0.0000000001
 43
0.0000000001
 40
0.0
 40
0.0
 40
0.0
 40
0.0
 40
1.0
 40
1.0
 40
1.0
 40
1.0
 10
-6.3433
 20
30.1174
 30
0.0
 10
-6.3433
 20
30.1174
 30
0.0
 10
-6.3433
 20
31.8283
 30
0.0
 10
-6.3433
 20
31.8283
 30
0.0
  0
SPLINE
  5
46
330
1F
100
AcDbEntity
  8
AXIS
 62
   250
100
AcDbSpline
210
0.0
220
0.0
230
1.0
 70
    24
 71
     3
 72
     8
 73
     4
 74
     0
 42
0.0000000001
 43
0.0000000001
 40
0.0
 40
0.0
 40
0.0
 40
0.0
 40
1.0
 40
1.0
 40
1.0
 40
1.0
 10
8.0919
 20
30.1174
 30
0.0
 10
8.0919
 20
30.1174
 30
0.0
 10
8.0919
 20
29.262
 30
0.0
 10
8.0919
 20
29.262
 30
0.0
  0
SPLINE
  5
47
330
1F
100
AcDbEntity
  8
AXIS
 62
   250
100
AcDbSpline
210
0.0
220
0.0
230
1.0
 70
    24
 71
     3
 72
     8
 73
     4
 74
     0
 42
0.0000000001
 43
0.0000000001
 40
0.0
 40
0.0
 40
0.0
 40
0.0
 40
1.0
 40
1.0
 40
1.0
 40
1.0
 10
13.5452
 20
30.1174
 30
0.0
 10
13.5452
 20
30.1174
 30
0.0
 10
13.5452
 20
31.8283
 30
0.0
 10
13.5452
 20
31.8283
 30
0.0
  0
SPLINE
  5
48
330
1F
100
AcDbEntity
  8
AXIS
 62
   250
100
AcDbSpline
210
0.0
220
0.0
230
1.0
 70
    24
 71
     3
 72
     8
 73
     4
 74
     0
 42
0.0000000001
 43
0.0000000001
 40
0.0
 40
0.0
 40
0.0
 40
0.0
 40
1.0
 40
1.0
 40
1.0
 40
1.0
 10
-6.3432
 20
30.1174
 30
0.0
 10
-6.3432
 20
30.1174
 30
0.0
 10
13.5452
 20
30.1174
 30
0.0
 10
13.5452
 20
30.1174
 30
0.0
  0
SPLINE
  5
49
330
1F
100
AcDbEntity
  8
AXIS
 62
   250
100
AcDbSpline
210
0.0
220
0.0
230
1.0
 70
    24
 71
     3
 72
     8
 73
     4
 74
     0
 42
0.0000000001
 43
0.0000000001
 40
0.0
 40
0.0
 40
0.0
 40
0.0
 40
1.0
 40
1.0
 40
1.0
 40
1.0
 10
-6.3432
 20
31.8283
 30
0.0
 10
-6.3432
 20
31.8283
 30
0.0
 10
13.5452
 20
31.8283
 30
0.0
 10
13.5452
 20
31.8283
 30
0.0
  0
SPLINE
  5
4A
330
1F
100
AcDbEntity
  8
AXIS
 62
   250
100
AcDbSpline
210
0.0
220
0.0
230
1.0
 70
    24
 71
     3
 72
     8
 73
     4
 74
     0
 42
0.0000000001
 43
0.0000000001
 40
0.0
 40
0.0
 40
0.0
 40
0.0
 40
1.0
 40
1.0
 40
1.0
 40
1.0
 10
-3.4562
 20
-15.87
 30
0.0
 10
-3.4562
 20
-15.87
 30
0.0
 10
-3.4562
 20
-16.6794
 30
0.0
 10
-3.4562
 20
-16.6794
 30
0.0
  0
SPLINE
  5
4B
330
1F
100
AcDbEntity
  8
AXIS
 62
   250
100
AcDbSpline
210
0.0
220
0.0
230
1.0
 70
    24
 71
     3
 72
     8
 73
     4
 74
     0
 42
0.0000000001
 43
0.0000000001
 40
0.0
 40
0.0
 40
0.0
 40
0.0
 40
1.0
 40
1.0
 40
1.0
 40
1.0
 10
-3.4562
 20
-17.1071
 30
0.0
 10
-3.4562
 20
-17.1071
 30
0.0
 10
-3.4562
 20
-18.3902
 30
0.0
 10
-3.4562
 20
-18.3902
 30
0.0
  0
SPLINE
  5
4C
330
1F
100
AcDbEntity
  8
AXIS
 62
   250
100
AcDbSpline
210
0.0
220
0.0
230
1.0
 70
    24
 71
     3
 72
     8
 73
     4
 74
     0
 42
0.0000000001
 43
0.0000000001
 40
0.0
 40
0.0
 40
0.0
 40
0.0
 40
1.0
 40
1.0
 40
1.0
 40
1.0
 10
-3.4562
 20
-18.8179
 30
0.0
 10
-3.4562
 20
-18.8179
 30
0.0
 10
-3.4562
 20
-20.101
 30
0.0
 10
-3.4562
 20
-20.101
 30
0.0
  0
SPLINE
  5
4D
330
1F
100
AcDbEntity
  8
AXIS
 62
   250
100
AcDbSpline
210
0.0
220
0.0
230
1.0
 70
    24
 71
     3
 72
     8
 73
     4
 74
     0
 42
0.0000000001
 43
0.0000000001
 40
0.0
 40
0.0
 40
0.0
 40
0.0
 40
1.0
 40
1.0
 40
1.0
 40
1.0
 10
-3.4562
 20
-20.5288
 30
0.0
 10
-3.4562
 20
-20.5288
 30
0.0
 10
-3.4562
 20
-21.8119
 30
0.0
 10
-3.4562
 20
-21.8119
 30
0.0
  0
SPLINE
  5
4E
330
1F
100
AcDbEntity
  8
AXIS
 62
   250
100
AcDbSpline
210
0.0
220
0.0
230
1.0
 70
    24
 71
     3
 72
     8
 73
     4
 74
     0
 42
0.0000000001
 43
0.0000000001
 40
0.0
 40
0.0
 40
0.0
 40
0.0
 40
1.0
 40
1.0
 40
1.0
 40
1.0
 10
-3.4562
 20
-22.2396
 30
0.0
 10
-3.4562
 20
-22.2396
 30
0.0
 10
-3.4562
 20
-23.5227
 30
0.0
 10
-3.4562
 20
-23.5227
 30
0.0
  0
SPLINE
  5
4F
330
1F
100
AcDbEntity
  8
AXIS
 62
   250
100
AcDbSpline
210
0.0
220
0.0
230
1.0
 70
    24
 71
     3
 72
     8
 73
     4
 74
     0
 42
0.0000000001
 43
0.0000000001
 40
0.0
 40
0.0
 40
0.0
 40
0.0
 40
1.0
 40
1.0
 40
1.0
 40
1.0
 10
-3.4562
 20
-23.9504
 30
0.0
 10
-3.4562
 20
-23.9504
 30
0.0
 10
-3.4562
 20
-24.7598
 30
0.0
 10
-3.4562
 20
-24.7598
 30
0.0
  0
SPLINE
  5
50
330
1F
100
AcDbEntity
  8
AXIS
 62
   250
100
AcDbSpline
210
0.0
220
0.0
230
1.0
 70
    24
 71
     3
 72
     8
 73
     4
 74
     0
 42
0.0000000001
 43
0.0000000001
 40
0.0
 40
0.0
 40
0.0
 40
0.0
 40
1.0
 40
1.0
 40
1.0
 40
1.0
 10
-3.0285
 20
-25.2336
 30
0.0
 10
-3.0285
 20
-25.2336
 30
0.0
 10
-3.0285
 20
-23.9504
 30
0.0
 10
-3.0285
 20
-23.9504
 30
0.0
  0
SPLINE
  5
51
330
1F
100
AcDbEntity
  8
AXIS
 62
   250
100
AcDbSpline
210
0.0
220
0.0
230
1.0
 70
    24
 71
     3
 72
     8
 73
     4
 74
     0
 42
0.0000000001
 43
0.0000000001
 40
0.0
 40
0.0
 40
0.0
 40
0.0
 40
1.0
 40
1.0
 40
1.0
 40
1.0
 10
-3.0285
 20
-23.5227
 30
0.0
 10
-3.0285
 20
-23.5227
 30
0.0
 10
-3.0285
 20
-22.2396
 30
0.0
 10
-3.0285
 20
-22.2396
 30
0.0
  0
SPLINE
  5
52
330
1F
100
AcDbEntity
  8
AXIS
 62
   250
100
AcDbSpline
210
0.0
220
0.0
230
1.0
 70
    24
 71
     3
 72
     8
 73
     4
 74
     0
 42
0.0000000001
 43
0.0000000001
 40
0.0
 40
0.0
 40
0.0
 40
0.0
 40
1.0
 40
1.0
 40
1.0
 40
1.0
 10
-3.0285
 20
-21.8119
 30
0.0
 10
-3.0285
 20
-21.8119
 30
0.0
 10
-3.0285
 20
-20.5288
 30
0.0
 10
-3.0285
 20
-20.5288
 30
0.0
  0
SPLINE
  5
53
330
1F
100
AcDbEntity
  8
AXIS
 62
   250
100
AcDbSpline
210
0.0
220
0.0
230
1.0
 70
    24
 71
     3
 72
     8
 73
     4
 74
     0
 42
0.0000000001
 43
0.0000000001
 40
0.0
 40
0.0
 40
0.0
 40
0.0
 40
1.0
 40
1.0
 40
1.0
 40
1.0
 10
-3.0285
 20
-20.101
 30
0.0
 10
-3.0285
 20
-20.101
 30
0.0
 10
-3.0285
 20
-18.8179
 30
0.0
 10
-3.0285
 20
-18.8179
 30
0.0
  0
SPLINE
  5
54
330
1F
100
AcDbEntity
  8
AXIS
 62
   250
100
AcDbSpline
210
0.0
220
0.0
230
1.0
 70
    24
 71
     3
 72
     8
 73
     4
 74
     0
 42
0.0000000001
 43
0.0000000001
 40
0.0
 40
0.0
 40
0.0
 40
0.0
 40
1.0
 40
1.0
 40
1.0
 40
1.0
 10
-3.0285
 20
-18.3902
 30
0.0
 10
-3.0285
 20
-18.3902
 30
0.0
 10
-3.0285
 20
-17.1071
 30
0.0
 10
-3.0285
 20
-17.1071
 30
0.0
  0
SPLINE
  5
55
330
1F
100
AcDbEntity
  8
AXIS
 62
   250
100
AcDbSpline
210
0.0
220
0.0
230
1.0
 70
    24
 71
     3
 72
     8
 73
     4
 74
     0
 42
0.0000000001
 43
0.0000000001
 40
0.0
 40
0.0
 40
0.0
 40
0.0
 40
1.0
 40
1.0
 40
1.0
 40
1.0
 10
-3.0285
 20
-16.6794
 30
0.0
 10
-3.0285
 20
-16.6794
 30
0.0
 10
-3.0285
 20
-15.3962
 30
0.0
 10
-3.0285
 20
-15.3962
 30
0.0
  0
SPLINE
  5
56
330
1F
100
AcDbEntity
  8
AXIS
 62
   250
100
AcDbSpline
210
0.0
220
0.0
230
1.0
 70
    24
 71
     3
 72
     8
 73
     4
 74
     0
 42
0.0000000001
 43
0.0000000001
 40
0.0
 40
0.0
 40
0.0
 40
0.0
 40
1.0
 40
1.0
 40
1.0
 40
1.0
 10
-0.8439
 20
-27.3721
 30
0.0
 10
-0.8439
 20
-27.3721
 30
0.0
 10
-0.0345
 20
-27.3721
 30
0.0
 10
-0.0345
 20
-27.3721
 30
0.0
  0
SPLINE
  5
57
330
1F
100
AcDbEntity
  8
AXIS
 62
   250
100
AcDbSpline
210
0.0
220
0.0
230
1.0
 70
    24
 71
     3
 72
     8
 73
     4
 74
     0
 42
0.0000000001
 43
0.0000000001
 40
0.0
 40
0.0
 40
0.0
 40
0.0
 40
1.0
 40
1.0
 40
1.0
 40
1.0
 10
0.3932
 20
-27.3721
 30
0.0
 10
0.3932
 20
-27.3721
 30
0.0
 10
1.6763
 20
-27.3721
 30
0.0
 10
1.6763
 20
-27.3721
 30
0.0
  0
SPLINE
  5
58
330
1F
100
AcDbEntity
  8
AXIS
 62
   250
100
AcDbSpline
210
0.0
220
0.0
230
1.0
 70
    24
 71
     3
 72
     8
 73
     4
 74
     0
 42
0.0000000001
 43
0.0000000001
 40
0.0
 40
0.0
 40
0.0
 40
0.0
 40
1.0
 40
1.0
 40
1.0
 40
1.0
 10
2.104
 20
-27.3721
 30
0.0
 10
2.104
 20
-27.3721
 30
0.0
 10
3.3871
 20
-27.3721
 30
0.0
 10
3.3871
 20
-27.3721
 30
0.0
  0
SPLINE
  5
59
330
1F
100
AcDbEntity
  8
AXIS
 62
   250
100
AcDbSpline
210
0.0
220
0.0
230
1.0
 70
    24
 71
     3
 72
     8
 73
     4
 74
     0
 42
0.0000000001
 43
0.0000000001
 40
0.0
 40
0.0
 40
0.0
 40
0.0
 40
1.0
 40
1.0
 40
1.0
 40
1.0
 10
3.8148
 20
-27.3721
 30
0.0
 10
3.8148
 20
-27.3721
 30
0.0
 10
5.098
 20
-27.3721
 30
0.0
 10
5.098
 20
-27.3721
 30
0.0
  0
SPLINE
  5
5A
330
1F
100
AcDbEntity
  8
AXIS
 62
   250
100
AcDbSpline
210
0.0
220
0.0
230
1.0
 70
    24
 71
     3
 72
     8
 73
     4
 74
     0
 42
0.0000000001
 43
0.0000000001
 40
0.0
 40
0.0
 40
0.0
 40
0.0
 40
1.0
 40
1.0
 40
1.0
 40
1.0
 10
5.5257
 20
-27.3721
 30
0.0
 10
5.5257
 20
-27.3721
 30
0.0
 10
6.8088
 20
-27.3721
 30
0.0
 10
6.8088
 20
-27.3721
 30
0.0
  0
SPLINE
  5
5B
330
1F
100
AcDbEntity
  8
AXIS
 62
   250
100
AcDbSpline
210
0.0
220
0.0
230
1.0
 70
    24
 71
     3
 72
     8
 73
     4
 74
     0
 42
0.0000000001
 43
0.0000000001
 40
0.0
 40
0.0
 40
0.0
 40
0.0
 40
1.0
 40
1.0
 40
1.0
 40
1.0
 10
7.2365
 20
-27.3721
 30
0.0
 10
7.2365
 20
-27.3721
 30
0.0
 10
8.0459
 20
-27.3721
 30
0.0
 10
8.0459
 20
-27.3721
 30
0.0
  0
SPLINE
  5
5C
330
1F
100
AcDbEntity
  8
AXIS
 62
   250
100
AcDbSpline
210
0.0
220
0.0
230
1.0
 70
    24
 71
     3
 72
     8
 73
     4
 74
     0
 42
0.0000000001
 43
0.0000000001
 40
0.0
 40
0.0
 40
0.0
 40
0.0
 40
1.0
 40
1.0
 40
1.0
 40
1.0
 10
8.5197
 20
-26.9444
 30
0.0
 10
8.5197
 20
-26.9444
 30
0.0
 10
7.2365
 20
-26.9444
 30
0.0
 10
7.2365
 20
-26.9444
 30
0.0
  0
SPLINE
  5
5D
330
1F
100
AcDbEntity
  8
AXIS
 62
   250
100
AcDbSpline
210
0.0
220
0.0
230
1.0
 70
    24
 71
     3
 72
     8
 73
     4
 74
     0
 42
0.0000000001
 43
0.0000000001
 40
0.0
 40
0.0
 40
0.0
 40
0.0
 40
1.0
 40
1.0
 40
1.0
 40
1.0
 10
6.8088
 20
-26.9444
 30
0.0
 10
6.8088
 20
-26.9444
 30
0.0
 10
5.5257
 20
-26.9444
 30
0.0
 10
5.5257
 20
-26.9444
 30
0.0
  0
SPLINE
  5
5E
330
1F
100
AcDbEntity
  8
AXIS
 62
   250
100
AcDbSpline
210
0.0
220
0.0
230
1.0
 70
    24
 71
     3
 72
     8
 73
     4
 74
     0
 42
0.0000000001
 43
0.0000000001
 40
0.0
 40
0.0
 40
0.0
 40
0.0
 40
1.0
 40
1.0
 40
1.0
 40
1.0
 10
5.098
 20
-26.9444
 30
0.0
 10
5.098
 20
-26.9444
 30
0.0
 10
3.8148
 20
-26.9444
 30
0.0
 10
3.8148
 20
-26.9444
 30
0.0
  0
SPLINE
  5
5F
330
1F
100
AcDbEntity
  8
AXIS
 62
   250
100
AcDbSpline
210
0.0
220
0.0
230
1.0
 70
    24
 71
     3
 72
     8
 73
     4
 74
     0
 42
0.0000000001
 43
0.0000000001
 40
0.0
 40
0.0
 40
0.0
 40
0.0
 40
1.0
 40
1.0
 40
1.0
 40
1.0
 10
3.3871
 20
-26.9444
 30
0.0
 10
3.3871
 20
-26.9444
 30
0.0
 10
2.104
 20
-26.9444
 30
0.0
 10
2.104
 20
-26.9444
 30
0.0
  0
SPLINE
  5
60
330
1F
100
AcDbEntity
  8
AXIS
 62
   250
100
AcDbSpline
210
0.0
220
0.0
230
1.0
 70
    24
 71
     3
 72
     8
 73
     4
 74
     0
 42
0.0000000001
 43
0.0000000001
 40
0.0
 40
0.0
 40
0.0
 40
0.0
 40
1.0
 40
1.0
 40
1.0
 40
1.0
 10
1.6763
 20
-26.9444
 30
0.0
 10
1.6763
 20
-26.9444
 30
0.0
 10
0.3932
 20
-26.9444
 30
0.0
 10
0.3932
 20
-26.9444
 30
0.0
  0
SPLINE
  5
61
330
1F
100
AcDbEntity
  8
AXIS
 62
   250
100
AcDbSpline
210
0.0
220
0.0
230
1.0
 70
    24
 71
     3
 72
     8
 73
     4
 74
     0
 42
0.0000000001
 43
0.0000000001
 40
0.0
 40
0.0
 40
0.0
 40
0.0
 40
1.0
 40
1.0
 40
1.0
 40
1.0
 10
-0.0345
 20
-26.9444
 30
0.0
 10
-0.0345
 20
-26.9444
 30
0.0
 10
-1.3177
 20
-26.9444
 30
0.0
 10
-1.3177
 20
-26.9444
 30
0.0
  0
SPLINE
  5
62
330
1F
100
AcDbEntity
  8
AXIS
 62
   250
100
AcDbSpline
210
0.0
220
0.0
230
1.0
 70
    24
 71
     3
 72
     8
 73
     4
 74
     0
 42
0.0000000001
 43
0.0000000001
 40
0.0
 40
0.0
 40
0.0
 40
0.0
 40
1.0
 40
1.0
 40
1.0
 40
1.0
 10
-1.7454
 20
-13.9135
 30
0.0
 10
-1.7454
 20
-13.9135
 30
0.0
 10
-1.7454
 20
-14.9685
 30
0.0
 10
-1.7454
 20
-14.9685
 30
0.0
  0
SPLINE
  5
63
330
1F
100
AcDbEntity
  8
AXIS
 62
   250
100
AcDbSpline
210
0.0
220
0.0
230
1.0
 70
    24
 71
     3
 72
     8
 73
     4
 74
     0
 42
0.0000000001
 43
0.0000000001
 40
0.0
 40
0.0
 40
0.0
 40
0.0
 40
1.0
 40
1.0
 40
1.0
 40
1.0
 10
-1.7454
 20
-15.3962
 30
0.0
 10
-1.7454
 20
-15.3962
 30
0.0
 10
-1.7454
 20
-16.6794
 30
0.0
 10
-1.7454
 20
-16.6794
 30
0.0
  0
SPLINE
  5
64
330
1F
100
AcDbEntity
  8
AXIS
 62
   250
100
AcDbSpline
210
0.0
220
0.0
230
1.0
 70
    24
 71
     3
 72
     8
 73
     4
 74
     0
 42
0.0000000001
 43
0.0000000001
 40
0.0
 40
0.0
 40
0.0
 40
0.0
 40
1.0
 40
1.0
 40
1.0
 40
1.0
 10
-1.7454
 20
-17.1071
 30
0.0
 10
-1.7454
 20
-17.1071
 30
0.0
 10
-1.7454
 20
-18.3902
 30
0.0
 10
-1.7454
 20
-18.3902
 30
0.0
  0
SPLINE
  5
65
330
1F
100
AcDbEntity
  8
AXIS
 62
   250
100
AcDbSpline
210
0.0
220
0.0
230
1.0
 70
    24
 71
     3
 72
     8
 73
     4
 74
     0
 42
0.0000000001
 43
0.0000000001
 40
0.0
 40
0.0
 40
0.0
 40
0.0
 40
1.0
 40
1.0
 40
1.0
 40
1.0
 10
-1.7454
 20
-18.8179
 30
0.0
 10
-1.7454
 20
-18.8179
 30
0.0
 10
-1.7454
 20
-20.101
 30
0.0
 10
-1.7454
 20
-20.101
 30
0.0
  0
SPLINE
  5
66
330
1F
100
AcDbEntity
  8
AXIS
 62
   250
100
AcDbSpline
210
0.0
220
0.0
230
1.0
 70
    24
 71
     3
 72
     8
 73
     4
 74
     0
 42
0.0000000001
 43
0.0000000001
 40
0.0
 40
0.0
 40
0.0
 40
0.0
 40
1.0
 40
1.0
 40
1.0
 40
1.0
 10
-1.7454
 20
-20.5288
 30
0.0
 10
-1.7454
 20
-20.5288
 30
0.0
 10
-1.7454
 20
-21.8119
 30
0.0
 10
-1.7454
 20
-21.8119
 30
0.0
  0
SPLINE
  5
67
330
1F
100
AcDbEntity
  8
AXIS
 62
   250
100
AcDbSpline
210
0.0
220
0.0
230
1.0
 70
    24
 71
     3
 72
     8
 73
     4
 74
     0
 42
0.0000000001
 43
0.0000000001
 40
0.0
 40
0.0
 40
0.0
 40
0.0
 40
1.0
 40
1.0
 40
1.0
 40
1.0
 10
-1.7454
 20
-22.2396
 30
0.0
 10
-1.7454
 20
-22.2396
 30
0.0
 10
-1.7454
 20
-23.5227
 30
0.0
 10
-1.7454
 20
-23.5227
 30
0.0
  0
SPLINE
  5
68
330
1F
100
AcDbEntity
  8
AXIS
 62
   250
100
AcDbSpline
210
0.0
220
0.0
230
1.0
 70
    24
 71
     3
 72
     8
 73
     4
 74
     0
 42
0.0000000001
 43
0.0000000001
 40
0.0
 40
0.0
 40
0.0
 40
0.0
 40
1.0
 40
1.0
 40
1.0
 40
1.0
 10
-1.7454
 20
-23.9504
 30
0.0
 10
-1.7454
 20
-23.9504
 30
0.0
 10
-1.7454
 20
-25.2336
 30
0.0
 10
-1.7454
 20
-25.2336
 30
0.0
  0
SPLINE
  5
69
330
1F
100
AcDbEntity
  8
AXIS
 62
   250
100
AcDbSpline
210
0.0
220
0.0
230
1.0
 70
    24
 71
     3
 72
     8
 73
     4
 74
     0
 42
0.0000000001
 43
0.0000000001
 40
0.0
 40
0.0
 40
0.0
 40
0.0
 40
1.0
 40
1.0
 40
1.0
 40
1.0
 10
-1.7454
 20
-25.6613
 30
0.0
 10
-1.7454
 20
-25.6613
 30
0.0
 10
-1.7454
 20
-26.7163
 30
0.0
 10
-1.7454
 20
-26.7163
 30
0.0
  0
SPLINE
  5
6A
330
1F
100
AcDbEntity
  8
AXIS
 62
   250
100
AcDbSpline
210
0.0
220
0.0
230
1.0
 70
    24
 71
     3
 72
     8
 73
     4
 74
     0
 42
0.0000000001
 43
0.0000000001
 40
0.0
 40
0.0
 40
0.0
 40
0.0
 40
1.0
 40
1.0
 40
1.0
 40
1.0
 10
-1.3177
 20
-26.9444
 30
0.0
 10
-1.3177
 20
-26.9444
 30
0.0
 10
-1.3177
 20
-25.6613
 30
0.0
 10
-1.3177
 20
-25.6613
 30
0.0
  0
SPLINE
  5
6B
330
1F
100
AcDbEntity
  8
AXIS
 62
   250
100
AcDbSpline
210
0.0
220
0.0
230
1.0
 70
    24
 71
     3
 72
     8
 73
     4
 74
     0
 42
0.0000000001
 43
0.0000000001
 40
0.0
 40
0.0
 40
0.0
 40
0.0
 40
1.0
 40
1.0
 40
1.0
 40
1.0
 10
-1.3177
 20
-25.2336
 30
0.0
 10
-1.3177
 20
-25.2336
 30
0.0
 10
-1.3177
 20
-23.9504
 30
0.0
 10
-1.3177
 20
-23.9504
 30
0.0
  0
SPLINE
  5
6C
330
1F
100
AcDbEntity
  8
AXIS
 62
   250
100
AcDbSpline
210
0.0
220
0.0
230
1.0
 70
    24
 71
     3
 72
     8
 73
     4
 74
     0
 42
0.0000000001
 43
0.0000000001
 40
0.0
 40
0.0
 40
0.0
 40
0.0
 40
1.0
 40
1.0
 40
1.0
 40
1.0
 10
-1.3177
 20
-23.5227
 30
0.0
 10
-1.3177
 20
-23.5227
 30
0.0
 10
-1.3177
 20
-22.2396
 30
0.0
 10
-1.3177
 20
-22.2396
 30
0.0
  0
SPLINE
  5
6D
330
1F
100
AcDbEntity
  8
AXIS
 62
   250
100
AcDbSpline
210
0.0
220
0.0
230
1.0
 70
    24
 71
     3
 72
     8
 73
     4
 74
     0
 42
0.0000000001
 43
0.0000000001
 40
0.0
 40
0.0
 40
0.0
 40
0.0
 40
1.0
 40
1.0
 40
1.0
 40
1.0
 10
-1.3177
 20
-21.8119
 30
0.0
 10
-1.3177
 20
-21.8119
 30
0.0
 10
-1.3177
 20
-20.5288
 30
0.0
 10
-1.3177
 20
-20.5288
 30
0.0
  0
SPLINE
  5
6E
330
1F
100
AcDbEntity
  8
AXIS
 62
   250
100
AcDbSpline
210
0.0
220
0.0
230
1.0
 70
    24
 71
     3
 72
     8
 73
     4
 74
     0
 42
0.0000000001
 43
0.0000000001
 40
0.0
 40
0.0
 40
0.0
 40
0.0
 40
1.0
 40
1.0
 40
1.0
 40
1.0
 10
-1.3177
 20
-20.101
 30
0.0
 10
-1.3177
 20
-20.101
 30
0.0
 10
-1.3177
 20
-18.8179
 30
0.0
 10
-1.3177
 20
-18.8179
 30
0.0
  0
SPLINE
  5
6F
330
1F
100
AcDbEntity
  8
AXIS
 62
   250
100
AcDbSpline
210
0.0
220
0.0
230
1.0
 70
    24
 71
     3
 72
     8
 73
     4
 74
     0
 42
0.0000000001
 43
0.0000000001
 40
0.0
 40
0.0
 40
0.0
 40
0.0
 40
1.0
 40
1.0
 40
1.0
 40
1.0
 10
-1.3177
 20
-18.3902
 30
0.0
 10
-1.3177
 20
-18.3902
 30
0.0
 10
-1.3177
 20
-17.1071
 30
0.0
 10
-1.3177
 20
-17.1071
 30
0.0
  0
SPLINE
  5
70
330
1F
100
AcDbEntity
  8
AXIS
 62
   250
100
AcDbSpline
210
0.0
220
0.0
230
1.0
 70
    24
 71
     3
 72
     8
 73
     4
 74
     0
 42
0.0000000001
 43
0.0000000001
 40
0.0
 40
0.0
 40
0.0
 40
0.0
 40
1.0
 40
1.0
 40
1.0
 40
1.0
 10
-1.3177
 20
-16.6794
 30
0.0
 10
-1.3177
 20
-16.6794
 30
0.0
 10
-1.3177
 20
-15.3962
 30
0.0
 10
-1.3177
 20
-15.3962
 30
0.0
  0
SPLINE
  5
71
330
1F
100
AcDbEntity
  8
AXIS
 62
   250
100
AcDbSpline
210
0.0
220
0.0
230
1.0
 70
    24
 71
     3
 72
     8
 73
     4
 74
     0
 42
0.0000000001
 43
0.0000000001
 40
0.0
 40
0.0
 40
0.0
 40
0.0
 40
1.0
 40
1.0
 40
1.0
 40
1.0
 10
-1.3177
 20
-14.9685
 30
0.0
 10
-1.3177
 20
-14.9685
 30
0.0
 10
-1.3177
 20
-13.6854
 30
0.0
 10
-1.3177
 20
-13.6854
 30
0.0
  0
SPLINE
  5
72
330
1F
100
AcDbEntity
  8
AXIS
 62
   250
100
AcDbSpline
210
0.0
220
0.0
230
1.0
 70
    24
 71
     3
 72
     8
 73
     4
 74
     0
 42
0.0000000001
 43
0.0000000001
 40
0.0
 40
0.0
 40
0.0
 40
0.0
 40
1.0
 40
1.0
 40
1.0
 40
1.0
 10
-2.8004
 20
-25.6613
 30
0.0
 10
-2.8004
 20
-25.6613
 30
0.0
 10
-1.7454
 20
-25.6613
 30
0.0
 10
-1.7454
 20
-25.6613
 30
0.0
  0
SPLINE
  5
73
330
1F
100
AcDbEntity
  8
AXIS
 62
   250
100
AcDbSpline
210
0.0
220
0.0
230
1.0
 70
    24
 71
     3
 72
     8
 73
     4
 74
     0
 42
0.0000000001
 43
0.0000000001
 40
0.0
 40
0.0
 40
0.0
 40
0.0
 40
1.0
 40
1.0
 40
1.0
 40
1.0
 10
-1.3177
 20
-25.6613
 30
0.0
 10
-1.3177
 20
-25.6613
 30
0.0
 10
-0.0345
 20
-25.6613
 30
0.0
 10
-0.0345
 20
-25.6613
 30
0.0
  0
SPLINE
  5
74
330
1F
100
AcDbEntity
  8
AXIS
 62
   250
100
AcDbSpline
210
0.0
220
0.0
230
1.0
 70
    24
 71
     3
 72
     8
 73
     4
 74
     0
 42
0.0000000001
 43
0.0000000001
 40
0.0
 40
0.0
 40
0.0
 40
0.0
 40
1.0
 40
1.0
 40
1.0
 40
1.0
 10
0.3932
 20
-25.6613
 30
0.0
 10
0.3932
 20
-25.6613
 30
0.0
 10
1.6763
 20
-25.6613
 30
0.0
 10
1.6763
 20
-25.6613
 30
0.0
  0
SPLINE
  5
75
330
1F
100
AcDbEntity
  8
AXIS
 62
   250
100
AcDbSpline
210
0.0
220
0.0
230
1.0
 70
    24
 71
     3
 72
     8
 73
     4
 74
     0
 42
0.0000000001
 43
0.0000000001
 40
0.0
 40
0.0
 40
0.0
 40
0.0
 40
1.0
 40
1.0
 40
1.0
 40
1.0
 10
2.104
 20
-25.6613
 30
0.0
 10
2.104
 20
-25.6613
 30
0.0
 10
3.3871
 20
-25.6613
 30
0.0
 10
3.3871
 20
-25.6613
 30
0.0
  0
SPLINE
  5
76
330
1F
100
AcDbEntity
  8
AXIS
 62
   250
100
AcDbSpline
210
0.0
220
0.0
230
1.0
 70
    24
 71
     3
 72
     8
 73
     4
 74
     0
 42
0.0000000001
 43
0.0000000001
 40
0.0
 40
0.0
 40
0.0
 40
0.0
 40
1.0
 40
1.0
 40
1.0
 40
1.0
 10
3.8148
 20
-25.6613
 30
0.0
 10
3.8148
 20
-25.6613
 30
0.0
 10
5.098
 20
-25.6613
 30
0.0
 10
5.098
 20
-25.6613
 30
0.0
  0
SPLINE
  5
77
330
1F
100
AcDbEntity
  8
AXIS
 62
   250
100
AcDbSpline
210
0.0
220
0.0
230
1.0
 70
    24
 71
     3
 72
     8
 73
     4
 74
     0
 42
0.0000000001
 43
0.0000000001
 40
0.0
 40
0.0
 40
0.0
 40
0.0
 40
1.0
 40
1.0
 40
1.0
 40
1.0
 10
5.5257
 20
-25.6613
 30
0.0
 10
5.5257
 20
-25.6613
 30
0.0
 10
6.8088
 20
-25.6613
 30
0.0
 10
6.8088
 20
-25.6613
 30
0.0
  0
SPLINE
  5
78
330
1F
100
AcDbEntity
  8
AXIS
 62
   250
100
AcDbSpline
210
0.0
220
0.0
230
1.0
 70
    24
 71
     3
 72
     8
 73
     4
 74
     0
 42
0.0000000001
 43
0.0000000001
 40
0.0
 40
0.0
 40
0.0
 40
0.0
 40
1.0
 40
1.0
 40
1.0
 40
1.0
 10
7.2365
 20
-25.6613
 30
0.0
 10
7.2365
 20
-25.6613
 30
0.0
 10
8.5197
 20
-25.6613
 30
0.0
 10
8.5197
 20
-25.6613
 30
0.0
  0
SPLINE
  5
79
330
1F
100
AcDbEntity
  8
AXIS
 62
   250
100
AcDbSpline
210
0.0
220
0.0
230
1.0
 70
    24
 71
     3
 72
     8
 73
     4
 74
     0
 42
0.0000000001
 43
0.0000000001
 40
0.0
 40
0.0
 40
0.0
 40
0.0
 40
1.0
 40
1.0
 40
1.0
 40
1.0
 10
8.9474
 20
-25.6613
 30
0.0
 10
8.9474
 20
-25.6613
 30
0.0
 10
10.0024
 20
-25.6613
 30
0.0
 10
10.0024
 20
-25.6613
 30
0.0
  0
SPLINE
  5
7A
330
1F
100
AcDbEntity
  8
AXIS
 62
   250
100
AcDbSpline
210
0.0
220
0.0
230
1.0
 70
    24
 71
     3
 72
     8
 73
     4
 74
     0
 42
0.0000000001
 43
0.0000000001
 40
0.0
 40
0.0
 40
0.0
 40
0.0
 40
1.0
 40
1.0
 40
1.0
 40
1.0
 10
10.2305
 20
-25.2336
 30
0.0
 10
10.2305
 20
-25.2336
 30
0.0
 10
8.9474
 20
-25.2336
 30
0.0
 10
8.9474
 20
-25.2336
 30
0.0
  0
SPLINE
  5
7B
330
1F
100
AcDbEntity
  8
AXIS
 62
   250
100
AcDbSpline
210
0.0
220
0.0
230
1.0
 70
    24
 71
     3
 72
     8
 73
     4
 74
     0
 42
0.0000000001
 43
0.0000000001
 40
0.0
 40
0.0
 40
0.0
 40
0.0
 40
1.0
 40
1.0
 40
1.0
 40
1.0
 10
8.5197
 20
-25.2336
 30
0.0
 10
8.5197
 20
-25.2336
 30
0.0
 10
7.2365
 20
-25.2336
 30
0.0
 10
7.2365
 20
-25.2336
 30
0.0
  0
SPLINE
  5
7C
330
1F
100
AcDbEntity
  8
AXIS
 62
   250
100
AcDbSpline
210
0.0
220
0.0
230
1.0
 70
    24
 71
     3
 72
     8
 73
     4
 74
     0
 42
0.0000000001
 43
0.0000000001
 40
0.0
 40
0.0
 40
0.0
 40
0.0
 40
1.0
 40
1.0
 40
1.0
 40
1.0
 10
6.8088
 20
-25.2336
 30
0.0
 10
6.8088
 20
-25.2336
 30
0.0
 10
5.5257
 20
-25.2336
 30
0.0
 10
5.5257
 20
-25.2336
 30
0.0
  0
SPLINE
  5
7D
330
1F
100
AcDbEntity
  8
AXIS
 62
   250
100
AcDbSpline
210
0.0
220
0.0
230
1.0
 70
    24
 71
     3
 72
     8
 73
     4
 74
     0
 42
0.0000000001
 43
0.0000000001
 40
0.0
 40
0.0
 40
0.0
 40
0.0
 40
1.0
 40
1.0
 40
1.0
 40
1.0
 10
5.098
 20
-25.2336
 30
0.0
 10
5.098
 20
-25.2336
 30
0.0
 10
3.8148
 20
-25.2336
 30
0.0
 10
3.8148
 20
-25.2336
 30
0.0
  0
SPLINE
  5
7E
330
1F
100
AcDbEntity
  8
AXIS
 62
   250
100
AcDbSpline
210
0.0
220
0.0
230
1.0
 70
    24
 71
     3
 72
     8
 73
     4
 74
     0
 42
0.0000000001
 43
0.0000000001
 40
0.0
 40
0.0
 40
0.0
 40
0.0
 40
1.0
 40
1.0
 40
1.0
 40
1.0
 10
3.3871
 20
-25.2336
 30
0.0
 10
3.3871
 20
-25.2336
 30
0.0
 10
2.104
 20
-25.2336
 30
0.0
 10
2.104
 20
-25.2336
 30
0.0
  0
SPLINE
  5
7F
330
1F
100
AcDbEntity
  8
AXIS
 62
   250
100
AcDbSpline
210
0.0
220
0.0
230
1.0
 70
    24
 71
     3
 72
     8
 73
     4
 74
     0
 42
0.0000000001
 43
0.0000000001
 40
0.0
 40
0.0
 40
0.0
 40
0.0
 40
1.0
 40
1.0
 40
1.0
 40
1.0
 10
1.6763
 20
-25.2336
 30
0.0
 10
1.6763
 20
-25.2336
 30
0.0
 10
0.3932
 20
-25.2336
 30
0.0
 10
0.3932
 20
-25.2336
 30
0.0
  0
SPLINE
  5
80
330
1F
100
AcDbEntity
  8
AXIS
 62
   250
100
AcDbSpline
210
0.0
220
0.0
230
1.0
 70
    24
 71
     3
 72
     8
 73
     4
 74
     0
 42
0.0000000001
 43
0.0000000001
 40
0.0
 40
0.0
 40
0.0
 40
0.0
 40
1.0
 40
1.0
 40
1.0
 40
1.0
 10
-0.0345
 20
-25.2336
 30
0.0
 10
-0.0345
 20
-25.2336
 30
0.0
 10
-1.3177
 20
-25.2336
 30
0.0
 10
-1.3177
 20
-25.2336
 30
0.0
  0
SPLINE
  5
81
330
1F
100
AcDbEntity
  8
AXIS
 62
   250
100
AcDbSpline
210
0.0
220
0.0
230
1.0
 70
    24
 71
     3
 72
     8
 73
     4
 74
     0
 42
0.0000000001
 43
0.0000000001
 40
0.0
 40
0.0
 40
0.0
 40
0.0
 40
1.0
 40
1.0
 40
1.0
 40
1.0
 10
-1.7454
 20
-25.2336
 30
0.0
 10
-1.7454
 20
-25.2336
 30
0.0
 10
-3.0285
 20
-25.2336
 30
0.0
 10
-3.0285
 20
-25.2336
 30
0.0
  0
SPLINE
  5
82
330
1F
100
AcDbEntity
  8
AXIS
 62
   250
100
AcDbSpline
210
0.0
220
0.0
230
1.0
 70
    24
 71
     3
 72
     8
 73
     4
 74
     0
 42
0.0000000001
 43
0.0000000001
 40
0.0
 40
0.0
 40
0.0
 40
0.0
 40
1.0
 40
1.0
 40
1.0
 40
1.0
 10
-0.0345
 20
-12.8086
 30
0.0
 10
-0.0345
 20
-12.8086
 30
0.0
 10
-0.0345
 20
-13.2577
 30
0.0
 10
-0.0345
 20
-13.2577
 30
0.0
  0
SPLINE
  5
83
330
1F
100
AcDbEntity
  8
AXIS
 62
   250
100
AcDbSpline
210
0.0
220
0.0
230
1.0
 70
    24
 71
     3
 72
     8
 73
     4
 74
     0
 42
0.0000000001
 43
0.0000000001
 40
0.0
 40
0.0
 40
0.0
 40
0.0
 40
1.0
 40
1.0
 40
1.0
 40
1.0
 10
-0.0345
 20
-13.6854
 30
0.0
 10
-0.0345
 20
-13.6854
 30
0.0
 10
-0.0345
 20
-14.9685
 30
0.0
 10
-0.0345
 20
-14.9685
 30
0.0
  0
SPLINE
  5
84
330
1F
100
AcDbEntity
  8
AXIS
 62
   250
100
AcDbSpline
210
0.0
220
0.0
230
1.0
 70
    24
 71
     3
 72
     8
 73
     4
 74
     0
 42
0.0000000001
 43
0.0000000001
 40
0.0
 40
0.0
 40
0.0
 40
0.0
 40
1.0
 40
1.0
 40
1.0
 40
1.0
 10
-0.0345
 20
-15.3962
 30
0.0
 10
-0.0345
 20
-15.3962
 30
0.0
 10
-0.0345
 20
-16.6794
 30
0.0
 10
-0.0345
 20
-16.6794
 30
0.0
  0
SPLINE
  5
85
330
1F
100
AcDbEntity
  8
AXIS
 62
   250
100
AcDbSpline
210
0.0
220
0.0
230
1.0
 70
    24
 71
     3
 72
     8
 73
     4
 74
     0
 42
0.0000000001
 43
0.0000000001
 40
0.0
 40
0.0
 40
0.0
 40
0.0
 40
1.0
 40
1.0
 40
1.0
 40
1.0
 10
-0.0345
 20
-23.9504
 30
0.0
 10
-0.0345
 20
-23.9504
 30
0.0
 10
-0.0345
 20
-25.2336
 30
0.0
 10
-0.0345
 20
-25.2336
 30
0.0
  0
SPLINE
  5
86
330
1F
100
AcDbEntity
  8
AXIS
 62
   250
100
AcDbSpline
210
0.0
220
0.0
230
1.0
 70
    24
 71
     3
 72
     8
 73
     4
 74
     0
 42
0.0000000001
 43
0.0000000001
 40
0.0
 40
0.0
 40
0.0
 40
0.0
 40
1.0
 40
1.0
 40
1.0
 40
1.0
 10
-0.0345
 20
-25.6613
 30
0.0
 10
-0.0345
 20
-25.6613
 30
0.0
 10
-0.0345
 20
-26.9444
 30
0.0
 10
-0.0345
 20
-26.9444
 30
0.0
  0
SPLINE
  5
87
330
1F
100
AcDbEntity
  8
AXIS
 62
   250
100
AcDbSpline
210
0.0
220
0.0
230
1.0
 70
    24
 71
     3
 72
     8
 73
     4
 74
     0
 42
0.0000000001
 43
0.0000000001
 40
0.0
 40
0.0
 40
0.0
 40
0.0
 40
1.0
 40
1.0
 40
1.0
 40
1.0
 10
-0.0345
 20
-27.3721
 30
0.0
 10
-0.0345
 20
-27.3721
 30
0.0
 10
-0.0345
 20
-27.8212
 30
0.0
 10
-0.0345
 20
-27.8212
 30
0.0
  0
SPLINE
  5
88
330
1F
100
AcDbEntity
  8
AXIS
 62
   250
100
AcDbSpline
210
0.0
220
0.0
230
1.0
 70
    24
 71
     3
 72
     8
 73
     4
 74
     0
 42
0.0000000001
 43
0.0000000001
 40
0.0
 40
0.0
 40
0.0
 40
0.0
 40
1.0
 40
1.0
 40
1.0
 40
1.0
 10
0.3932
 20
-28.0137
 30
0.0
 10
0.3932
 20
-28.0137
 30
0.0
 10
0.3932
 20
-27.3721
 30
0.0
 10
0.3932
 20
-27.3721
 30
0.0
  0
SPLINE
  5
89
330
1F
100
AcDbEntity
  8
AXIS
 62
   250
100
AcDbSpline
210
0.0
220
0.0
230
1.0
 70
    24
 71
     3
 72
     8
 73
     4
 74
     0
 42
0.0000000001
 43
0.0000000001
 40
0.0
 40
0.0
 40
0.0
 40
0.0
 40
1.0
 40
1.0
 40
1.0
 40
1.0
 10
0.3932
 20
-26.9444
 30
0.0
 10
0.3932
 20
-26.9444
 30
0.0
 10
0.3932
 20
-25.6613
 30
0.0
 10
0.3932
 20
-25.6613
 30
0.0
  0
SPLINE
  5
8A
330
1F
100
AcDbEntity
  8
AXIS
 62
   250
100
AcDbSpline
210
0.0
220
0.0
230
1.0
 70
    24
 71
     3
 72
     8
 73
     4
 74
     0
 42
0.0000000001
 43
0.0000000001
 40
0.0
 40
0.0
 40
0.0
 40
0.0
 40
1.0
 40
1.0
 40
1.0
 40
1.0
 10
0.3932
 20
-25.2336
 30
0.0
 10
0.3932
 20
-25.2336
 30
0.0
 10
0.3932
 20
-23.9504
 30
0.0
 10
0.3932
 20
-23.9504
 30
0.0
  0
SPLINE
  5
8B
330
1F
100
AcDbEntity
  8
AXIS
 62
   250
100
AcDbSpline
210
0.0
220
0.0
230
1.0
 70
    24
 71
     3
 72
     8
 73
     4
 74
     0
 42
0.0000000001
 43
0.0000000001
 40
0.0
 40
0.0
 40
0.0
 40
0.0
 40
1.0
 40
1.0
 40
1.0
 40
1.0
 10
0.3932
 20
-16.6794
 30
0.0
 10
0.3932
 20
-16.6794
 30
0.0
 10
0.3932
 20
-15.3962
 30
0.0
 10
0.3932
 20
-15.3962
 30
0.0
  0
SPLINE
  5
8C
330
1F
100
AcDbEntity
  8
AXIS
 62
   250
100
AcDbSpline
210
0.0
220
0.0
230
1.0
 70
    24
 71
     3
 72
     8
 73
     4
 74
     0
 42
0.0000000001
 43
0.0000000001
 40
0.0
 40
0.0
 40
0.0
 40
0.0
 40
1.0
 40
1.0
 40
1.0
 40
1.0
 10
0.3932
 20
-14.9685
 30
0.0
 10
0.3932
 20
-14.9685
 30
0.0
 10
0.3932
 20
-13.6854
 30
0.0
 10
0.3932
 20
-13.6854
 30
0.0
  0
SPLINE
  5
8D
330
1F
100
AcDbEntity
  8
AXIS
 62
   250
100
AcDbSpline
210
0.0
220
0.0
230
1.0
 70
    24
 71
     3
 72
     8
 73
     4
 74
     0
 42
0.0000000001
 43
0.0000000001
 40
0.0
 40
0.0
 40
0.0
 40
0.0
 40
1.0
 40
1.0
 40
1.0
 40
1.0
 10
0.3932
 20
-13.2577
 30
0.0
 10
0.3932
 20
-13.2577
 30
0.0
 10
0.3932
 20
-12.6161
 30
0.0
 10
0.3932
 20
-12.6161
 30
0.0
  0
SPLINE
  5
8E
330
1F
100
AcDbEntity
  8
AXIS
 62
   250
100
AcDbSpline
210
0.0
220
0.0
230
1.0
 70
    24
 71
     3
 72
     8
 73
     4
 74
     0
 42
0.0000000001
 43
0.0000000001
 40
0.0
 40
0.0
 40
0.0
 40
0.0
 40
1.0
 40
1.0
 40
1.0
 40
1.0
 10
-3.9053
 20
-23.9504
 30
0.0
 10
-3.9053
 20
-23.9504
 30
0.0
 10
-3.4562
 20
-23.9504
 30
0.0
 10
-3.4562
 20
-23.9504
 30
0.0
  0
SPLINE
  5
8F
330
1F
100
AcDbEntity
  8
AXIS
 62
   250
100
AcDbSpline
210
0.0
220
0.0
230
1.0
 70
    24
 71
     3
 72
     8
 73
     4
 74
     0
 42
0.0000000001
 43
0.0000000001
 40
0.0
 40
0.0
 40
0.0
 40
0.0
 40
1.0
 40
1.0
 40
1.0
 40
1.0
 10
-3.0285
 20
-23.9504
 30
0.0
 10
-3.0285
 20
-23.9504
 30
0.0
 10
-1.7454
 20
-23.9504
 30
0.0
 10
-1.7454
 20
-23.9504
 30
0.0
  0
SPLINE
  5
90
330
1F
100
AcDbEntity
  8
AXIS
 62
   250
100
AcDbSpline
210
0.0
220
0.0
230
1.0
 70
    24
 71
     3
 72
     8
 73
     4
 74
     0
 42
0.0000000001
 43
0.0000000001
 40
0.0
 40
0.0
 40
0.0
 40
0.0
 40
1.0
 40
1.0
 40
1.0
 40
1.0
 10
-1.3177
 20
-23.9504
 30
0.0
 10
-1.3177
 20
-23.9504
 30
0.0
 10
-0.0345
 20
-23.9504
 30
0.0
 10
-0.0345
 20
-23.9504
 30
0.0
  0
SPLINE
  5
91
330
1F
100
AcDbEntity
  8
AXIS
 62
   250
100
AcDbSpline
210
0.0
220
0.0
230
1.0
 70
    24
 71
     3
 72
     8
 73
     4
 74
     0
 42
0.0000000001
 43
0.0000000001
 40
0.0
 40
0.0
 40
0.0
 40
0.0
 40
1.0
 40
1.0
 40
1.0
 40
1.0
 10
7.2365
 20
-23.9504
 30
0.0
 10
7.2365
 20
-23.9504
 30
0.0
 10
8.5197
 20
-23.9504
 30
0.0
 10
8.5197
 20
-23.9504
 30
0.0
  0
SPLINE
  5
92
330
1F
100
AcDbEntity
  8
AXIS
 62
   250
100
AcDbSpline
210
0.0
220
0.0
230
1.0
 70
    24
 71
     3
 72
     8
 73
     4
 74
     0
 42
0.0000000001
 43
0.0000000001
 40
0.0
 40
0.0
 40
0.0
 40
0.0
 40
1.0
 40
1.0
 40
1.0
 40
1.0
 10
8.9474
 20
-23.9504
 30
0.0
 10
8.9474
 20
-23.9504
 30
0.0
 10
10.2305
 20
-23.9504
 30
0.0
 10
10.2305
 20
-23.9504
 30
0.0
  0
SPLINE
  5
93
330
1F
100
AcDbEntity
  8
AXIS
 62
   250
100
AcDbSpline
210
0.0
220
0.0
230
1.0
 70
    24
 71
     3
 72
     8
 73
     4
 74
     0
 42
0.0000000001
 43
0.0000000001
 40
0.0
 40
0.0
 40
0.0
 40
0.0
 40
1.0
 40
1.0
 40
1.0
 40
1.0
 10
10.6582
 20
-23.9504
 30
0.0
 10
10.6582
 20
-23.9504
 30
0.0
 10
11.1073
 20
-23.9504
 30
0.0
 10
11.1073
 20
-23.9504
 30
0.0
  0
SPLINE
  5
94
330
1F
100
AcDbEntity
  8
AXIS
 62
   250
100
AcDbSpline
210
0.0
220
0.0
230
1.0
 70
    24
 71
     3
 72
     8
 73
     4
 74
     0
 42
0.0000000001
 43
0.0000000001
 40
0.0
 40
0.0
 40
0.0
 40
0.0
 40
1.0
 40
1.0
 40
1.0
 40
1.0
 10
11.2998
 20
-23.5227
 30
0.0
 10
11.2998
 20
-23.5227
 30
0.0
 10
10.6582
 20
-23.5227
 30
0.0
 10
10.6582
 20
-23.5227
 30
0.0
  0
SPLINE
  5
95
330
1F
100
AcDbEntity
  8
AXIS
 62
   250
100
AcDbSpline
210
0.0
220
0.0
230
1.0
 70
    24
 71
     3
 72
     8
 73
     4
 74
     0
 42
0.0000000001
 43
0.0000000001
 40
0.0
 40
0.0
 40
0.0
 40
0.0
 40
1.0
 40
1.0
 40
1.0
 40
1.0
 10
10.2305
 20
-23.5227
 30
0.0
 10
10.2305
 20
-23.5227
 30
0.0
 10
8.9474
 20
-23.5227
 30
0.0
 10
8.9474
 20
-23.5227
 30
0.0
  0
SPLINE
  5
96
330
1F
100
AcDbEntity
  8
AXIS
 62
   250
100
AcDbSpline
210
0.0
220
0.0
230
1.0
 70
    24
 71
     3
 72
     8
 73
     4
 74
     0
 42
0.0000000001
 43
0.0000000001
 40
0.0
 40
0.0
 40
0.0
 40
0.0
 40
1.0
 40
1.0
 40
1.0
 40
1.0
 10
8.5197
 20
-23.5227
 30
0.0
 10
8.5197
 20
-23.5227
 30
0.0
 10
7.2365
 20
-23.5227
 30
0.0
 10
7.2365
 20
-23.5227
 30
0.0
  0
SPLINE
  5
97
330
1F
100
AcDbEntity
  8
AXIS
 62
   250
100
AcDbSpline
210
0.0
220
0.0
230
1.0
 70
    24
 71
     3
 72
     8
 73
     4
 74
     0
 42
0.0000000001
 43
0.0000000001
 40
0.0
 40
0.0
 40
0.0
 40
0.0
 40
1.0
 40
1.0
 40
1.0
 40
1.0
 10
-0.0345
 20
-23.5227
 30
0.0
 10
-0.0345
 20
-23.5227
 30
0.0
 10
-1.3177
 20
-23.5227
 30
0.0
 10
-1.3177
 20
-23.5227
 30
0.0
  0
SPLINE
  5
98
330
1F
100
AcDbEntity
  8
AXIS
 62
   250
100
AcDbSpline
210
0.0
220
0.0
230
1.0
 70
    24
 71
     3
 72
     8
 73
     4
 74
     0
 42
0.0000000001
 43
0.0000000001
 40
0.0
 40
0.0
 40
0.0
 40
0.0
 40
1.0
 40
1.0
 40
1.0
 40
1.0
 10
-1.7454
 20
-23.5227
 30
0.0
 10
-1.7454
 20
-23.5227
 30
0.0
 10
-3.0285
 20
-23.5227
 30
0.0
 10
-3.0285
 20
-23.5227
 30
0.0
  0
SPLINE
  5
99
330
1F
100
AcDbEntity
  8
AXIS
 62
   250
100
AcDbSpline
210
0.0
220
0.0
230
1.0
 70
    24
 71
     3
 72
     8
 73
     4
 74
     0
 42
0.0000000001
 43
0.0000000001
 40
0.0
 40
0.0
 40
0.0
 40
0.0
 40
1.0
 40
1.0
 40
1.0
 40
1.0
 10
-3.4562
 20
-23.5227
 30
0.0
 10
-3.4562
 20
-23.5227
 30
0.0
 10
-4.0978
 20
-23.5227
 30
0.0
 10
-4.0978
 20
-23.5227
 30
0.0
  0
SPLINE
  5
9A
330
1F
100
AcDbEntity
  8
AXIS
 62
   250
100
AcDbSpline
210
0.0
220
0.0
230
1.0
 70
    24
 71
     3
 72
     8
 73
     4
 74
     0
 42
0.0000000001
 43
0.0000000001
 40
0.0
 40
0.0
 40
0.0
 40
0.0
 40
1.0
 40
1.0
 40
1.0
 40
1.0
 10
1.6763
 20
-12.1997
 30
0.0
 10
1.6763
 20
-12.1997
 30
0.0
 10
1.6763
 20
-13.2577
 30
0.0
 10
1.6763
 20
-13.2577
 30
0.0
  0
SPLINE
  5
9B
330
1F
100
AcDbEntity
  8
AXIS
 62
   250
100
AcDbSpline
210
0.0
220
0.0
230
1.0
 70
    24
 71
     3
 72
     8
 73
     4
 74
     0
 42
0.0000000001
 43
0.0000000001
 40
0.0
 40
0.0
 40
0.0
 40
0.0
 40
1.0
 40
1.0
 40
1.0
 40
1.0
 10
1.6763
 20
-13.6854
 30
0.0
 10
1.6763
 20
-13.6854
 30
0.0
 10
1.6763
 20
-14.9685
 30
0.0
 10
1.6763
 20
-14.9685
 30
0.0
  0
SPLINE
  5
9C
330
1F
100
AcDbEntity
  8
AXIS
 62
   250
100
AcDbSpline
210
0.0
220
0.0
230
1.0
 70
    24
 71
     3
 72
     8
 73
     4
 74
     0
 42
0.0000000001
 43
0.0000000001
 40
0.0
 40
0.0
 40
0.0
 40
0.0
 40
1.0
 40
1.0
 40
1.0
 40
1.0
 10
1.6763
 20
-25.6613
 30
0.0
 10
1.6763
 20
-25.6613
 30
0.0
 10
1.6763
 20
-26.9444
 30
0.0
 10
1.6763
 20
-26.9444
 30
0.0
  0
SPLINE
  5
9D
330
1F
100
AcDbEntity
  8
AXIS
 62
   250
100
AcDbSpline
210
0.0
220
0.0
230
1.0
 70
    24
 71
     3
 72
     8
 73
     4
 74
     0
 42
0.0000000001
 43
0.0000000001
 40
0.0
 40
0.0
 40
0.0
 40
0.0
 40
1.0
 40
1.0
 40
1.0
 40
1.0
 10
1.6763
 20
-27.3721
 30
0.0
 10
1.6763
 20
-27.3721
 30
0.0
 10
1.6763
 20
-28.4301
 30
0.0
 10
1.6763
 20
-28.4301
 30
0.0
  0
SPLINE
  5
9E
330
1F
100
AcDbEntity
  8
AXIS
 62
   250
100
AcDbSpline
210
0.0
220
0.0
230
1.0
 70
    24
 71
     3
 72
     8
 73
     4
 74
     0
 42
0.0000000001
 43
0.0000000001
 40
0.0
 40
0.0
 40
0.0
 40
0.0
 40
1.0
 40
1.0
 40
1.0
 40
1.0
 10
2.104
 20
-28.5198
 30
0.0
 10
2.104
 20
-28.5198
 30
0.0
 10
2.104
 20
-27.3721
 30
0.0
 10
2.104
 20
-27.3721
 30
0.0
  0
SPLINE
  5
9F
330
1F
100
AcDbEntity
  8
AXIS
 62
   250
100
AcDbSpline
210
0.0
220
0.0
230
1.0
 70
    24
 71
     3
 72
     8
 73
     4
 74
     0
 42
0.0000000001
 43
0.0000000001
 40
0.0
 40
0.0
 40
0.0
 40
0.0
 40
1.0
 40
1.0
 40
1.0
 40
1.0
 10
2.104
 20
-26.9444
 30
0.0
 10
2.104
 20
-26.9444
 30
0.0
 10
2.104
 20
-25.6613
 30
0.0
 10
2.104
 20
-25.6613
 30
0.0
  0
SPLINE
  5
A0
330
1F
100
AcDbEntity
  8
AXIS
 62
   250
100
AcDbSpline
210
0.0
220
0.0
230
1.0
 70
    24
 71
     3
 72
     8
 73
     4
 74
     0
 42
0.0000000001
 43
0.0000000001
 40
0.0
 40
0.0
 40
0.0
 40
0.0
 40
1.0
 40
1.0
 40
1.0
 40
1.0
 10
2.104
 20
-14.9685
 30
0.0
 10
2.104
 20
-14.9685
 30
0.0
 10
2.104
 20
-13.6854
 30
0.0
 10
2.104
 20
-13.6854
 30
0.0
  0
SPLINE
  5
A1
330
1F
100
AcDbEntity
  8
AXIS
 62
   250
100
AcDbSpline
210
0.0
220
0.0
230
1.0
 70
    24
 71
     3
 72
     8
 73
     4
 74
     0
 42
0.0000000001
 43
0.0000000001
 40
0.0
 40
0.0
 40
0.0
 40
0.0
 40
1.0
 40
1.0
 40
1.0
 40
1.0
 10
2.104
 20
-13.2577
 30
0.0
 10
2.104
 20
-13.2577
 30
0.0
 10
2.104
 20
-12.11
 30
0.0
 10
2.104
 20
-12.11
 30
0.0
  0
SPLINE
  5
A2
330
1F
100
AcDbEntity
  8
AXIS
 62
   250
100
AcDbSpline
210
0.0
220
0.0
230
1.0
 70
    24
 71
     3
 72
     8
 73
     4
 74
     0
 42
0.0000000001
 43
0.0000000001
 40
0.0
 40
0.0
 40
0.0
 40
0.0
 40
1.0
 40
1.0
 40
1.0
 40
1.0
 10
-4.5142
 20
-22.2396
 30
0.0
 10
-4.5142
 20
-22.2396
 30
0.0
 10
-3.4562
 20
-22.2396
 30
0.0
 10
-3.4562
 20
-22.2396
 30
0.0
  0
SPLINE
  5
A3
330
1F
100
AcDbEntity
  8
AXIS
 62
   250
100
AcDbSpline
210
0.0
220
0.0
230
1.0
 70
    24
 71
     3
 72
     8
 73
     4
 74
     0
 42
0.0000000001
 43
0.0000000001
 40
0.0
 40
0.0
 40
0.0
 40
0.0
 40
1.0
 40
1.0
 40
1.0
 40
1.0
 10
-3.0285
 20
-22.2396
 30
0.0
 10
-3.0285
 20
-22.2396
 30
0.0
 10
-1.7454
 20
-22.2396
 30
0.0
 10
-1.7454
 20
-22.2396
 30
0.0
  0
SPLINE
  5
A4
330
1F
100
AcDbEntity
  8
AXIS
 62
   250
100
AcDbSpline
210
0.0
220
0.0
230
1.0
 70
    24
 71
     3
 72
     8
 73
     4
 74
     0
 42
0.0000000001
 43
0.0000000001
 40
0.0
 40
0.0
 40
0.0
 40
0.0
 40
1.0
 40
1.0
 40
1.0
 40
1.0
 10
8.9474
 20
-22.2396
 30
0.0
 10
8.9474
 20
-22.2396
 30
0.0
 10
10.2305
 20
-22.2396
 30
0.0
 10
10.2305
 20
-22.2396
 30
0.0
  0
SPLINE
  5
A5
330
1F
100
AcDbEntity
  8
AXIS
 62
   250
100
AcDbSpline
210
0.0
220
0.0
230
1.0
 70
    24
 71
     3
 72
     8
 73
     4
 74
     0
 42
0.0000000001
 43
0.0000000001
 40
0.0
 40
0.0
 40
0.0
 40
0.0
 40
1.0
 40
1.0
 40
1.0
 40
1.0
 10
10.6582
 20
-22.2396
 30
0.0
 10
10.6582
 20
-22.2396
 30
0.0
 10
11.7162
 20
-22.2396
 30
0.0
 10
11.7162
 20
-22.2396
 30
0.0
  0
SPLINE
  5
A6
330
1F
100
AcDbEntity
  8
AXIS
 62
   250
100
AcDbSpline
210
0.0
220
0.0
230
1.0
 70
    24
 71
     3
 72
     8
 73
     4
 74
     0
 42
0.0000000001
 43
0.0000000001
 40
0.0
 40
0.0
 40
0.0
 40
0.0
 40
1.0
 40
1.0
 40
1.0
 40
1.0
 10
11.8059
 20
-21.8119
 30
0.0
 10
11.8059
 20
-21.8119
 30
0.0
 10
10.6582
 20
-21.8119
 30
0.0
 10
10.6582
 20
-21.8119
 30
0.0
  0
SPLINE
  5
A7
330
1F
100
AcDbEntity
  8
AXIS
 62
   250
100
AcDbSpline
210
0.0
220
0.0
230
1.0
 70
    24
 71
     3
 72
     8
 73
     4
 74
     0
 42
0.0000000001
 43
0.0000000001
 40
0.0
 40
0.0
 40
0.0
 40
0.0
 40
1.0
 40
1.0
 40
1.0
 40
1.0
 10
10.2305
 20
-21.8119
 30
0.0
 10
10.2305
 20
-21.8119
 30
0.0
 10
8.9474
 20
-21.8119
 30
0.0
 10
8.9474
 20
-21.8119
 30
0.0
  0
SPLINE
  5
A8
330
1F
100
AcDbEntity
  8
AXIS
 62
   250
100
AcDbSpline
210
0.0
220
0.0
230
1.0
 70
    24
 71
     3
 72
     8
 73
     4
 74
     0
 42
0.0000000001
 43
0.0000000001
 40
0.0
 40
0.0
 40
0.0
 40
0.0
 40
1.0
 40
1.0
 40
1.0
 40
1.0
 10
-1.7454
 20
-21.8119
 30
0.0
 10
-1.7454
 20
-21.8119
 30
0.0
 10
-3.0285
 20
-21.8119
 30
0.0
 10
-3.0285
 20
-21.8119
 30
0.0
  0
SPLINE
  5
A9
330
1F
100
AcDbEntity
  8
AXIS
 62
   250
100
AcDbSpline
210
0.0
220
0.0
230
1.0
 70
    24
 71
     3
 72
     8
 73
     4
 74
     0
 42
0.0000000001
 43
0.0000000001
 40
0.0
 40
0.0
 40
0.0
 40
0.0
 40
1.0
 40
1.0
 40
1.0
 40
1.0
 10
-3.4562
 20
-21.8119
 30
0.0
 10
-3.4562
 20
-21.8119
 30
0.0
 10
-4.6039
 20
-21.8119
 30
0.0
 10
-4.6039
 20
-21.8119
 30
0.0
  0
SPLINE
  5
AA
330
1F
100
AcDbEntity
  8
AXIS
 62
   250
100
AcDbSpline
210
0.0
220
0.0
230
1.0
 70
    24
 71
     3
 72
     8
 73
     4
 74
     0
 42
0.0000000001
 43
0.0000000001
 40
0.0
 40
0.0
 40
0.0
 40
0.0
 40
1.0
 40
1.0
 40
1.0
 40
1.0
 10
3.3871
 20
-11.9773
 30
0.0
 10
3.3871
 20
-11.9773
 30
0.0
 10
3.3871
 20
-13.2577
 30
0.0
 10
3.3871
 20
-13.2577
 30
0.0
  0
SPLINE
  5
AB
330
1F
100
AcDbEntity
  8
AXIS
 62
   250
100
AcDbSpline
210
0.0
220
0.0
230
1.0
 70
    24
 71
     3
 72
     8
 73
     4
 74
     0
 42
0.0000000001
 43
0.0000000001
 40
0.0
 40
0.0
 40
0.0
 40
0.0
 40
1.0
 40
1.0
 40
1.0
 40
1.0
 10
3.3871
 20
-13.6854
 30
0.0
 10
3.3871
 20
-13.6854
 30
0.0
 10
3.3871
 20
-14.9685
 30
0.0
 10
3.3871
 20
-14.9685
 30
0.0
  0
SPLINE
  5
AC
330
1F
100
AcDbEntity
  8
AXIS
 62
   250
100
AcDbSpline
210
0.0
220
0.0
230
1.0
 70
    24
 71
     3
 72
     8
 73
     4
 74
     0
 42
0.0000000001
 43
0.0000000001
 40
0.0
 40
0.0
 40
0.0
 40
0.0
 40
1.0
 40
1.0
 40
1.0
 40
1.0
 10
3.3871
 20
-25.6613
 30
0.0
 10
3.3871
 20
-25.6613
 30
0.0
 10
3.3871
 20
-26.9444
 30
0.0
 10
3.3871
 20
-26.9444
 30
0.0
  0
SPLINE
  5
AD
330
1F
100
AcDbEntity
  8
AXIS
 62
   250
100
AcDbSpline
210
0.0
220
0.0
230
1.0
 70
    24
 71
     3
 72
     8
 73
     4
 74
     0
 42
0.0000000001
 43
0.0000000001
 40
0.0
 40
0.0
 40
0.0
 40
0.0
 40
1.0
 40
1.0
 40
1.0
 40
1.0
 10
3.3871
 20
-27.3721
 30
0.0
 10
3.3871
 20
-27.3721
 30
0.0
 10
3.3871
 20
-28.6525
 30
0.0
 10
3.3871
 20
-28.6525
 30
0.0
  0
SPLINE
  5
AE
330
1F
100
AcDbEntity
  8
AXIS
 62
   250
100
AcDbSpline
210
0.0
220
0.0
230
1.0
 70
    24
 71
     3
 72
     8
 73
     4
 74
     0
 42
0.0000000001
 43
0.0000000001
 40
0.0
 40
0.0
 40
0.0
 40
0.0
 40
1.0
 40
1.0
 40
1.0
 40
1.0
 10
-4.7366
 20
-20.5288
 30
0.0
 10
-4.7366
 20
-20.5288
 30
0.0
 10
-3.4562
 20
-20.5288
 30
0.0
 10
-3.4562
 20
-20.5288
 30
0.0
  0
SPLINE
  5
AF
330
1F
100
AcDbEntity
  8
AXIS
 62
   250
100
AcDbSpline
210
0.0
220
0.0
230
1.0
 70
    24
 71
     3
 72
     8
 73
     4
 74
     0
 42
0.0000000001
 43
0.0000000001
 40
0.0
 40
0.0
 40
0.0
 40
0.0
 40
1.0
 40
1.0
 40
1.0
 40
1.0
 10
-3.0285
 20
-20.5288
 30
0.0
 10
-3.0285
 20
-20.5288
 30
0.0
 10
-1.7454
 20
-20.5288
 30
0.0
 10
-1.7454
 20
-20.5288
 30
0.0
  0
SPLINE
  5
B0
330
1F
100
AcDbEntity
  8
AXIS
 62
   250
100
AcDbSpline
210
0.0
220
0.0
230
1.0
 70
    24
 71
     3
 72
     8
 73
     4
 74
     0
 42
0.0000000001
 43
0.0000000001
 40
0.0
 40
0.0
 40
0.0
 40
0.0
 40
1.0
 40
1.0
 40
1.0
 40
1.0
 10
8.9474
 20
-20.5288
 30
0.0
 10
8.9474
 20
-20.5288
 30
0.0
 10
10.2305
 20
-20.5288
 30
0.0
 10
10.2305
 20
-20.5288
 30
0.0
  0
SPLINE
  5
B1
330
1F
100
AcDbEntity
  8
AXIS
 62
   250
100
AcDbSpline
210
0.0
220
0.0
230
1.0
 70
    24
 71
     3
 72
     8
 73
     4
 74
     0
 42
0.0000000001
 43
0.0000000001
 40
0.0
 40
0.0
 40
0.0
 40
0.0
 40
1.0
 40
1.0
 40
1.0
 40
1.0
 10
10.6582
 20
-20.5288
 30
0.0
 10
10.6582
 20
-20.5288
 30
0.0
 10
11.9386
 20
-20.5288
 30
0.0
 10
11.9386
 20
-20.5288
 30
0.0
  0
SPLINE
  5
B2
330
1F
100
AcDbEntity
  8
AXIS
 62
   250
100
AcDbSpline
210
0.0
220
0.0
230
1.0
 70
    24
 71
     3
 72
     8
 73
     4
 74
     0
 42
0.0000000001
 43
0.0000000001
 40
0.0
 40
0.0
 40
0.0
 40
0.0
 40
1.0
 40
1.0
 40
1.0
 40
1.0
 10
3.8148
 20
-28.6525
 30
0.0
 10
3.8148
 20
-28.6525
 30
0.0
 10
3.8148
 20
-27.3721
 30
0.0
 10
3.8148
 20
-27.3721
 30
0.0
  0
SPLINE
  5
B3
330
1F
100
AcDbEntity
  8
AXIS
 62
   250
100
AcDbSpline
210
0.0
220
0.0
230
1.0
 70
    24
 71
     3
 72
     8
 73
     4
 74
     0
 42
0.0000000001
 43
0.0000000001
 40
0.0
 40
0.0
 40
0.0
 40
0.0
 40
1.0
 40
1.0
 40
1.0
 40
1.0
 10
3.8148
 20
-26.9444
 30
0.0
 10
3.8148
 20
-26.9444
 30
0.0
 10
3.8148
 20
-25.6613
 30
0.0
 10
3.8148
 20
-25.6613
 30
0.0
  0
SPLINE
  5
B4
330
1F
100
AcDbEntity
  8
AXIS
 62
   250
100
AcDbSpline
210
0.0
220
0.0
230
1.0
 70
    24
 71
     3
 72
     8
 73
     4
 74
     0
 42
0.0000000001
 43
0.0000000001
 40
0.0
 40
0.0
 40
0.0
 40
0.0
 40
1.0
 40
1.0
 40
1.0
 40
1.0
 10
3.8148
 20
-14.9685
 30
0.0
 10
3.8148
 20
-14.9685
 30
0.0
 10
3.8148
 20
-13.6854
 30
0.0
 10
3.8148
 20
-13.6854
 30
0.0
  0
SPLINE
  5
B5
330
1F
100
AcDbEntity
  8
AXIS
 62
   250
100
AcDbSpline
210
0.0
220
0.0
230
1.0
 70
    24
 71
     3
 72
     8
 73
     4
 74
     0
 42
0.0000000001
 43
0.0000000001
 40
0.0
 40
0.0
 40
0.0
 40
0.0
 40
1.0
 40
1.0
 40
1.0
 40
1.0
 10
3.8148
 20
-13.2577
 30
0.0
 10
3.8148
 20
-13.2577
 30
0.0
 10
3.8148
 20
-11.9773
 30
0.0
 10
3.8148
 20
-11.9773
 30
0.0
  0
SPLINE
  5
B6
330
1F
100
AcDbEntity
  8
AXIS
 62
   250
100
AcDbSpline
210
0.0
220
0.0
230
1.0
 70
    24
 71
     3
 72
     8
 73
     4
 74
     0
 42
0.0000000001
 43
0.0000000001
 40
0.0
 40
0.0
 40
0.0
 40
0.0
 40
1.0
 40
1.0
 40
1.0
 40
1.0
 10
5.098
 20
-12.11
 30
0.0
 10
5.098
 20
-12.11
 30
0.0
 10
5.098
 20
-13.2577
 30
0.0
 10
5.098
 20
-13.2577
 30
0.0
  0
SPLINE
  5
B7
330
1F
100
AcDbEntity
  8
AXIS
 62
   250
100
AcDbSpline
210
0.0
220
0.0
230
1.0
 70
    24
 71
     3
 72
     8
 73
     4
 74
     0
 42
0.0000000001
 43
0.0000000001
 40
0.0
 40
0.0
 40
0.0
 40
0.0
 40
1.0
 40
1.0
 40
1.0
 40
1.0
 10
5.098
 20
-13.6854
 30
0.0
 10
5.098
 20
-13.6854
 30
0.0
 10
5.098
 20
-14.9685
 30
0.0
 10
5.098
 20
-14.9685
 30
0.0
  0
SPLINE
  5
B8
330
1F
100
AcDbEntity
  8
AXIS
 62
   250
100
AcDbSpline
210
0.0
220
0.0
230
1.0
 70
    24
 71
     3
 72
     8
 73
     4
 74
     0
 42
0.0000000001
 43
0.0000000001
 40
0.0
 40
0.0
 40
0.0
 40
0.0
 40
1.0
 40
1.0
 40
1.0
 40
1.0
 10
5.098
 20
-25.6613
 30
0.0
 10
5.098
 20
-25.6613
 30
0.0
 10
5.098
 20
-26.9444
 30
0.0
 10
5.098
 20
-26.9444
 30
0.0
  0
SPLINE
  5
B9
330
1F
100
AcDbEntity
  8
AXIS
 62
   250
100
AcDbSpline
210
0.0
220
0.0
230
1.0
 70
    24
 71
     3
 72
     8
 73
     4
 74
     0
 42
0.0000000001
 43
0.0000000001
 40
0.0
 40
0.0
 40
0.0
 40
0.0
 40
1.0
 40
1.0
 40
1.0
 40
1.0
 10
5.098
 20
-27.3721
 30
0.0
 10
5.098
 20
-27.3721
 30
0.0
 10
5.098
 20
-28.5198
 30
0.0
 10
5.098
 20
-28.5198
 30
0.0
  0
SPLINE
  5
BA
330
1F
100
AcDbEntity
  8
AXIS
 62
   250
100
AcDbSpline
210
0.0
220
0.0
230
1.0
 70
    24
 71
     3
 72
     8
 73
     4
 74
     0
 42
0.0000000001
 43
0.0000000001
 40
0.0
 40
0.0
 40
0.0
 40
0.0
 40
1.0
 40
1.0
 40
1.0
 40
1.0
 10
11.9386
 20
-20.101
 30
0.0
 10
11.9386
 20
-20.101
 30
0.0
 10
10.6582
 20
-20.101
 30
0.0
 10
10.6582
 20
-20.101
 30
0.0
  0
SPLINE
  5
BB
330
1F
100
AcDbEntity
  8
AXIS
 62
   250
100
AcDbSpline
210
0.0
220
0.0
230
1.0
 70
    24
 71
     3
 72
     8
 73
     4
 74
     0
 42
0.0000000001
 43
0.0000000001
 40
0.0
 40
0.0
 40
0.0
 40
0.0
 40
1.0
 40
1.0
 40
1.0
 40
1.0
 10
10.2305
 20
-20.101
 30
0.0
 10
10.2305
 20
-20.101
 30
0.0
 10
8.9474
 20
-20.101
 30
0.0
 10
8.9474
 20
-20.101
 30
0.0
  0
SPLINE
  5
BC
330
1F
100
AcDbEntity
  8
AXIS
 62
   250
100
AcDbSpline
210
0.0
220
0.0
230
1.0
 70
    24
 71
     3
 72
     8
 73
     4
 74
     0
 42
0.0000000001
 43
0.0000000001
 40
0.0
 40
0.0
 40
0.0
 40
0.0
 40
1.0
 40
1.0
 40
1.0
 40
1.0
 10
-1.7454
 20
-20.101
 30
0.0
 10
-1.7454
 20
-20.101
 30
0.0
 10
-3.0285
 20
-20.101
 30
0.0
 10
-3.0285
 20
-20.101
 30
0.0
  0
SPLINE
  5
BD
330
1F
100
AcDbEntity
  8
AXIS
 62
   250
100
AcDbSpline
210
0.0
220
0.0
230
1.0
 70
    24
 71
     3
 72
     8
 73
     4
 74
     0
 42
0.0000000001
 43
0.0000000001
 40
0.0
 40
0.0
 40
0.0
 40
0.0
 40
1.0
 40
1.0
 40
1.0
 40
1.0
 10
-3.4562
 20
-20.101
 30
0.0
 10
-3.4562
 20
-20.101
 30
0.0
 10
-4.7366
 20
-20.101
 30
0.0
 10
-4.7366
 20
-20.101
 30
0.0
  0
SPLINE
  5
BE
330
1F
100
AcDbEntity
  8
AXIS
 62
   250
100
AcDbSpline
210
0.0
220
0.0
230
1.0
 70
    24
 71
     3
 72
     8
 73
     4
 74
     0
 42
0.0000000001
 43
0.0000000001
 40
0.0
 40
0.0
 40
0.0
 40
0.0
 40
1.0
 40
1.0
 40
1.0
 40
1.0
 10
-4.6039
 20
-18.8179
 30
0.0
 10
-4.6039
 20
-18.8179
 30
0.0
 10
-3.4562
 20
-18.8179
 30
0.0
 10
-3.4562
 20
-18.8179
 30
0.0
  0
SPLINE
  5
BF
330
1F
100
AcDbEntity
  8
AXIS
 62
   250
100
AcDbSpline
210
0.0
220
0.0
230
1.0
 70
    24
 71
     3
 72
     8
 73
     4
 74
     0
 42
0.0000000001
 43
0.0000000001
 40
0.0
 40
0.0
 40
0.0
 40
0.0
 40
1.0
 40
1.0
 40
1.0
 40
1.0
 10
-3.0285
 20
-18.8179
 30
0.0
 10
-3.0285
 20
-18.8179
 30
0.0
 10
-1.7454
 20
-18.8179
 30
0.0
 10
-1.7454
 20
-18.8179
 30
0.0
  0
SPLINE
  5
C0
330
1F
100
AcDbEntity
  8
AXIS
 62
   250
100
AcDbSpline
210
0.0
220
0.0
230
1.0
 70
    24
 71
     3
 72
     8
 73
     4
 74
     0
 42
0.0000000001
 43
0.0000000001
 40
0.0
 40
0.0
 40
0.0
 40
0.0
 40
1.0
 40
1.0
 40
1.0
 40
1.0
 10
8.9474
 20
-18.8179
 30
0.0
 10
8.9474
 20
-18.8179
 30
0.0
 10
10.2305
 20
-18.8179
 30
0.0
 10
10.2305
 20
-18.8179
 30
0.0
  0
SPLINE
  5
C1
330
1F
100
AcDbEntity
  8
AXIS
 62
   250
100
AcDbSpline
210
0.0
220
0.0
230
1.0
 70
    24
 71
     3
 72
     8
 73
     4
 74
     0
 42
0.0000000001
 43
0.0000000001
 40
0.0
 40
0.0
 40
0.0
 40
0.0
 40
1.0
 40
1.0
 40
1.0
 40
1.0
 10
10.6582
 20
-18.8179
 30
0.0
 10
10.6582
 20
-18.8179
 30
0.0
 10
11.8059
 20
-18.8179
 30
0.0
 10
11.8059
 20
-18.8179
 30
0.0
  0
SPLINE
  5
C2
330
1F
100
AcDbEntity
  8
AXIS
 62
   250
100
AcDbSpline
210
0.0
220
0.0
230
1.0
 70
    24
 71
     3
 72
     8
 73
     4
 74
     0
 42
0.0000000001
 43
0.0000000001
 40
0.0
 40
0.0
 40
0.0
 40
0.0
 40
1.0
 40
1.0
 40
1.0
 40
1.0
 10
5.5257
 20
-28.4301
 30
0.0
 10
5.5257
 20
-28.4301
 30
0.0
 10
5.5257
 20
-27.3721
 30
0.0
 10
5.5257
 20
-27.3721
 30
0.0
  0
SPLINE
  5
C3
330
1F
100
AcDbEntity
  8
AXIS
 62
   250
100
AcDbSpline
210
0.0
220
0.0
230
1.0
 70
    24
 71
     3
 72
     8
 73
     4
 74
     0
 42
0.0000000001
 43
0.0000000001
 40
0.0
 40
0.0
 40
0.0
 40
0.0
 40
1.0
 40
1.0
 40
1.0
 40
1.0
 10
5.5257
 20
-26.9444
 30
0.0
 10
5.5257
 20
-26.9444
 30
0.0
 10
5.5257
 20
-25.6613
 30
0.0
 10
5.5257
 20
-25.6613
 30
0.0
  0
SPLINE
  5
C4
330
1F
100
AcDbEntity
  8
AXIS
 62
   250
100
AcDbSpline
210
0.0
220
0.0
230
1.0
 70
    24
 71
     3
 72
     8
 73
     4
 74
     0
 42
0.0000000001
 43
0.0000000001
 40
0.0
 40
0.0
 40
0.0
 40
0.0
 40
1.0
 40
1.0
 40
1.0
 40
1.0
 10
5.5257
 20
-14.9685
 30
0.0
 10
5.5257
 20
-14.9685
 30
0.0
 10
5.5257
 20
-13.6854
 30
0.0
 10
5.5257
 20
-13.6854
 30
0.0
  0
SPLINE
  5
C5
330
1F
100
AcDbEntity
  8
AXIS
 62
   250
100
AcDbSpline
210
0.0
220
0.0
230
1.0
 70
    24
 71
     3
 72
     8
 73
     4
 74
     0
 42
0.0000000001
 43
0.0000000001
 40
0.0
 40
0.0
 40
0.0
 40
0.0
 40
1.0
 40
1.0
 40
1.0
 40
1.0
 10
5.5257
 20
-13.2577
 30
0.0
 10
5.5257
 20
-13.2577
 30
0.0
 10
5.5257
 20
-12.1997
 30
0.0
 10
5.5257
 20
-12.1997
 30
0.0
  0
SPLINE
  5
C6
330
1F
100
AcDbEntity
  8
AXIS
 62
   250
100
AcDbSpline
210
0.0
220
0.0
230
1.0
 70
    24
 71
     3
 72
     8
 73
     4
 74
     0
 42
0.0000000001
 43
0.0000000001
 40
0.0
 40
0.0
 40
0.0
 40
0.0
 40
1.0
 40
1.0
 40
1.0
 40
1.0
 10
6.8088
 20
-12.6161
 30
0.0
 10
6.8088
 20
-12.6161
 30
0.0
 10
6.8088
 20
-13.2577
 30
0.0
 10
6.8088
 20
-13.2577
 30
0.0
  0
SPLINE
  5
C7
330
1F
100
AcDbEntity
  8
AXIS
 62
   250
100
AcDbSpline
210
0.0
220
0.0
230
1.0
 70
    24
 71
     3
 72
     8
 73
     4
 74
     0
 42
0.0000000001
 43
0.0000000001
 40
0.0
 40
0.0
 40
0.0
 40
0.0
 40
1.0
 40
1.0
 40
1.0
 40
1.0
 10
6.8088
 20
-13.6854
 30
0.0
 10
6.8088
 20
-13.6854
 30
0.0
 10
6.8088
 20
-14.9685
 30
0.0
 10
6.8088
 20
-14.9685
 30
0.0
  0
SPLINE
  5
C8
330
1F
100
AcDbEntity
  8
AXIS
 62
   250
100
AcDbSpline
210
0.0
220
0.0
230
1.0
 70
    24
 71
     3
 72
     8
 73
     4
 74
     0
 42
0.0000000001
 43
0.0000000001
 40
0.0
 40
0.0
 40
0.0
 40
0.0
 40
1.0
 40
1.0
 40
1.0
 40
1.0
 10
6.8088
 20
-15.3962
 30
0.0
 10
6.8088
 20
-15.3962
 30
0.0
 10
6.8088
 20
-16.6794
 30
0.0
 10
6.8088
 20
-16.6794
 30
0.0
  0
SPLINE
  5
C9
330
1F
100
AcDbEntity
  8
AXIS
 62
   250
100
AcDbSpline
210
0.0
220
0.0
230
1.0
 70
    24
 71
     3
 72
     8
 73
     4
 74
     0
 42
0.0000000001
 43
0.0000000001
 40
0.0
 40
0.0
 40
0.0
 40
0.0
 40
1.0
 40
1.0
 40
1.0
 40
1.0
 10
6.8088
 20
-23.9504
 30
0.0
 10
6.8088
 20
-23.9504
 30
0.0
 10
6.8088
 20
-25.2336
 30
0.0
 10
6.8088
 20
-25.2336
 30
0.0
  0
SPLINE
  5
CA
330
1F
100
AcDbEntity
  8
AXIS
 62
   250
100
AcDbSpline
210
0.0
220
0.0
230
1.0
 70
    24
 71
     3
 72
     8
 73
     4
 74
     0
 42
0.0000000001
 43
0.0000000001
 40
0.0
 40
0.0
 40
0.0
 40
0.0
 40
1.0
 40
1.0
 40
1.0
 40
1.0
 10
6.8088
 20
-25.6613
 30
0.0
 10
6.8088
 20
-25.6613
 30
0.0
 10
6.8088
 20
-26.9444
 30
0.0
 10
6.8088
 20
-26.9444
 30
0.0
  0
SPLINE
  5
CB
330
1F
100
AcDbEntity
  8
AXIS
 62
   250
100
AcDbSpline
210
0.0
220
0.0
230
1.0
 70
    24
 71
     3
 72
     8
 73
     4
 74
     0
 42
0.0000000001
 43
0.0000000001
 40
0.0
 40
0.0
 40
0.0
 40
0.0
 40
1.0
 40
1.0
 40
1.0
 40
1.0
 10
6.8088
 20
-27.3721
 30
0.0
 10
6.8088
 20
-27.3721
 30
0.0
 10
6.8088
 20
-28.0137
 30
0.0
 10
6.8088
 20
-28.0137
 30
0.0
  0
SPLINE
  5
CC
330
1F
100
AcDbEntity
  8
AXIS
 62
   250
100
AcDbSpline
210
0.0
220
0.0
230
1.0
 70
    24
 71
     3
 72
     8
 73
     4
 74
     0
 42
0.0000000001
 43
0.0000000001
 40
0.0
 40
0.0
 40
0.0
 40
0.0
 40
1.0
 40
1.0
 40
1.0
 40
1.0
 10
11.7162
 20
-18.3902
 30
0.0
 10
11.7162
 20
-18.3902
 30
0.0
 10
10.6582
 20
-18.3902
 30
0.0
 10
10.6582
 20
-18.3902
 30
0.0
  0
SPLINE
  5
CD
330
1F
100
AcDbEntity
  8
AXIS
 62
   250
100
AcDbSpline
210
0.0
220
0.0
230
1.0
 70
    24
 71
     3
 72
     8
 73
     4
 74
     0
 42
0.0000000001
 43
0.0000000001
 40
0.0
 40
0.0
 40
0.0
 40
0.0
 40
1.0
 40
1.0
 40
1.0
 40
1.0
 10
10.2305
 20
-18.3902
 30
0.0
 10
10.2305
 20
-18.3902
 30
0.0
 10
8.9474
 20
-18.3902
 30
0.0
 10
8.9474
 20
-18.3902
 30
0.0
  0
SPLINE
  5
CE
330
1F
100
AcDbEntity
  8
AXIS
 62
   250
100
AcDbSpline
210
0.0
220
0.0
230
1.0
 70
    24
 71
     3
 72
     8
 73
     4
 74
     0
 42
0.0000000001
 43
0.0000000001
 40
0.0
 40
0.0
 40
0.0
 40
0.0
 40
1.0
 40
1.0
 40
1.0
 40
1.0
 10
-1.7454
 20
-18.3902
 30
0.0
 10
-1.7454
 20
-18.3902
 30
0.0
 10
-3.0285
 20
-18.3902
 30
0.0
 10
-3.0285
 20
-18.3902
 30
0.0
  0
SPLINE
  5
CF
330
1F
100
AcDbEntity
  8
AXIS
 62
   250
100
AcDbSpline
210
0.0
220
0.0
230
1.0
 70
    24
 71
     3
 72
     8
 73
     4
 74
     0
 42
0.0000000001
 43
0.0000000001
 40
0.0
 40
0.0
 40
0.0
 40
0.0
 40
1.0
 40
1.0
 40
1.0
 40
1.0
 10
-3.4562
 20
-18.3902
 30
0.0
 10
-3.4562
 20
-18.3902
 30
0.0
 10
-4.5142
 20
-18.3902
 30
0.0
 10
-4.5142
 20
-18.3902
 30
0.0
  0
SPLINE
  5
D0
330
1F
100
AcDbEntity
  8
AXIS
 62
   250
100
AcDbSpline
210
0.0
220
0.0
230
1.0
 70
    24
 71
     3
 72
     8
 73
     4
 74
     0
 42
0.0000000001
 43
0.0000000001
 40
0.0
 40
0.0
 40
0.0
 40
0.0
 40
1.0
 40
1.0
 40
1.0
 40
1.0
 10
-4.0978
 20
-17.1071
 30
0.0
 10
-4.0978
 20
-17.1071
 30
0.0
 10
-3.4562
 20
-17.1071
 30
0.0
 10
-3.4562
 20
-17.1071
 30
0.0
  0
SPLINE
  5
D1
330
1F
100
AcDbEntity
  8
AXIS
 62
   250
100
AcDbSpline
210
0.0
220
0.0
230
1.0
 70
    24
 71
     3
 72
     8
 73
     4
 74
     0
 42
0.0000000001
 43
0.0000000001
 40
0.0
 40
0.0
 40
0.0
 40
0.0
 40
1.0
 40
1.0
 40
1.0
 40
1.0
 10
-3.0285
 20
-17.1071
 30
0.0
 10
-3.0285
 20
-17.1071
 30
0.0
 10
-1.7454
 20
-17.1071
 30
0.0
 10
-1.7454
 20
-17.1071
 30
0.0
  0
SPLINE
  5
D2
330
1F
100
AcDbEntity
  8
AXIS
 62
   250
100
AcDbSpline
210
0.0
220
0.0
230
1.0
 70
    24
 71
     3
 72
     8
 73
     4
 74
     0
 42
0.0000000001
 43
0.0000000001
 40
0.0
 40
0.0
 40
0.0
 40
0.0
 40
1.0
 40
1.0
 40
1.0
 40
1.0
 10
-1.3177
 20
-17.1071
 30
0.0
 10
-1.3177
 20
-17.1071
 30
0.0
 10
-0.0345
 20
-17.1071
 30
0.0
 10
-0.0345
 20
-17.1071
 30
0.0
  0
SPLINE
  5
D3
330
1F
100
AcDbEntity
  8
AXIS
 62
   250
100
AcDbSpline
210
0.0
220
0.0
230
1.0
 70
    24
 71
     3
 72
     8
 73
     4
 74
     0
 42
0.0000000001
 43
0.0000000001
 40
0.0
 40
0.0
 40
0.0
 40
0.0
 40
1.0
 40
1.0
 40
1.0
 40
1.0
 10
7.2365
 20
-17.1071
 30
0.0
 10
7.2365
 20
-17.1071
 30
0.0
 10
8.5197
 20
-17.1071
 30
0.0
 10
8.5197
 20
-17.1071
 30
0.0
  0
SPLINE
  5
D4
330
1F
100
AcDbEntity
  8
AXIS
 62
   250
100
AcDbSpline
210
0.0
220
0.0
230
1.0
 70
    24
 71
     3
 72
     8
 73
     4
 74
     0
 42
0.0000000001
 43
0.0000000001
 40
0.0
 40
0.0
 40
0.0
 40
0.0
 40
1.0
 40
1.0
 40
1.0
 40
1.0
 10
8.9474
 20
-17.1071
 30
0.0
 10
8.9474
 20
-17.1071
 30
0.0
 10
10.2305
 20
-17.1071
 30
0.0
 10
10.2305
 20
-17.1071
 30
0.0
  0
SPLINE
  5
D5
330
1F
100
AcDbEntity
  8
AXIS
 62
   250
100
AcDbSpline
210
0.0
220
0.0
230
1.0
 70
    24
 71
     3
 72
     8
 73
     4
 74
     0
 42
0.0000000001
 43
0.0000000001
 40
0.0
 40
0.0
 40
0.0
 40
0.0
 40
1.0
 40
1.0
 40
1.0
 40
1.0
 10
10.6582
 20
-17.1071
 30
0.0
 10
10.6582
 20
-17.1071
 30
0.0
 10
11.2998
 20
-17.1071
 30
0.0
 10
11.2998
 20
-17.1071
 30
0.0
  0
SPLINE
  5
D6
330
1F
100
AcDbEntity
  8
AXIS
 62
   250
100
AcDbSpline
210
0.0
220
0.0
230
1.0
 70
    24
 71
     3
 72
     8
 73
     4
 74
     0
 42
0.0000000001
 43
0.0000000001
 40
0.0
 40
0.0
 40
0.0
 40
0.0
 40
1.0
 40
1.0
 40
1.0
 40
1.0
 10
7.2365
 20
-27.8212
 30
0.0
 10
7.2365
 20
-27.8212
 30
0.0
 10
7.2365
 20
-27.3721
 30
0.0
 10
7.2365
 20
-27.3721
 30
0.0
  0
SPLINE
  5
D7
330
1F
100
AcDbEntity
  8
AXIS
 62
   250
100
AcDbSpline
210
0.0
220
0.0
230
1.0
 70
    24
 71
     3
 72
     8
 73
     4
 74
     0
 42
0.0000000001
 43
0.0000000001
 40
0.0
 40
0.0
 40
0.0
 40
0.0
 40
1.0
 40
1.0
 40
1.0
 40
1.0
 10
7.2365
 20
-26.9444
 30
0.0
 10
7.2365
 20
-26.9444
 30
0.0
 10
7.2365
 20
-25.6613
 30
0.0
 10
7.2365
 20
-25.6613
 30
0.0
  0
SPLINE
  5
D8
330
1F
100
AcDbEntity
  8
AXIS
 62
   250
100
AcDbSpline
210
0.0
220
0.0
230
1.0
 70
    24
 71
     3
 72
     8
 73
     4
 74
     0
 42
0.0000000001
 43
0.0000000001
 40
0.0
 40
0.0
 40
0.0
 40
0.0
 40
1.0
 40
1.0
 40
1.0
 40
1.0
 10
7.2365
 20
-25.2336
 30
0.0
 10
7.2365
 20
-25.2336
 30
0.0
 10
7.2365
 20
-23.9504
 30
0.0
 10
7.2365
 20
-23.9504
 30
0.0
  0
SPLINE
  5
D9
330
1F
100
AcDbEntity
  8
AXIS
 62
   250
100
AcDbSpline
210
0.0
220
0.0
230
1.0
 70
    24
 71
     3
 72
     8
 73
     4
 74
     0
 42
0.0000000001
 43
0.0000000001
 40
0.0
 40
0.0
 40
0.0
 40
0.0
 40
1.0
 40
1.0
 40
1.0
 40
1.0
 10
7.2365
 20
-16.6794
 30
0.0
 10
7.2365
 20
-16.6794
 30
0.0
 10
7.2365
 20
-15.3962
 30
0.0
 10
7.2365
 20
-15.3962
 30
0.0
  0
SPLINE
  5
DA
330
1F
100
AcDbEntity
  8
AXIS
 62
   250
100
AcDbSpline
210
0.0
220
0.0
230
1.0
 70
    24
 71
     3
 72
     8
 73
     4
 74
     0
 42
0.0000000001
 43
0.0000000001
 40
0.0
 40
0.0
 40
0.0
 40
0.0
 40
1.0
 40
1.0
 40
1.0
 40
1.0
 10
7.2365
 20
-14.9685
 30
0.0
 10
7.2365
 20
-14.9685
 30
0.0
 10
7.2365
 20
-13.6854
 30
0.0
 10
7.2365
 20
-13.6854
 30
0.0
  0
SPLINE
  5
DB
330
1F
100
AcDbEntity
  8
AXIS
 62
   250
100
AcDbSpline
210
0.0
220
0.0
230
1.0
 70
    24
 71
     3
 72
     8
 73
     4
 74
     0
 42
0.0000000001
 43
0.0000000001
 40
0.0
 40
0.0
 40
0.0
 40
0.0
 40
1.0
 40
1.0
 40
1.0
 40
1.0
 10
7.2365
 20
-13.2577
 30
0.0
 10
7.2365
 20
-13.2577
 30
0.0
 10
7.2365
 20
-12.8086
 30
0.0
 10
7.2365
 20
-12.8086
 30
0.0
  0
SPLINE
  5
DC
330
1F
100
AcDbEntity
  8
AXIS
 62
   250
100
AcDbSpline
210
0.0
220
0.0
230
1.0
 70
    24
 71
     3
 72
     8
 73
     4
 74
     0
 42
0.0000000001
 43
0.0000000001
 40
0.0
 40
0.0
 40
0.0
 40
0.0
 40
1.0
 40
1.0
 40
1.0
 40
1.0
 10
11.1073
 20
-16.6794
 30
0.0
 10
11.1073
 20
-16.6794
 30
0.0
 10
10.6582
 20
-16.6794
 30
0.0
 10
10.6582
 20
-16.6794
 30
0.0
  0
SPLINE
  5
DD
330
1F
100
AcDbEntity
  8
AXIS
 62
   250
100
AcDbSpline
210
0.0
220
0.0
230
1.0
 70
    24
 71
     3
 72
     8
 73
     4
 74
     0
 42
0.0000000001
 43
0.0000000001
 40
0.0
 40
0.0
 40
0.0
 40
0.0
 40
1.0
 40
1.0
 40
1.0
 40
1.0
 10
10.2305
 20
-16.6794
 30
0.0
 10
10.2305
 20
-16.6794
 30
0.0
 10
8.9474
 20
-16.6794
 30
0.0
 10
8.9474
 20
-16.6794
 30
0.0
  0
SPLINE
  5
DE
330
1F
100
AcDbEntity
  8
AXIS
 62
   250
100
AcDbSpline
210
0.0
220
0.0
230
1.0
 70
    24
 71
     3
 72
     8
 73
     4
 74
     0
 42
0.0000000001
 43
0.0000000001
 40
0.0
 40
0.0
 40
0.0
 40
0.0
 40
1.0
 40
1.0
 40
1.0
 40
1.0
 10
8.5197
 20
-16.6794
 30
0.0
 10
8.5197
 20
-16.6794
 30
0.0
 10
7.2365
 20
-16.6794
 30
0.0
 10
7.2365
 20
-16.6794
 30
0.0
  0
SPLINE
  5
DF
330
1F
100
AcDbEntity
  8
AXIS
 62
   250
100
AcDbSpline
210
0.0
220
0.0
230
1.0
 70
    24
 71
     3
 72
     8
 73
     4
 74
     0
 42
0.0000000001
 43
0.0000000001
 40
0.0
 40
0.0
 40
0.0
 40
0.0
 40
1.0
 40
1.0
 40
1.0
 40
1.0
 10
-0.0345
 20
-16.6794
 30
0.0
 10
-0.0345
 20
-16.6794
 30
0.0
 10
-1.3177
 20
-16.6794
 30
0.0
 10
-1.3177
 20
-16.6794
 30
0.0
  0
SPLINE
  5
E0
330
1F
100
AcDbEntity
  8
AXIS
 62
   250
100
AcDbSpline
210
0.0
220
0.0
230
1.0
 70
    24
 71
     3
 72
     8
 73
     4
 74
     0
 42
0.0000000001
 43
0.0000000001
 40
0.0
 40
0.0
 40
0.0
 40
0.0
 40
1.0
 40
1.0
 40
1.0
 40
1.0
 10
-1.7454
 20
-16.6794
 30
0.0
 10
-1.7454
 20
-16.6794
 30
0.0
 10
-3.0285
 20
-16.6794
 30
0.0
 10
-3.0285
 20
-16.6794
 30
0.0
  0
SPLINE
  5
E1
330
1F
100
AcDbEntity
  8
AXIS
 62
   250
100
AcDbSpline
210
0.0
220
0.0
230
1.0
 70
    24
 71
     3
 72
     8
 73
     4
 74
     0
 42
0.0000000001
 43
0.0000000001
 40
0.0
 40
0.0
 40
0.0
 40
0.0
 40
1.0
 40
1.0
 40
1.0
 40
1.0
 10
-3.4562
 20
-16.6794
 30
0.0
 10
-3.4562
 20
-16.6794
 30
0.0
 10
-3.9053
 20
-16.6794
 30
0.0
 10
-3.9053
 20
-16.6794
 30
0.0
  0
SPLINE
  5
E2
330
1F
100
AcDbEntity
  8
AXIS
 62
   250
100
AcDbSpline
210
0.0
220
0.0
230
1.0
 70
    24
 71
     3
 72
     8
 73
     4
 74
     0
 42
0.0000000001
 43
0.0000000001
 40
0.0
 40
0.0
 40
0.0
 40
0.0
 40
1.0
 40
1.0
 40
1.0
 40
1.0
 10
8.5197
 20
-13.6854
 30
0.0
 10
8.5197
 20
-13.6854
 30
0.0
 10
8.5197
 20
-14.9685
 30
0.0
 10
8.5197
 20
-14.9685
 30
0.0
  0
SPLINE
  5
E3
330
1F
100
AcDbEntity
  8
AXIS
 62
   250
100
AcDbSpline
210
0.0
220
0.0
230
1.0
 70
    24
 71
     3
 72
     8
 73
     4
 74
     0
 42
0.0000000001
 43
0.0000000001
 40
0.0
 40
0.0
 40
0.0
 40
0.0
 40
1.0
 40
1.0
 40
1.0
 40
1.0
 10
8.5197
 20
-15.3962
 30
0.0
 10
8.5197
 20
-15.3962
 30
0.0
 10
8.5197
 20
-16.6794
 30
0.0
 10
8.5197
 20
-16.6794
 30
0.0
  0
SPLINE
  5
E4
330
1F
100
AcDbEntity
  8
AXIS
 62
   250
100
AcDbSpline
210
0.0
220
0.0
230
1.0
 70
    24
 71
     3
 72
     8
 73
     4
 74
     0
 42
0.0000000001
 43
0.0000000001
 40
0.0
 40
0.0
 40
0.0
 40
0.0
 40
1.0
 40
1.0
 40
1.0
 40
1.0
 10
8.5197
 20
-17.1071
 30
0.0
 10
8.5197
 20
-17.1071
 30
0.0
 10
8.5197
 20
-18.3902
 30
0.0
 10
8.5197
 20
-18.3902
 30
0.0
  0
SPLINE
  5
E5
330
1F
100
AcDbEntity
  8
AXIS
 62
   250
100
AcDbSpline
210
0.0
220
0.0
230
1.0
 70
    24
 71
     3
 72
     8
 73
     4
 74
     0
 42
0.0000000001
 43
0.0000000001
 40
0.0
 40
0.0
 40
0.0
 40
0.0
 40
1.0
 40
1.0
 40
1.0
 40
1.0
 10
8.5197
 20
-18.8179
 30
0.0
 10
8.5197
 20
-18.8179
 30
0.0
 10
8.5197
 20
-20.101
 30
0.0
 10
8.5197
 20
-20.101
 30
0.0
  0
SPLINE
  5
E6
330
1F
100
AcDbEntity
  8
AXIS
 62
   250
100
AcDbSpline
210
0.0
220
0.0
230
1.0
 70
    24
 71
     3
 72
     8
 73
     4
 74
     0
 42
0.0000000001
 43
0.0000000001
 40
0.0
 40
0.0
 40
0.0
 40
0.0
 40
1.0
 40
1.0
 40
1.0
 40
1.0
 10
8.5197
 20
-20.5288
 30
0.0
 10
8.5197
 20
-20.5288
 30
0.0
 10
8.5197
 20
-21.8119
 30
0.0
 10
8.5197
 20
-21.8119
 30
0.0
  0
SPLINE
  5
E7
330
1F
100
AcDbEntity
  8
AXIS
 62
   250
100
AcDbSpline
210
0.0
220
0.0
230
1.0
 70
    24
 71
     3
 72
     8
 73
     4
 74
     0
 42
0.0000000001
 43
0.0000000001
 40
0.0
 40
0.0
 40
0.0
 40
0.0
 40
1.0
 40
1.0
 40
1.0
 40
1.0
 10
8.5197
 20
-22.2396
 30
0.0
 10
8.5197
 20
-22.2396
 30
0.0
 10
8.5197
 20
-23.5227
 30
0.0
 10
8.5197
 20
-23.5227
 30
0.0
  0
SPLINE
  5
E8
330
1F
100
AcDbEntity
  8
AXIS
 62
   250
100
AcDbSpline
210
0.0
220
0.0
230
1.0
 70
    24
 71
     3
 72
     8
 73
     4
 74
     0
 42
0.0000000001
 43
0.0000000001
 40
0.0
 40
0.0
 40
0.0
 40
0.0
 40
1.0
 40
1.0
 40
1.0
 40
1.0
 10
8.5197
 20
-23.9504
 30
0.0
 10
8.5197
 20
-23.9504
 30
0.0
 10
8.5197
 20
-25.2336
 30
0.0
 10
8.5197
 20
-25.2336
 30
0.0
  0
SPLINE
  5
E9
330
1F
100
AcDbEntity
  8
AXIS
 62
   250
100
AcDbSpline
210
0.0
220
0.0
230
1.0
 70
    24
 71
     3
 72
     8
 73
     4
 74
     0
 42
0.0000000001
 43
0.0000000001
 40
0.0
 40
0.0
 40
0.0
 40
0.0
 40
1.0
 40
1.0
 40
1.0
 40
1.0
 10
8.5197
 20
-25.6613
 30
0.0
 10
8.5197
 20
-25.6613
 30
0.0
 10
8.5197
 20
-26.9444
 30
0.0
 10
8.5197
 20
-26.9444
 30
0.0
  0
SPLINE
  5
EA
330
1F
100
AcDbEntity
  8
AXIS
 62
   250
100
AcDbSpline
210
0.0
220
0.0
230
1.0
 70
    24
 71
     3
 72
     8
 73
     4
 74
     0
 42
0.0000000001
 43
0.0000000001
 40
0.0
 40
0.0
 40
0.0
 40
0.0
 40
1.0
 40
1.0
 40
1.0
 40
1.0
 10
8.9474
 20
-26.7163
 30
0.0
 10
8.9474
 20
-26.7163
 30
0.0
 10
8.9474
 20
-25.6613
 30
0.0
 10
8.9474
 20
-25.6613
 30
0.0
  0
SPLINE
  5
EB
330
1F
100
AcDbEntity
  8
AXIS
 62
   250
100
AcDbSpline
210
0.0
220
0.0
230
1.0
 70
    24
 71
     3
 72
     8
 73
     4
 74
     0
 42
0.0000000001
 43
0.0000000001
 40
0.0
 40
0.0
 40
0.0
 40
0.0
 40
1.0
 40
1.0
 40
1.0
 40
1.0
 10
8.9474
 20
-25.2336
 30
0.0
 10
8.9474
 20
-25.2336
 30
0.0
 10
8.9474
 20
-23.9504
 30
0.0
 10
8.9474
 20
-23.9504
 30
0.0
  0
SPLINE
  5
EC
330
1F
100
AcDbEntity
  8
AXIS
 62
   250
100
AcDbSpline
210
0.0
220
0.0
230
1.0
 70
    24
 71
     3
 72
     8
 73
     4
 74
     0
 42
0.0000000001
 43
0.0000000001
 40
0.0
 40
0.0
 40
0.0
 40
0.0
 40
1.0
 40
1.0
 40
1.0
 40
1.0
 10
8.9474
 20
-23.5227
 30
0.0
 10
8.9474
 20
-23.5227
 30
0.0
 10
8.9474
 20
-22.2396
 30
0.0
 10
8.9474
 20
-22.2396
 30
0.0
  0
SPLINE
  5
ED
330
1F
100
AcDbEntity
  8
AXIS
 62
   250
100
AcDbSpline
210
0.0
220
0.0
230
1.0
 70
    24
 71
     3
 72
     8
 73
     4
 74
     0
 42
0.0000000001
 43
0.0000000001
 40
0.0
 40
0.0
 40
0.0
 40
0.0
 40
1.0
 40
1.0
 40
1.0
 40
1.0
 10
8.9474
 20
-21.8119
 30
0.0
 10
8.9474
 20
-21.8119
 30
0.0
 10
8.9474
 20
-20.5288
 30
0.0
 10
8.9474
 20
-20.5288
 30
0.0
  0
SPLINE
  5
EE
330
1F
100
AcDbEntity
  8
AXIS
 62
   250
100
AcDbSpline
210
0.0
220
0.0
230
1.0
 70
    24
 71
     3
 72
     8
 73
     4
 74
     0
 42
0.0000000001
 43
0.0000000001
 40
0.0
 40
0.0
 40
0.0
 40
0.0
 40
1.0
 40
1.0
 40
1.0
 40
1.0
 10
8.9474
 20
-20.101
 30
0.0
 10
8.9474
 20
-20.101
 30
0.0
 10
8.9474
 20
-18.8179
 30
0.0
 10
8.9474
 20
-18.8179
 30
0.0
  0
SPLINE
  5
EF
330
1F
100
AcDbEntity
  8
AXIS
 62
   250
100
AcDbSpline
210
0.0
220
0.0
230
1.0
 70
    24
 71
     3
 72
     8
 73
     4
 74
     0
 42
0.0000000001
 43
0.0000000001
 40
0.0
 40
0.0
 40
0.0
 40
0.0
 40
1.0
 40
1.0
 40
1.0
 40
1.0
 10
8.9474
 20
-18.3902
 30
0.0
 10
8.9474
 20
-18.3902
 30
0.0
 10
8.9474
 20
-17.1071
 30
0.0
 10
8.9474
 20
-17.1071
 30
0.0
  0
SPLINE
  5
F0
330
1F
100
AcDbEntity
  8
AXIS
 62
   250
100
AcDbSpline
210
0.0
220
0.0
230
1.0
 70
    24
 71
     3
 72
     8
 73
     4
 74
     0
 42
0.0000000001
 43
0.0000000001
 40
0.0
 40
0.0
 40
0.0
 40
0.0
 40
1.0
 40
1.0
 40
1.0
 40
1.0
 10
8.9474
 20
-16.6794
 30
0.0
 10
8.9474
 20
-16.6794
 30
0.0
 10
8.9474
 20
-15.3962
 30
0.0
 10
8.9474
 20
-15.3962
 30
0.0
  0
SPLINE
  5
F1
330
1F
100
AcDbEntity
  8
AXIS
 62
   250
100
AcDbSpline
210
0.0
220
0.0
230
1.0
 70
    24
 71
     3
 72
     8
 73
     4
 74
     0
 42
0.0000000001
 43
0.0000000001
 40
0.0
 40
0.0
 40
0.0
 40
0.0
 40
1.0
 40
1.0
 40
1.0
 40
1.0
 10
8.9474
 20
-14.9685
 30
0.0
 10
8.9474
 20
-14.9685
 30
0.0
 10
8.9474
 20
-13.9135
 30
0.0
 10
8.9474
 20
-13.9135
 30
0.0
  0
SPLINE
  5
F2
330
1F
100
AcDbEntity
  8
AXIS
 62
   250
100
AcDbSpline
210
0.0
220
0.0
230
1.0
 70
    24
 71
     3
 72
     8
 73
     4
 74
     0
 42
0.0000000001
 43
0.0000000001
 40
0.0
 40
0.0
 40
0.0
 40
0.0
 40
1.0
 40
1.0
 40
1.0
 40
1.0
 10
-3.0285
 20
-15.3962
 30
0.0
 10
-3.0285
 20
-15.3962
 30
0.0
 10
-1.7454
 20
-15.3962
 30
0.0
 10
-1.7454
 20
-15.3962
 30
0.0
  0
SPLINE
  5
F3
330
1F
100
AcDbEntity
  8
AXIS
 62
   250
100
AcDbSpline
210
0.0
220
0.0
230
1.0
 70
    24
 71
     3
 72
     8
 73
     4
 74
     0
 42
0.0000000001
 43
0.0000000001
 40
0.0
 40
0.0
 40
0.0
 40
0.0
 40
1.0
 40
1.0
 40
1.0
 40
1.0
 10
-1.3177
 20
-15.3962
 30
0.0
 10
-1.3177
 20
-15.3962
 30
0.0
 10
-0.0345
 20
-15.3962
 30
0.0
 10
-0.0345
 20
-15.3962
 30
0.0
  0
SPLINE
  5
F4
330
1F
100
AcDbEntity
  8
AXIS
 62
   250
100
AcDbSpline
210
0.0
220
0.0
230
1.0
 70
    24
 71
     3
 72
     8
 73
     4
 74
     0
 42
0.0000000001
 43
0.0000000001
 40
0.0
 40
0.0
 40
0.0
 40
0.0
 40
1.0
 40
1.0
 40
1.0
 40
1.0
 10
0.3932
 20
-15.3962
 30
0.0
 10
0.3932
 20
-15.3962
 30
0.0
 10
1.6763
 20
-15.3962
 30
0.0
 10
1.6763
 20
-15.3962
 30
0.0
  0
SPLINE
  5
F5
330
1F
100
AcDbEntity
  8
AXIS
 62
   250
100
AcDbSpline
210
0.0
220
0.0
230
1.0
 70
    24
 71
     3
 72
     8
 73
     4
 74
     0
 42
0.0000000001
 43
0.0000000001
 40
0.0
 40
0.0
 40
0.0
 40
0.0
 40
1.0
 40
1.0
 40
1.0
 40
1.0
 10
2.104
 20
-15.3962
 30
0.0
 10
2.104
 20
-15.3962
 30
0.0
 10
3.3871
 20
-15.3962
 30
0.0
 10
3.3871
 20
-15.3962
 30
0.0
  0
SPLINE
  5
F6
330
1F
100
AcDbEntity
  8
AXIS
 62
   250
100
AcDbSpline
210
0.0
220
0.0
230
1.0
 70
    24
 71
     3
 72
     8
 73
     4
 74
     0
 42
0.0000000001
 43
0.0000000001
 40
0.0
 40
0.0
 40
0.0
 40
0.0
 40
1.0
 40
1.0
 40
1.0
 40
1.0
 10
3.8148
 20
-15.3962
 30
0.0
 10
3.8148
 20
-15.3962
 30
0.0
 10
5.098
 20
-15.3962
 30
0.0
 10
5.098
 20
-15.3962
 30
0.0
  0
SPLINE
  5
F7
330
1F
100
AcDbEntity
  8
AXIS
 62
   250
100
AcDbSpline
210
0.0
220
0.0
230
1.0
 70
    24
 71
     3
 72
     8
 73
     4
 74
     0
 42
0.0000000001
 43
0.0000000001
 40
0.0
 40
0.0
 40
0.0
 40
0.0
 40
1.0
 40
1.0
 40
1.0
 40
1.0
 10
5.5257
 20
-15.3962
 30
0.0
 10
5.5257
 20
-15.3962
 30
0.0
 10
6.8088
 20
-15.3962
 30
0.0
 10
6.8088
 20
-15.3962
 30
0.0
  0
SPLINE
  5
F8
330
1F
100
AcDbEntity
  8
AXIS
 62
   250
100
AcDbSpline
210
0.0
220
0.0
230
1.0
 70
    24
 71
     3
 72
     8
 73
     4
 74
     0
 42
0.0000000001
 43
0.0000000001
 40
0.0
 40
0.0
 40
0.0
 40
0.0
 40
1.0
 40
1.0
 40
1.0
 40
1.0
 10
7.2365
 20
-15.3962
 30
0.0
 10
7.2365
 20
-15.3962
 30
0.0
 10
8.5197
 20
-15.3962
 30
0.0
 10
8.5197
 20
-15.3962
 30
0.0
  0
SPLINE
  5
F9
330
1F
100
AcDbEntity
  8
AXIS
 62
   250
100
AcDbSpline
210
0.0
220
0.0
230
1.0
 70
    24
 71
     3
 72
     8
 73
     4
 74
     0
 42
0.0000000001
 43
0.0000000001
 40
0.0
 40
0.0
 40
0.0
 40
0.0
 40
1.0
 40
1.0
 40
1.0
 40
1.0
 10
8.9474
 20
-15.3962
 30
0.0
 10
8.9474
 20
-15.3962
 30
0.0
 10
10.2305
 20
-15.3962
 30
0.0
 10
10.2305
 20
-15.3962
 30
0.0
  0
SPLINE
  5
FA
330
1F
100
AcDbEntity
  8
AXIS
 62
   250
100
AcDbSpline
210
0.0
220
0.0
230
1.0
 70
    24
 71
     3
 72
     8
 73
     4
 74
     0
 42
0.0000000001
 43
0.0000000001
 40
0.0
 40
0.0
 40
0.0
 40
0.0
 40
1.0
 40
1.0
 40
1.0
 40
1.0
 10
10.0024
 20
-14.9685
 30
0.0
 10
10.0024
 20
-14.9685
 30
0.0
 10
8.9474
 20
-14.9685
 30
0.0
 10
8.9474
 20
-14.9685
 30
0.0
  0
SPLINE
  5
FB
330
1F
100
AcDbEntity
  8
AXIS
 62
   250
100
AcDbSpline
210
0.0
220
0.0
230
1.0
 70
    24
 71
     3
 72
     8
 73
     4
 74
     0
 42
0.0000000001
 43
0.0000000001
 40
0.0
 40
0.0
 40
0.0
 40
0.0
 40
1.0
 40
1.0
 40
1.0
 40
1.0
 10
8.5197
 20
-14.9685
 30
0.0
 10
8.5197
 20
-14.9685
 30
0.0
 10
7.2365
 20
-14.9685
 30
0.0
 10
7.2365
 20
-14.9685
 30
0.0
  0
SPLINE
  5
FC
330
1F
100
AcDbEntity
  8
AXIS
 62
   250
100
AcDbSpline
210
0.0
220
0.0
230
1.0
 70
    24
 71
     3
 72
     8
 73
     4
 74
     0
 42
0.0000000001
 43
0.0000000001
 40
0.0
 40
0.0
 40
0.0
 40
0.0
 40
1.0
 40
1.0
 40
1.0
 40
1.0
 10
6.8088
 20
-14.9685
 30
0.0
 10
6.8088
 20
-14.9685
 30
0.0
 10
5.5257
 20
-14.9685
 30
0.0
 10
5.5257
 20
-14.9685
 30
0.0
  0
SPLINE
  5
FD
330
1F
100
AcDbEntity
  8
AXIS
 62
   250
100
AcDbSpline
210
0.0
220
0.0
230
1.0
 70
    24
 71
     3
 72
     8
 73
     4
 74
     0
 42
0.0000000001
 43
0.0000000001
 40
0.0
 40
0.0
 40
0.0
 40
0.0
 40
1.0
 40
1.0
 40
1.0
 40
1.0
 10
5.098
 20
-14.9685
 30
0.0
 10
5.098
 20
-14.9685
 30
0.0
 10
3.8148
 20
-14.9685
 30
0.0
 10
3.8148
 20
-14.9685
 30
0.0
  0
SPLINE
  5
FE
330
1F
100
AcDbEntity
  8
AXIS
 62
   250
100
AcDbSpline
210
0.0
220
0.0
230
1.0
 70
    24
 71
     3
 72
     8
 73
     4
 74
     0
 42
0.0000000001
 43
0.0000000001
 40
0.0
 40
0.0
 40
0.0
 40
0.0
 40
1.0
 40
1.0
 40
1.0
 40
1.0
 10
3.3871
 20
-14.9685
 30
0.0
 10
3.3871
 20
-14.9685
 30
0.0
 10
2.104
 20
-14.9685
 30
0.0
 10
2.104
 20
-14.9685
 30
0.0
  0
SPLINE
  5
FF
330
1F
100
AcDbEntity
  8
AXIS
 62
   250
100
AcDbSpline
210
0.0
220
0.0
230
1.0
 70
    24
 71
     3
 72
     8
 73
     4
 74
     0
 42
0.0000000001
 43
0.0000000001
 40
0.0
 40
0.0
 40
0.0
 40
0.0
 40
1.0
 40
1.0
 40
1.0
 40
1.0
 10
1.6763
 20
-14.9685
 30
0.0
 10
1.6763
 20
-14.9685
 30
0.0
 10
0.3932
 20
-14.9685
 30
0.0
 10
0.3932
 20
-14.9685
 30
0.0
  0
SPLINE
  5
100
330
1F
100
AcDbEntity
  8
AXIS
 62
   250
100
AcDbSpline
210
0.0
220
0.0
230
1.0
 70
    24
 71
     3
 72
     8
 73
     4
 74
     0
 42
0.0000000001
 43
0.0000000001
 40
0.0
 40
0.0
 40
0.0
 40
0.0
 40
1.0
 40
1.0
 40
1.0
 40
1.0
 10
-0.0345
 20
-14.9685
 30
0.0
 10
-0.0345
 20
-14.9685
 30
0.0
 10
-1.3177
 20
-14.9685
 30
0.0
 10
-1.3177
 20
-14.9685
 30
0.0
  0
SPLINE
  5
101
330
1F
100
AcDbEntity
  8
AXIS
 62
   250
100
AcDbSpline
210
0.0
220
0.0
230
1.0
 70
    24
 71
     3
 72
     8
 73
     4
 74
     0
 42
0.0000000001
 43
0.0000000001
 40
0.0
 40
0.0
 40
0.0
 40
0.0
 40
1.0
 40
1.0
 40
1.0
 40
1.0
 10
-1.7454
 20
-14.9685
 30
0.0
 10
-1.7454
 20
-14.9685
 30
0.0
 10
-2.8004
 20
-14.9685
 30
0.0
 10
-2.8004
 20
-14.9685
 30
0.0
  0
SPLINE
  5
102
330
1F
100
AcDbEntity
  8
AXIS
 62
   250
100
AcDbSpline
210
0.0
220
0.0
230
1.0
 70
    24
 71
     3
 72
     8
 73
     4
 74
     0
 42
0.0000000001
 43
0.0000000001
 40
0.0
 40
0.0
 40
0.0
 40
0.0
 40
1.0
 40
1.0
 40
1.0
 40
1.0
 10
10.2305
 20
-15.3962
 30
0.0
 10
10.2305
 20
-15.3962
 30
0.0
 10
10.2305
 20
-16.6794
 30
0.0
 10
10.2305
 20
-16.6794
 30
0.0
  0
SPLINE
  5
103
330
1F
100
AcDbEntity
  8
AXIS
 62
   250
100
AcDbSpline
210
0.0
220
0.0
230
1.0
 70
    24
 71
     3
 72
     8
 73
     4
 74
     0
 42
0.0000000001
 43
0.0000000001
 40
0.0
 40
0.0
 40
0.0
 40
0.0
 40
1.0
 40
1.0
 40
1.0
 40
1.0
 10
10.2305
 20
-17.1071
 30
0.0
 10
10.2305
 20
-17.1071
 30
0.0
 10
10.2305
 20
-18.3902
 30
0.0
 10
10.2305
 20
-18.3902
 30
0.0
  0
SPLINE
  5
104
330
1F
100
AcDbEntity
  8
AXIS
 62
   250
100
AcDbSpline
210
0.0
220
0.0
230
1.0
 70
    24
 71
     3
 72
     8
 73
     4
 74
     0
 42
0.0000000001
 43
0.0000000001
 40
0.0
 40
0.0
 40
0.0
 40
0.0
 40
1.0
 40
1.0
 40
1.0
 40
1.0
 10
10.2305
 20
-18.8179
 30
0.0
 10
10.2305
 20
-18.8179
 30
0.0
 10
10.2305
 20
-20.101
 30
0.0
 10
10.2305
 20
-20.101
 30
0.0
  0
SPLINE
  5
105
330
1F
100
AcDbEntity
  8
AXIS
 62
   250
100
AcDbSpline
210
0.0
220
0.0
230
1.0
 70
    24
 71
     3
 72
     8
 73
     4
 74
     0
 42
0.0000000001
 43
0.0000000001
 40
0.0
 40
0.0
 40
0.0
 40
0.0
 40
1.0
 40
1.0
 40
1.0
 40
1.0
 10
10.2305
 20
-20.5288
 30
0.0
 10
10.2305
 20
-20.5288
 30
0.0
 10
10.2305
 20
-21.8119
 30
0.0
 10
10.2305
 20
-21.8119
 30
0.0
  0
SPLINE
  5
106
330
1F
100
AcDbEntity
  8
AXIS
 62
   250
100
AcDbSpline
210
0.0
220
0.0
230
1.0
 70
    24
 71
     3
 72
     8
 73
     4
 74
     0
 42
0.0000000001
 43
0.0000000001
 40
0.0
 40
0.0
 40
0.0
 40
0.0
 40
1.0
 40
1.0
 40
1.0
 40
1.0
 10
10.2305
 20
-22.2396
 30
0.0
 10
10.2305
 20
-22.2396
 30
0.0
 10
10.2305
 20
-23.5227
 30
0.0
 10
10.2305
 20
-23.5227
 30
0.0
  0
SPLINE
  5
107
330
1F
100
AcDbEntity
  8
AXIS
 62
   250
100
AcDbSpline
210
0.0
220
0.0
230
1.0
 70
    24
 71
     3
 72
     8
 73
     4
 74
     0
 42
0.0000000001
 43
0.0000000001
 40
0.0
 40
0.0
 40
0.0
 40
0.0
 40
1.0
 40
1.0
 40
1.0
 40
1.0
 10
10.2305
 20
-23.9504
 30
0.0
 10
10.2305
 20
-23.9504
 30
0.0
 10
10.2305
 20
-25.2336
 30
0.0
 10
10.2305
 20
-25.2336
 30
0.0
  0
SPLINE
  5
108
330
1F
100
AcDbEntity
  8
AXIS
 62
   250
100
AcDbSpline
210
0.0
220
0.0
230
1.0
 70
    24
 71
     3
 72
     8
 73
     4
 74
     0
 42
0.0000000001
 43
0.0000000001
 40
0.0
 40
0.0
 40
0.0
 40
0.0
 40
1.0
 40
1.0
 40
1.0
 40
1.0
 10
10.6582
 20
-24.7598
 30
0.0
 10
10.6582
 20
-24.7598
 30
0.0
 10
10.6582
 20
-23.9504
 30
0.0
 10
10.6582
 20
-23.9504
 30
0.0
  0
SPLINE
  5
109
330
1F
100
AcDbEntity
  8
AXIS
 62
   250
100
AcDbSpline
210
0.0
220
0.0
230
1.0
 70
    24
 71
     3
 72
     8
 73
     4
 74
     0
 42
0.0000000001
 43
0.0000000001
 40
0.0
 40
0.0
 40
0.0
 40
0.0
 40
1.0
 40
1.0
 40
1.0
 40
1.0
 10
10.6582
 20
-23.5227
 30
0.0
 10
10.6582
 20
-23.5227
 30
0.0
 10
10.6582
 20
-22.2396
 30
0.0
 10
10.6582
 20
-22.2396
 30
0.0
  0
SPLINE
  5
10A
330
1F
100
AcDbEntity
  8
AXIS
 62
   250
100
AcDbSpline
210
0.0
220
0.0
230
1.0
 70
    24
 71
     3
 72
     8
 73
     4
 74
     0
 42
0.0000000001
 43
0.0000000001
 40
0.0
 40
0.0
 40
0.0
 40
0.0
 40
1.0
 40
1.0
 40
1.0
 40
1.0
 10
10.6582
 20
-21.8119
 30
0.0
 10
10.6582
 20
-21.8119
 30
0.0
 10
10.6582
 20
-20.5288
 30
0.0
 10
10.6582
 20
-20.5288
 30
0.0
  0
SPLINE
  5
10B
330
1F
100
AcDbEntity
  8
AXIS
 62
   250
100
AcDbSpline
210
0.0
220
0.0
230
1.0
 70
    24
 71
     3
 72
     8
 73
     4
 74
     0
 42
0.0000000001
 43
0.0000000001
 40
0.0
 40
0.0
 40
0.0
 40
0.0
 40
1.0
 40
1.0
 40
1.0
 40
1.0
 10
10.6582
 20
-20.101
 30
0.0
 10
10.6582
 20
-20.101
 30
0.0
 10
10.6582
 20
-18.8179
 30
0.0
 10
10.6582
 20
-18.8179
 30
0.0
  0
SPLINE
  5
10C
330
1F
100
AcDbEntity
  8
AXIS
 62
   250
100
AcDbSpline
210
0.0
220
0.0
230
1.0
 70
    24
 71
     3
 72
     8
 73
     4
 74
     0
 42
0.0000000001
 43
0.0000000001
 40
0.0
 40
0.0
 40
0.0
 40
0.0
 40
1.0
 40
1.0
 40
1.0
 40
1.0
 10
10.6582
 20
-18.3902
 30
0.0
 10
10.6582
 20
-18.3902
 30
0.0
 10
10.6582
 20
-17.1071
 30
0.0
 10
10.6582
 20
-17.1071
 30
0.0
  0
SPLINE
  5
10D
330
1F
100
AcDbEntity
  8
AXIS
 62
   250
100
AcDbSpline
210
0.0
220
0.0
230
1.0
 70
    24
 71
     3
 72
     8
 73
     4
 74
     0
 42
0.0000000001
 43
0.0000000001
 40
0.0
 40
0.0
 40
0.0
 40
0.0
 40
1.0
 40
1.0
 40
1.0
 40
1.0
 10
10.6582
 20
-16.6794
 30
0.0
 10
10.6582
 20
-16.6794
 30
0.0
 10
10.6582
 20
-15.87
 30
0.0
 10
10.6582
 20
-15.87
 30
0.0
  0
SPLINE
  5
10E
330
1F
100
AcDbEntity
  8
AXIS
 62
   250
100
AcDbSpline
210
0.0
220
0.0
230
1.0
 70
    24
 71
     3
 72
     8
 73
     4
 74
     0
 42
0.0000000001
 43
0.0000000001
 40
0.0
 40
0.0
 40
0.0
 40
0.0
 40
1.0
 40
1.0
 40
1.0
 40
1.0
 10
-1.3177
 20
-13.6854
 30
0.0
 10
-1.3177
 20
-13.6854
 30
0.0
 10
-0.0345
 20
-13.6854
 30
0.0
 10
-0.0345
 20
-13.6854
 30
0.0
  0
SPLINE
  5
10F
330
1F
100
AcDbEntity
  8
AXIS
 62
   250
100
AcDbSpline
210
0.0
220
0.0
230
1.0
 70
    24
 71
     3
 72
     8
 73
     4
 74
     0
 42
0.0000000001
 43
0.0000000001
 40
0.0
 40
0.0
 40
0.0
 40
0.0
 40
1.0
 40
1.0
 40
1.0
 40
1.0
 10
0.3932
 20
-13.6854
 30
0.0
 10
0.3932
 20
-13.6854
 30
0.0
 10
1.6763
 20
-13.6854
 30
0.0
 10
1.6763
 20
-13.6854
 30
0.0
  0
SPLINE
  5
110
330
1F
100
AcDbEntity
  8
AXIS
 62
   250
100
AcDbSpline
210
0.0
220
0.0
230
1.0
 70
    24
 71
     3
 72
     8
 73
     4
 74
     0
 42
0.0000000001
 43
0.0000000001
 40
0.0
 40
0.0
 40
0.0
 40
0.0
 40
1.0
 40
1.0
 40
1.0
 40
1.0
 10
2.104
 20
-13.6854
 30
0.0
 10
2.104
 20
-13.6854
 30
0.0
 10
3.3871
 20
-13.6854
 30
0.0
 10
3.3871
 20
-13.6854
 30
0.0
  0
SPLINE
  5
111
330
1F
100
AcDbEntity
  8
AXIS
 62
   250
100
AcDbSpline
210
0.0
220
0.0
230
1.0
 70
    24
 71
     3
 72
     8
 73
     4
 74
     0
 42
0.0000000001
 43
0.0000000001
 40
0.0
 40
0.0
 40
0.0
 40
0.0
 40
1.0
 40
1.0
 40
1.0
 40
1.0
 10
3.8148
 20
-13.6854
 30
0.0
 10
3.8148
 20
-13.6854
 30
0.0
 10
5.098
 20
-13.6854
 30
0.0
 10
5.098
 20
-13.6854
 30
0.0
  0
SPLINE
  5
112
330
1F
100
AcDbEntity
  8
AXIS
 62
   250
100
AcDbSpline
210
0.0
220
0.0
230
1.0
 70
    24
 71
     3
 72
     8
 73
     4
 74
     0
 42
0.0000000001
 43
0.0000000001
 40
0.0
 40
0.0
 40
0.0
 40
0.0
 40
1.0
 40
1.0
 40
1.0
 40
1.0
 10
5.5257
 20
-13.6854
 30
0.0
 10
5.5257
 20
-13.6854
 30
0.0
 10
6.8088
 20
-13.6854
 30
0.0
 10
6.8088
 20
-13.6854
 30
0.0
  0
SPLINE
  5
113
330
1F
100
AcDbEntity
  8
AXIS
 62
   250
100
AcDbSpline
210
0.0
220
0.0
230
1.0
 70
    24
 71
     3
 72
     8
 73
     4
 74
     0
 42
0.0000000001
 43
0.0000000001
 40
0.0
 40
0.0
 40
0.0
 40
0.0
 40
1.0
 40
1.0
 40
1.0
 40
1.0
 10
7.2365
 20
-13.6854
 30
0.0
 10
7.2365
 20
-13.6854
 30
0.0
 10
8.5197
 20
-13.6854
 30
0.0
 10
8.5197
 20
-13.6854
 30
0.0
  0
SPLINE
  5
114
330
1F
100
AcDbEntity
  8
AXIS
 62
   250
100
AcDbSpline
210
0.0
220
0.0
230
1.0
 70
    24
 71
     3
 72
     8
 73
     4
 74
     0
 42
0.0000000001
 43
0.0000000001
 40
0.0
 40
0.0
 40
0.0
 40
0.0
 40
1.0
 40
1.0
 40
1.0
 40
1.0
 10
8.0459
 20
-13.2577
 30
0.0
 10
8.0459
 20
-13.2577
 30
0.0
 10
7.2365
 20
-13.2577
 30
0.0
 10
7.2365
 20
-13.2577
 30
0.0
  0
SPLINE
  5
115
330
1F
100
AcDbEntity
  8
AXIS
 62
   250
100
AcDbSpline
210
0.0
220
0.0
230
1.0
 70
    24
 71
     3
 72
     8
 73
     4
 74
     0
 42
0.0000000001
 43
0.0000000001
 40
0.0
 40
0.0
 40
0.0
 40
0.0
 40
1.0
 40
1.0
 40
1.0
 40
1.0
 10
6.8088
 20
-13.2577
 30
0.0
 10
6.8088
 20
-13.2577
 30
0.0
 10
5.5257
 20
-13.2577
 30
0.0
 10
5.5257
 20
-13.2577
 30
0.0
  0
SPLINE
  5
116
330
1F
100
AcDbEntity
  8
AXIS
 62
   250
100
AcDbSpline
210
0.0
220
0.0
230
1.0
 70
    24
 71
     3
 72
     8
 73
     4
 74
     0
 42
0.0000000001
 43
0.0000000001
 40
0.0
 40
0.0
 40
0.0
 40
0.0
 40
1.0
 40
1.0
 40
1.0
 40
1.0
 10
5.098
 20
-13.2577
 30
0.0
 10
5.098
 20
-13.2577
 30
0.0
 10
3.8148
 20
-13.2577
 30
0.0
 10
3.8148
 20
-13.2577
 30
0.0
  0
SPLINE
  5
117
330
1F
100
AcDbEntity
  8
AXIS
 62
   250
100
AcDbSpline
210
0.0
220
0.0
230
1.0
 70
    24
 71
     3
 72
     8
 73
     4
 74
     0
 42
0.0000000001
 43
0.0000000001
 40
0.0
 40
0.0
 40
0.0
 40
0.0
 40
1.0
 40
1.0
 40
1.0
 40
1.0
 10
3.3871
 20
-13.2577
 30
0.0
 10
3.3871
 20
-13.2577
 30
0.0
 10
2.104
 20
-13.2577
 30
0.0
 10
2.104
 20
-13.2577
 30
0.0
  0
SPLINE
  5
118
330
1F
100
AcDbEntity
  8
AXIS
 62
   250
100
AcDbSpline
210
0.0
220
0.0
230
1.0
 70
    24
 71
     3
 72
     8
 73
     4
 74
     0
 42
0.0000000001
 43
0.0000000001
 40
0.0
 40
0.0
 40
0.0
 40
0.0
 40
1.0
 40
1.0
 40
1.0
 40
1.0
 10
1.6763
 20
-13.2577
 30
0.0
 10
1.6763
 20
-13.2577
 30
0.0
 10
0.3932
 20
-13.2577
 30
0.0
 10
0.3932
 20
-13.2577
 30
0.0
  0
SPLINE
  5
119
330
1F
100
AcDbEntity
  8
AXIS
 62
   250
100
AcDbSpline
210
0.0
220
0.0
230
1.0
 70
    24
 71
     3
 72
     8
 73
     4
 74
     0
 42
0.0000000001
 43
0.0000000001
 40
0.0
 40
0.0
 40
0.0
 40
0.0
 40
1.0
 40
1.0
 40
1.0
 40
1.0
 10
-0.0345
 20
-13.2577
 30
0.0
 10
-0.0345
 20
-13.2577
 30
0.0
 10
-0.8439
 20
-13.2577
 30
0.0
 10
-0.8439
 20
-13.2577
 30
0.0
  0
SPLINE
  5
11A
330
1F
100
AcDbEntity
  8
AXIS
 62
   250
100
AcDbSpline
210
0.0
220
0.0
230
1.0
 70
    11
 71
     3
 72
    20
 73
    16
 74
     0
 42
0.0000000001
 43
0.0000000001
 40
0.0
 40
0.0
 40
0.0
 40
0.0
 40
0.2
 40
0.2
 40
0.2
 40
0.2
 40
0.4
 40
0.4
 40
0.4
 40
0.4
 40
0.6
 40
0.6
 40
0.6
 40
0.6
 40
1.0
 40
1.0
 40
1.0
 40
1.0
 10
13.5452
 20
-20.3149
 30
0.0
 10
13.5452
 20
-14.8229
 30
0.0
 10
9.0931
 20
-10.3707
 30
0.0
 10
3.601
 20
-10.3707
 30
0.0
 10
3.601
 20
-10.3707
 30
0.0
 10
-1.8911
 20
-10.3707
 30
0.0
 10
-6.3432
 20
-14.8229
 30
0.0
 10
-6.3433
 20
-20.3149
 30
0.0
 10
-6.3433
 20
-20.3149
 30
0.0
 10
-6.3433
 20
-25.807
 30
0.0
 10
-1.8911
 20
-30.2591
 30
0.0
 10
3.601
 20
-30.2591
 30
0.0
 10
3.601
 20
-30.2591
 30
0.0
 10
9.0931
 20
-30.2591
 30
0.0
 10
13.5452
 20
-25.807
 30
0.0
 10
13.5452
 20
-20.3149
 30
0.0
  0
SPLINE
  5
11B
330
1F
100
AcDbEntity
  8
AXIS
 62
   250
100
AcDbSpline
210
0.0
220
0.0
230
1.0
 70
     8
 71
     3
 72
     8
 73
     4
 74
     0
 42
0.0000000001
 43
0.0000000001
 40
0.0
 40
0.0
 40
0.0
 40
0.0
 40
1.0
 40
1.0
 40
1.0
 40
1.0
 10
10.0024
 20
-14.9685
 30
0.0
 10
9.6829
 20
-14.5861
 30
0.0
 10
9.3299
 20
-14.233
 30
0.0
 10
8.9474
 20
-13.9135
 30
0.0
  0
SPLINE
  5
11C
330
1F
100
AcDbEntity
  8
AXIS
 62
   250
100
AcDbSpline
210
0.0
220
0.0
230
1.0
 70
     8
 71
     3
 72
     8
 73
     4
 74
     0
 42
0.0000000001
 43
0.0000000001
 40
0.0
 40
0.0
 40
0.0
 40
0.0
 40
1.0
 40
1.0
 40
1.0
 40
1.0
 10
8.9474
 20
-26.7163
 30
0.0
 10
9.3299
 20
-26.3968
 30
0.0
 10
9.6829
 20
-26.0438
 30
0.0
 10
10.0024
 20
-25.6613
 30
0.0
  0
SPLINE
  5
11D
330
1F
100
AcDbEntity
  8
AXIS
 62
   250
100
AcDbSpline
210
0.0
220
0.0
230
1.0
 70
     8
 71
     3
 72
     8
 73
     4
 74
     0
 42
0.0000000001
 43
0.0000000001
 40
0.0
 40
0.0
 40
0.0
 40
0.0
 40
1.0
 40
1.0
 40
1.0
 40
1.0
 10
-1.7454
 20
-13.9135
 30
0.0
 10
-2.1278
 20
-14.233
 30
0.0
 10
-2.4809
 20
-14.5861
 30
0.0
 10
-2.8004
 20
-14.9685
 30
0.0
  0
SPLINE
  5
11E
330
1F
100
AcDbEntity
  8
AXIS
 62
   250
100
AcDbSpline
210
0.0
220
0.0
230
1.0
 70
     8
 71
     3
 72
     8
 73
     4
 74
     0
 42
0.0000000001
 43
0.0000000001
 40
0.0
 40
0.0
 40
0.0
 40
0.0
 40
1.0
 40
1.0
 40
1.0
 40
1.0
 10
-2.8004
 20
-25.6613
 30
0.0
 10
-2.4809
 20
-26.0438
 30
0.0
 10
-2.1278
 20
-26.3968
 30
0.0
 10
-1.7454
 20
-26.7163
 30
0.0
  0
SPLINE
  5
11F
330
1F
100
AcDbEntity
  8
AXIS
 62
   250
100
AcDbSpline
210
0.0
220
0.0
230
1.0
 70
     8
 71
     3
 72
     8
 73
     4
 74
     0
 42
0.0000000001
 43
0.0000000001
 40
0.0
 40
0.0
 40
0.0
 40
0.0
 40
1.0
 40
1.0
 40
1.0
 40
1.0
 10
-3.4562
 20
-15.87
 30
0.0
 10
-3.6208
 20
-16.1313
 30
0.0
 10
-3.7707
 20
-16.4015
 30
0.0
 10
-3.9053
 20
-16.6794
 30
0.0
  0
SPLINE
  5
120
330
1F
100
AcDbEntity
  8
AXIS
 62
   250
100
AcDbSpline
210
0.0
220
0.0
230
1.0
 70
     8
 71
     3
 72
     8
 73
     4
 74
     0
 42
0.0000000001
 43
0.0000000001
 40
0.0
 40
0.0
 40
0.0
 40
0.0
 40
1.0
 40
1.0
 40
1.0
 40
1.0
 10
-4.0978
 20
-17.1071
 30
0.0
 10
-4.271
 20
-17.5229
 30
0.0
 10
-4.4103
 20
-17.952
 30
0.0
 10
-4.5142
 20
-18.3902
 30
0.0
  0
SPLINE
  5
121
330
1F
100
AcDbEntity
  8
AXIS
 62
   250
100
AcDbSpline
210
0.0
220
0.0
230
1.0
 70
     8
 71
     3
 72
     8
 73
     4
 74
     0
 42
0.0000000001
 43
0.0000000001
 40
0.0
 40
0.0
 40
0.0
 40
0.0
 40
1.0
 40
1.0
 40
1.0
 40
1.0
 10
-4.6039
 20
-18.8179
 30
0.0
 10
-4.6812
 20
-19.2416
 30
0.0
 10
-4.7255
 20
-19.6706
 30
0.0
 10
-4.7366
 20
-20.101
 30
0.0
  0
SPLINE
  5
122
330
1F
100
AcDbEntity
  8
AXIS
 62
   250
100
AcDbSpline
210
0.0
220
0.0
230
1.0
 70
     8
 71
     3
 72
     8
 73
     4
 74
     0
 42
0.0000000001
 43
0.0000000001
 40
0.0
 40
0.0
 40
0.0
 40
0.0
 40
1.0
 40
1.0
 40
1.0
 40
1.0
 10
-4.7366
 20
-20.5288
 30
0.0
 10
-4.7255
 20
-20.9592
 30
0.0
 10
-4.6812
 20
-21.3882
 30
0.0
 10
-4.6039
 20
-21.8119
 30
0.0
  0
SPLINE
  5
123
330
1F
100
AcDbEntity
  8
AXIS
 62
   250
100
AcDbSpline
210
0.0
220
0.0
230
1.0
 70
     8
 71
     3
 72
     8
 73
     4
 74
     0
 42
0.0000000001
 43
0.0000000001
 40
0.0
 40
0.0
 40
0.0
 40
0.0
 40
1.0
 40
1.0
 40
1.0
 40
1.0
 10
-4.5142
 20
-22.2396
 30
0.0
 10
-4.4103
 20
-22.6779
 30
0.0
 10
-4.271
 20
-23.107
 30
0.0
 10
-4.0978
 20
-23.5227
 30
0.0
  0
SPLINE
  5
124
330
1F
100
AcDbEntity
  8
AXIS
 62
   250
100
AcDbSpline
210
0.0
220
0.0
230
1.0
 70
     8
 71
     3
 72
     8
 73
     4
 74
     0
 42
0.0000000001
 43
0.0000000001
 40
0.0
 40
0.0
 40
0.0
 40
0.0
 40
1.0
 40
1.0
 40
1.0
 40
1.0
 10
-3.9053
 20
-23.9504
 30
0.0
 10
-3.7707
 20
-24.2283
 30
0.0
 10
-3.6208
 20
-24.4985
 30
0.0
 10
-3.4562
 20
-24.7598
 30
0.0
  0
SPLINE
  5
125
330
1F
100
AcDbEntity
  8
AXIS
 62
   250
100
AcDbSpline
210
0.0
220
0.0
230
1.0
 70
     8
 71
     3
 72
     8
 73
     4
 74
     0
 42
0.0000000001
 43
0.0000000001
 40
0.0
 40
0.0
 40
0.0
 40
0.0
 40
1.0
 40
1.0
 40
1.0
 40
1.0
 10
-0.8439
 20
-27.3721
 30
0.0
 10
-0.5826
 20
-27.5367
 30
0.0
 10
-0.3124
 20
-27.6866
 30
0.0
 10
-0.0345
 20
-27.8212
 30
0.0
  0
SPLINE
  5
126
330
1F
100
AcDbEntity
  8
AXIS
 62
   250
100
AcDbSpline
210
0.0
220
0.0
230
1.0
 70
     8
 71
     3
 72
     8
 73
     4
 74
     0
 42
0.0000000001
 43
0.0000000001
 40
0.0
 40
0.0
 40
0.0
 40
0.0
 40
1.0
 40
1.0
 40
1.0
 40
1.0
 10
0.3932
 20
-28.0137
 30
0.0
 10
0.8089
 20
-28.1869
 30
0.0
 10
1.2381
 20
-28.3262
 30
0.0
 10
1.6763
 20
-28.4301
 30
0.0
  0
SPLINE
  5
127
330
1F
100
AcDbEntity
  8
AXIS
 62
   250
100
AcDbSpline
210
0.0
220
0.0
230
1.0
 70
     8
 71
     3
 72
     8
 73
     4
 74
     0
 42
0.0000000001
 43
0.0000000001
 40
0.0
 40
0.0
 40
0.0
 40
0.0
 40
1.0
 40
1.0
 40
1.0
 40
1.0
 10
2.104
 20
-28.5198
 30
0.0
 10
2.5277
 20
-28.5971
 30
0.0
 10
2.9566
 20
-28.6415
 30
0.0
 10
3.3871
 20
-28.6525
 30
0.0
  0
SPLINE
  5
128
330
1F
100
AcDbEntity
  8
AXIS
 62
   250
100
AcDbSpline
210
0.0
220
0.0
230
1.0
 70
     8
 71
     3
 72
     8
 73
     4
 74
     0
 42
0.0000000001
 43
0.0000000001
 40
0.0
 40
0.0
 40
0.0
 40
0.0
 40
1.0
 40
1.0
 40
1.0
 40
1.0
 10
3.8148
 20
-28.6525
 30
0.0
 10
4.2454
 20
-28.6415
 30
0.0
 10
4.6744
 20
-28.5971
 30
0.0
 10
5.098
 20
-28.5198
 30
0.0
  0
SPLINE
  5
129
330
1F
100
AcDbEntity
  8
AXIS
 62
   250
100
AcDbSpline
210
0.0
220
0.0
230
1.0
 70
     8
 71
     3
 72
     8
 73
     4
 74
     0
 42
0.0000000001
 43
0.0000000001
 40
0.0
 40
0.0
 40
0.0
 40
0.0
 40
1.0
 40
1.0
 40
1.0
 40
1.0
 10
5.5257
 20
-28.4301
 30
0.0
 10
5.964
 20
-28.3262
 30
0.0
 10
6.3931
 20
-28.1869
 30
0.0
 10
6.8088
 20
-28.0137
 30
0.0
  0
SPLINE
  5
12A
330
1F
100
AcDbEntity
  8
AXIS
 62
   250
100
AcDbSpline
210
0.0
220
0.0
230
1.0
 70
     8
 71
     3
 72
     8
 73
     4
 74
     0
 42
0.0000000001
 43
0.0000000001
 40
0.0
 40
0.0
 40
0.0
 40
0.0
 40
1.0
 40
1.0
 40
1.0
 40
1.0
 10
7.2365
 20
-27.8212
 30
0.0
 10
7.5144
 20
-27.6866
 30
0.0
 10
7.7846
 20
-27.5367
 30
0.0
 10
8.0459
 20
-27.3721
 30
0.0
  0
SPLINE
  5
12B
330
1F
100
AcDbEntity
  8
AXIS
 62
   250
100
AcDbSpline
210
0.0
220
0.0
230
1.0
 70
     8
 71
     3
 72
     8
 73
     4
 74
     0
 42
0.0000000001
 43
0.0000000001
 40
0.0
 40
0.0
 40
0.0
 40
0.0
 40
1.0
 40
1.0
 40
1.0
 40
1.0
 10
10.6582
 20
-24.7598
 30
0.0
 10
10.8228
 20
-24.4985
 30
0.0
 10
10.9727
 20
-24.2283
 30
0.0
 10
11.1073
 20
-23.9504
 30
0.0
  0
SPLINE
  5
12C
330
1F
100
AcDbEntity
  8
AXIS
 62
   250
100
AcDbSpline
210
0.0
220
0.0
230
1.0
 70
     8
 71
     3
 72
     8
 73
     4
 74
     0
 42
0.0000000001
 43
0.0000000001
 40
0.0
 40
0.0
 40
0.0
 40
0.0
 40
1.0
 40
1.0
 40
1.0
 40
1.0
 10
8.0459
 20
-13.2577
 30
0.0
 10
7.7846
 20
-13.0932
 30
0.0
 10
7.5144
 20
-12.9432
 30
0.0
 10
7.2365
 20
-12.8086
 30
0.0
  0
SPLINE
  5
12D
330
1F
100
AcDbEntity
  8
AXIS
 62
   250
100
AcDbSpline
210
0.0
220
0.0
230
1.0
 70
     8
 71
     3
 72
     8
 73
     4
 74
     0
 42
0.0000000001
 43
0.0000000001
 40
0.0
 40
0.0
 40
0.0
 40
0.0
 40
1.0
 40
1.0
 40
1.0
 40
1.0
 10
6.8088
 20
-12.6161
 30
0.0
 10
6.3931
 20
-12.4429
 30
0.0
 10
5.964
 20
-12.3036
 30
0.0
 10
5.5257
 20
-12.1997
 30
0.0
  0
SPLINE
  5
12E
330
1F
100
AcDbEntity
  8
AXIS
 62
   250
100
AcDbSpline
210
0.0
220
0.0
230
1.0
 70
     8
 71
     3
 72
     8
 73
     4
 74
     0
 42
0.0000000001
 43
0.0000000001
 40
0.0
 40
0.0
 40
0.0
 40
0.0
 40
1.0
 40
1.0
 40
1.0
 40
1.0
 10
5.098
 20
-12.11
 30
0.0
 10
4.6744
 20
-12.0327
 30
0.0
 10
4.2454
 20
-11.9884
 30
0.0
 10
3.8148
 20
-11.9773
 30
0.0
  0
SPLINE
  5
12F
330
1F
100
AcDbEntity
  8
AXIS
 62
   250
100
AcDbSpline
210
0.0
220
0.0
230
1.0
 70
     8
 71
     3
 72
     8
 73
     4
 74
     0
 42
0.0000000001
 43
0.0000000001
 40
0.0
 40
0.0
 40
0.0
 40
0.0
 40
1.0
 40
1.0
 40
1.0
 40
1.0
 10
3.3871
 20
-11.9773
 30
0.0
 10
2.9566
 20
-11.9884
 30
0.0
 10
2.5277
 20
-12.0327
 30
0.0
 10
2.104
 20
-12.11
 30
0.0
  0
SPLINE
  5
130
330
1F
100
AcDbEntity
  8
AXIS
 62
   250
100
AcDbSpline
210
0.0
220
0.0
230
1.0
 70
     8
 71
     3
 72
     8
 73
     4
 74
     0
 42
0.0000000001
 43
0.0000000001
 40
0.0
 40
0.0
 40
0.0
 40
0.0
 40
1.0
 40
1.0
 40
1.0
 40
1.0
 10
1.6763
 20
-12.1997
 30
0.0
 10
1.2381
 20
-12.3036
 30
0.0
 10
0.8089
 20
-12.4429
 30
0.0
 10
0.3932
 20
-12.6161
 30
0.0
  0
SPLINE
  5
131
330
1F
100
AcDbEntity
  8
AXIS
 62
   250
100
AcDbSpline
210
0.0
220
0.0
230
1.0
 70
     8
 71
     3
 72
     8
 73
     4
 74
     0
 42
0.0000000001
 43
0.0000000001
 40
0.0
 40
0.0
 40
0.0
 40
0.0
 40
1.0
 40
1.0
 40
1.0
 40
1.0
 10
-0.0345
 20
-12.8086
 30
0.0
 10
-0.3124
 20
-12.9432
 30
0.0
 10
-0.5826
 20
-13.0932
 30
0.0
 10
-0.8439
 20
-13.2577
 30
0.0
  0
SPLINE
  5
132
330
1F
100
AcDbEntity
  8
AXIS
 62
   250
100
AcDbSpline
210
0.0
220
0.0
230
1.0
 70
     8
 71
     3
 72
     8
 73
     4
 74
     0
 42
0.0000000001
 43
0.0000000001
 40
0.0
 40
0.0
 40
0.0
 40
0.0
 40
1.0
 40
1.0
 40
1.0
 40
1.0
 10
11.2998
 20
-23.5227
 30
0.0
 10
11.473
 20
-23.107
 30
0.0
 10
11.6123
 20
-22.6779
 30
0.0
 10
11.7162
 20
-22.2396
 30
0.0
  0
SPLINE
  5
133
330
1F
100
AcDbEntity
  8
AXIS
 62
   250
100
AcDbSpline
210
0.0
220
0.0
230
1.0
 70
     8
 71
     3
 72
     8
 73
     4
 74
     0
 42
0.0000000001
 43
0.0000000001
 40
0.0
 40
0.0
 40
0.0
 40
0.0
 40
1.0
 40
1.0
 40
1.0
 40
1.0
 10
11.8059
 20
-21.8119
 30
0.0
 10
11.8832
 20
-21.3882
 30
0.0
 10
11.9276
 20
-20.9592
 30
0.0
 10
11.9386
 20
-20.5288
 30
0.0
  0
SPLINE
  5
134
330
1F
100
AcDbEntity
  8
AXIS
 62
   250
100
AcDbSpline
210
0.0
220
0.0
230
1.0
 70
     8
 71
     3
 72
     8
 73
     4
 74
     0
 42
0.0000000001
 43
0.0000000001
 40
0.0
 40
0.0
 40
0.0
 40
0.0
 40
1.0
 40
1.0
 40
1.0
 40
1.0
 10
11.9386
 20
-20.101
 30
0.0
 10
11.9276
 20
-19.6706
 30
0.0
 10
11.8832
 20
-19.2416
 30
0.0
 10
11.8059
 20
-18.8179
 30
0.0
  0
SPLINE
  5
135
330
1F
100
AcDbEntity
  8
AXIS
 62
   250
100
AcDbSpline
210
0.0
220
0.0
230
1.0
 70
     8
 71
     3
 72
     8
 73
     4
 74
     0
 42
0.0000000001
 43
0.0000000001
 40
0.0
 40
0.0
 40
0.0
 40
0.0
 40
1.0
 40
1.0
 40
1.0
 40
1.0
 10
11.1073
 20
-16.6794
 30
0.0
 10
10.9727
 20
-16.4015
 30
0.0
 10
10.8228
 20
-16.1313
 30
0.0
 10
10.6582
 20
-15.87
 30
0.0
  0
SPLINE
  5
136
330
1F
100
AcDbEntity
  8
AXIS
 62
   250
100
AcDbSpline
210
0.0
220
0.0
230
1.0
 70
     8
 71
     3
 72
     8
 73
     4
 74
     0
 42
0.0000000001
 43
0.0000000001
 40
0.0
 40
0.0
 40
0.0
 40
0.0
 40
1.0
 40
1.0
 40
1.0
 40
1.0
 10
11.7162
 20
-18.3902
 30
0.0
 10
11.6123
 20
-17.952
 30
0.0
 10
11.473
 20
-17.5229
 30
0.0
 10
11.2998
 20
-17.1071
 30
0.0
  0
SPLINE
  5
137
330
1F
100
AcDbEntity
  8
AXIS
 62
   250
100
AcDbSpline
210
0.0
220
0.0
230
1.0
 70
    24
 71
     3
 72
     8
 73
     4
 74
     0
 42
0.0000000001
 43
0.0000000001
 40
0.0
 40
0.0
 40
0.0
 40
0.0
 40
1.0
 40
1.0
 40
1.0
 40
1.0
 10
-12.4381
 20
28.6205
 30
0.0
 10
-12.4381
 20
28.6205
 30
0.0
 10
-12.4381
 20
26.9096
 30
0.0
 10
-12.4381
 20
26.9096
 30
0.0
  0
SPLINE
  5
138
330
1F
100
AcDbEntity
  8
AXIS
 62
   250
100
AcDbSpline
210
0.0
220
0.0
230
1.0
 70
    24
 71
     3
 72
     8
 73
     4
 74
     0
 42
0.0000000001
 43
0.0000000001
 40
0.0
 40
0.0
 40
0.0
 40
0.0
 40
1.0
 40
1.0
 40
1.0
 40
1.0
 10
-4.892
 20
15.7892
 30
0.0
 10
-4.892
 20
15.7892
 30
0.0
 10
11.4649
 20
15.7892
 30
0.0
 10
11.4649
 20
15.7892
 30
0.0
  0
SPLINE
  5
139
330
1F
100
AcDbEntity
  8
AXIS
 62
   250
100
AcDbSpline
210
0.0
220
0.0
230
1.0
 70
    24
 71
     3
 72
     8
 73
     4
 74
     0
 42
0.0000000001
 43
0.0000000001
 40
0.0
 40
0.0
 40
0.0
 40
0.0
 40
1.0
 40
1.0
 40
1.0
 40
1.0
 10
-12.4381
 20
26.9096
 30
0.0
 10
-12.4381
 20
26.9096
 30
0.0
 10
19.6401
 20
26.9096
 30
0.0
 10
19.6401
 20
26.9096
 30
0.0
  0
SPLINE
  5
13A
330
1F
100
AcDbEntity
  8
AXIS
 62
   250
100
AcDbSpline
210
0.0
220
0.0
230
1.0
 70
    24
 71
     3
 72
     8
 73
     4
 74
     0
 42
0.0000000001
 43
0.0000000001
 40
0.0
 40
0.0
 40
0.0
 40
0.0
 40
1.0
 40
1.0
 40
1.0
 40
1.0
 10
-12.4381
 20
28.6205
 30
0.0
 10
-12.4381
 20
28.6205
 30
0.0
 10
19.6401
 20
28.6205
 30
0.0
 10
19.6401
 20
28.6205
 30
0.0
  0
SPLINE
  5
13B
330
1F
100
AcDbEntity
  8
AXIS
 62
   250
100
AcDbSpline
210
0.0
220
0.0
230
1.0
 70
    24
 71
     3
 72
     8
 73
     4
 74
     0
 42
0.0000000001
 43
0.0000000001
 40
0.0
 40
0.0
 40
0.0
 40
0.0
 40
1.0
 40
1.0
 40
1.0
 40
1.0
 10
8.5197
 20
29.262
 30
0.0
 10
8.5197
 20
29.262
 30
0.0
 10
-1.3177
 20
29.262
 30
0.0
 10
-1.3177
 20
29.262
 30
0.0
  0
SPLINE
  5
13C
330
1F
100
AcDbEntity
  8
AXIS
 62
   250
100
AcDbSpline
210
0.0
220
0.0
230
1.0
 70
    24
 71
     3
 72
     8
 73
     4
 74
     0
 42
0.0000000001
 43
0.0000000001
 40
0.0
 40
0.0
 40
0.0
 40
0.0
 40
1.0
 40
1.0
 40
1.0
 40
1.0
 10
19.6401
 20
28.6205
 30
0.0
 10
19.6401
 20
28.6205
 30
0.0
 10
19.6401
 20
26.9096
 30
0.0
 10
19.6401
 20
26.9096
 30
0.0
  0
SPLINE
  5
13D
330
1F
100
AcDbEntity
  8
AXIS
 62
   250
100
AcDbSpline
210
0.0
220
0.0
230
1.0
 70
    24
 71
     3
 72
     8
 73
     4
 74
     0
 42
0.0000000001
 43
0.0000000001
 40
0.0
 40
0.0
 40
0.0
 40
0.0
 40
1.0
 40
1.0
 40
1.0
 40
1.0
 10
-12.4381
 20
-5.3451
 30
0.0
 10
-12.4381
 20
-5.3451
 30
0.0
 10
-12.4381
 20
-35.2847
 30
0.0
 10
-12.4381
 20
-35.2847
 30
0.0
  0
SPLINE
  5
13E
330
1F
100
AcDbEntity
  8
AXIS
 62
   250
100
AcDbSpline
210
0.0
220
0.0
230
1.0
 70
    24
 71
     3
 72
     8
 73
     4
 74
     0
 42
0.0000000001
 43
0.0000000001
 40
0.0
 40
0.0
 40
0.0
 40
0.0
 40
1.0
 40
1.0
 40
1.0
 40
1.0
 10
-11.3688
 20
-36.354
 30
0.0
 10
-11.3688
 20
-36.354
 30
0.0
 10
18.5708
 20
-36.354
 30
0.0
 10
18.5708
 20
-36.354
 30
0.0
  0
SPLINE
  5
13F
330
1F
100
AcDbEntity
  8
AXIS
 62
   250
100
AcDbSpline
210
0.0
220
0.0
230
1.0
 70
    24
 71
     3
 72
     8
 73
     4
 74
     0
 42
0.0000000001
 43
0.0000000001
 40
0.0
 40
0.0
 40
0.0
 40
0.0
 40
1.0
 40
1.0
 40
1.0
 40
1.0
 10
19.6401
 20
-35.2847
 30
0.0
 10
19.6401
 20
-35.2847
 30
0.0
 10
19.6401
 20
-5.3451
 30
0.0
 10
19.6401
 20
-5.3451
 30
0.0
  0
SPLINE
  5
140
330
1F
100
AcDbEntity
  8
AXIS
 62
   250
100
AcDbSpline
210
0.0
220
0.0
230
1.0
 70
    24
 71
     3
 72
     8
 73
     4
 74
     0
 42
0.0000000001
 43
0.0000000001
 40
0.0
 40
0.0
 40
0.0
 40
0.0
 40
1.0
 40
1.0
 40
1.0
 40
1.0
 10
18.5708
 20
-4.2758
 30
0.0
 10
18.5708
 20
-4.2758
 30
0.0
 10
-11.3688
 20
-4.2758
 30
0.0
 10
-11.3688
 20
-4.2758
 30
0.0
  0
SPLINE
  5
141
330
1F
100
AcDbEntity
  8
AXIS
 62
   250
100
AcDbSpline
210
0.0
220
0.0
230
1.0
 70
     8
 71
     3
 72
     8
 73
     4
 74
     0
 42
0.0000000001
 43
0.0000000001
 40
0.0
 40
0.0
 40
0.0
 40
0.0
 40
1.0
 40
1.0
 40
1.0
 40
1.0
 10
10.2165
 20
28.621
 30
0.0
 10
9.7478
 20
29.0341
 30
0.0
 10
9.1444
 20
29.262
 30
0.0
 10
8.5197
 20
29.262
 30
0.0
  0
SPLINE
  5
142
330
1F
100
AcDbEntity
  8
AXIS
 62
   250
100
AcDbSpline
210
0.0
220
0.0
230
1.0
 70
     8
 71
     3
 72
     8
 73
     4
 74
     0
 42
0.0000000001
 43
0.0000000001
 40
0.0
 40
0.0
 40
0.0
 40
0.0
 40
1.0
 40
1.0
 40
1.0
 40
1.0
 10
-1.3177
 20
29.262
 30
0.0
 10
-1.9424
 20
29.262
 30
0.0
 10
-2.5458
 20
29.0341
 30
0.0
 10
-3.0145
 20
28.621
 30
0.0
  0
SPLINE
  5
143
330
1F
100
AcDbEntity
  8
AXIS
 62
   250
100
AcDbSpline
210
0.0
220
0.0
230
1.0
 70
     8
 71
     3
 72
     8
 73
     4
 74
     0
 42
0.0000000001
 43
0.0000000001
 40
0.0
 40
0.0
 40
0.0
 40
0.0
 40
1.0
 40
1.0
 40
1.0
 40
1.0
 10
-5.9611
 20
16.8398
 30
0.0
 10
-5.9509
 20
16.2566
 30
0.0
 10
-5.4752
 20
15.7892
 30
0.0
 10
-4.892
 20
15.7892
 30
0.0
  0
SPLINE
  5
144
330
1F
100
AcDbEntity
  8
AXIS
 62
   250
100
AcDbSpline
210
0.0
220
0.0
230
1.0
 70
     8
 71
     3
 72
     8
 73
     4
 74
     0
 42
0.0000000001
 43
0.0000000001
 40
0.0
 40
0.0
 40
0.0
 40
0.0
 40
1.0
 40
1.0
 40
1.0
 40
1.0
 10
-12.4381
 20
-35.2847
 30
0.0
 10
-12.4381
 20
-35.8753
 30
0.0
 10
-11.9594
 20
-36.354
 30
0.0
 10
-11.3688
 20
-36.354
 30
0.0
  0
SPLINE
  5
145
330
1F
100
AcDbEntity
  8
AXIS
 62
   250
100
AcDbSpline
210
0.0
220
0.0
230
1.0
 70
     8
 71
     3
 72
     8
 73
     4
 74
     0
 42
0.0000000001
 43
0.0000000001
 40
0.0
 40
0.0
 40
0.0
 40
0.0
 40
1.0
 40
1.0
 40
1.0
 40
1.0
 10
-11.3688
 20
-4.2758
 30
0.0
 10
-11.9594
 20
-4.2758
 30
0.0
 10
-12.4381
 20
-4.7545
 30
0.0
 10
-12.4381
 20
-5.3451
 30
0.0
  0
SPLINE
  5
146
330
1F
100
AcDbEntity
  8
AXIS
 62
   250
100
AcDbSpline
210
0.0
220
0.0
230
1.0
 70
     8
 71
     3
 72
     8
 73
     4
 74
     0
 42
0.0000000001
 43
0.0000000001
 40
0.0
 40
0.0
 40
0.0
 40
0.0
 40
1.0
 40
1.0
 40
1.0
 40
1.0
 10
18.5708
 20
-36.354
 30
0.0
 10
19.1614
 20
-36.354
 30
0.0
 10
19.6401
 20
-35.8753
 30
0.0
 10
19.6401
 20
-35.2847
 30
0.0
  0
SPLINE
  5
147
330
1F
100
AcDbEntity
  8
AXIS
 62
   250
100
AcDbSpline
210
0.0
220
0.0
230
1.0
 70
     8
 71
     3
 72
     8
 73
     4
 74
     0
 42
0.0000000001
 43
0.0000000001
 40
0.0
 40
0.0
 40
0.0
 40
0.0
 40
1.0
 40
1.0
 40
1.0
 40
1.0
 10
-3.8808
 20
-20.5288
 30
0.0
 10
-3.8685
 20
-20.9602
 30
0.0
 10
-3.8189
 20
-21.3896
 30
0.0
 10
-3.7326
 20
-21.8124
 30
0.0
  0
SPLINE
  5
148
330
1F
100
AcDbEntity
  8
AXIS
 62
   250
100
AcDbSpline
210
0.0
220
0.0
230
1.0
 70
     8
 71
     3
 72
     8
 73
     4
 74
     0
 42
0.0000000001
 43
0.0000000001
 40
0.0
 40
0.0
 40
0.0
 40
0.0
 40
1.0
 40
1.0
 40
1.0
 40
1.0
 10
-3.632
 20
-22.2403
 30
0.0
 10
-3.5811
 20
-22.4315
 30
0.0
 10
-3.5226
 20
-22.6207
 30
0.0
 10
-3.4567
 20
-22.8073
 30
0.0
  0
SPLINE
  5
149
330
1F
100
AcDbEntity
  8
AXIS
 62
   250
100
AcDbSpline
210
0.0
220
0.0
230
1.0
 70
     8
 71
     3
 72
     8
 73
     4
 74
     0
 42
0.0000000001
 43
0.0000000001
 40
0.0
 40
0.0
 40
0.0
 40
0.0
 40
1.0
 40
1.0
 40
1.0
 40
1.0
 10
-2.9416
 20
-23.9507
 30
0.0
 10
-2.6868
 20
-24.4091
 30
0.0
 10
-2.3845
 20
-24.8396
 30
0.0
 10
-2.0397
 20
-25.2348
 30
0.0
  0
SPLINE
  5
14A
330
1F
100
AcDbEntity
  8
AXIS
 62
   250
100
AcDbSpline
210
0.0
220
0.0
230
1.0
 70
     8
 71
     3
 72
     8
 73
     4
 74
     0
 42
0.0000000001
 43
0.0000000001
 40
0.0
 40
0.0
 40
0.0
 40
0.0
 40
1.0
 40
1.0
 40
1.0
 40
1.0
 10
-1.319
 20
-25.9557
 30
0.0
 10
-0.9237
 20
-26.3004
 30
0.0
 10
-0.4932
 20
-26.6027
 30
0.0
 10
-0.0348
 20
-26.8575
 30
0.0
  0
SPLINE
  5
14B
330
1F
100
AcDbEntity
  8
AXIS
 62
   250
100
AcDbSpline
210
0.0
220
0.0
230
1.0
 70
     8
 71
     3
 72
     8
 73
     4
 74
     0
 42
0.0000000001
 43
0.0000000001
 40
0.0
 40
0.0
 40
0.0
 40
0.0
 40
1.0
 40
1.0
 40
1.0
 40
1.0
 10
1.1086
 20
-27.3727
 30
0.0
 10
1.2952
 20
-27.4386
 30
0.0
 10
1.4844
 20
-27.497
 30
0.0
 10
1.6756
 20
-27.5479
 30
0.0
  0
SPLINE
  5
14C
330
1F
100
AcDbEntity
  8
AXIS
 62
   250
100
AcDbSpline
210
0.0
220
0.0
230
1.0
 70
     8
 71
     3
 72
     8
 73
     4
 74
     0
 42
0.0000000001
 43
0.0000000001
 40
0.0
 40
0.0
 40
0.0
 40
0.0
 40
1.0
 40
1.0
 40
1.0
 40
1.0
 10
2.1035
 20
-27.6485
 30
0.0
 10
2.5262
 20
-27.7348
 30
0.0
 10
2.9557
 20
-27.7844
 30
0.0
 10
3.3871
 20
-27.7968
 30
0.0
  0
SPLINE
  5
14D
330
1F
100
AcDbEntity
  8
AXIS
 62
   250
100
AcDbSpline
210
0.0
220
0.0
230
1.0
 70
     8
 71
     3
 72
     8
 73
     4
 74
     0
 42
0.0000000001
 43
0.0000000001
 40
0.0
 40
0.0
 40
0.0
 40
0.0
 40
1.0
 40
1.0
 40
1.0
 40
1.0
 10
3.8149
 20
-27.7968
 30
0.0
 10
4.2463
 20
-27.7844
 30
0.0
 10
4.6758
 20
-27.7348
 30
0.0
 10
5.0986
 20
-27.6485
 30
0.0
  0
SPLINE
  5
14E
330
1F
100
AcDbEntity
  8
AXIS
 62
   250
100
AcDbSpline
210
0.0
220
0.0
230
1.0
 70
     8
 71
     3
 72
     8
 73
     4
 74
     0
 42
0.0000000001
 43
0.0000000001
 40
0.0
 40
0.0
 40
0.0
 40
0.0
 40
1.0
 40
1.0
 40
1.0
 40
1.0
 10
5.5264
 20
-27.5479
 30
0.0
 10
5.7176
 20
-27.497
 30
0.0
 10
5.9068
 20
-27.4386
 30
0.0
 10
6.0934
 20
-27.3727
 30
0.0
  0
SPLINE
  5
14F
330
1F
100
AcDbEntity
  8
AXIS
 62
   250
100
AcDbSpline
210
0.0
220
0.0
230
1.0
 70
     8
 71
     3
 72
     8
 73
     4
 74
     0
 42
0.0000000001
 43
0.0000000001
 40
0.0
 40
0.0
 40
0.0
 40
0.0
 40
1.0
 40
1.0
 40
1.0
 40
1.0
 10
7.2368
 20
-26.8575
 30
0.0
 10
7.6952
 20
-26.6027
 30
0.0
 10
8.1257
 20
-26.3004
 30
0.0
 10
8.521
 20
-25.9557
 30
0.0
  0
SPLINE
  5
150
330
1F
100
AcDbEntity
  8
AXIS
 62
   250
100
AcDbSpline
210
0.0
220
0.0
230
1.0
 70
     8
 71
     3
 72
     8
 73
     4
 74
     0
 42
0.0000000001
 43
0.0000000001
 40
0.0
 40
0.0
 40
0.0
 40
0.0
 40
1.0
 40
1.0
 40
1.0
 40
1.0
 10
9.2418
 20
-25.2348
 30
0.0
 10
9.5865
 20
-24.8396
 30
0.0
 10
9.8888
 20
-24.4091
 30
0.0
 10
10.1436
 20
-23.9507
 30
0.0
  0
SPLINE
  5
151
330
1F
100
AcDbEntity
  8
AXIS
 62
   250
100
AcDbSpline
210
0.0
220
0.0
230
1.0
 70
     8
 71
     3
 72
     8
 73
     4
 74
     0
 42
0.0000000001
 43
0.0000000001
 40
0.0
 40
0.0
 40
0.0
 40
0.0
 40
1.0
 40
1.0
 40
1.0
 40
1.0
 10
10.6588
 20
-22.8073
 30
0.0
 10
10.7247
 20
-22.6207
 30
0.0
 10
10.7831
 20
-22.4315
 30
0.0
 10
10.8341
 20
-22.2403
 30
0.0
  0
SPLINE
  5
152
330
1F
100
AcDbEntity
  8
AXIS
 62
   250
100
AcDbSpline
210
0.0
220
0.0
230
1.0
 70
     8
 71
     3
 72
     8
 73
     4
 74
     0
 42
0.0000000001
 43
0.0000000001
 40
0.0
 40
0.0
 40
0.0
 40
0.0
 40
1.0
 40
1.0
 40
1.0
 40
1.0
 10
10.9346
 20
-21.8124
 30
0.0
 10
11.0209
 20
-21.3896
 30
0.0
 10
11.0706
 20
-20.9602
 30
0.0
 10
11.0829
 20
-20.5288
 30
0.0
  0
SPLINE
  5
153
330
1F
100
AcDbEntity
  8
AXIS
 62
   250
100
AcDbSpline
210
0.0
220
0.0
230
1.0
 70
     8
 71
     3
 72
     8
 73
     4
 74
     0
 42
0.0000000001
 43
0.0000000001
 40
0.0
 40
0.0
 40
0.0
 40
0.0
 40
1.0
 40
1.0
 40
1.0
 40
1.0
 10
11.0829
 20
-20.101
 30
0.0
 10
11.0706
 20
-19.6696
 30
0.0
 10
11.0209
 20
-19.2402
 30
0.0
 10
10.9346
 20
-18.8174
 30
0.0
  0
SPLINE
  5
154
330
1F
100
AcDbEntity
  8
AXIS
 62
   250
100
AcDbSpline
210
0.0
220
0.0
230
1.0
 70
     8
 71
     3
 72
     8
 73
     4
 74
     0
 42
0.0000000001
 43
0.0000000001
 40
0.0
 40
0.0
 40
0.0
 40
0.0
 40
1.0
 40
1.0
 40
1.0
 40
1.0
 10
10.8341
 20
-18.3895
 30
0.0
 10
10.7831
 20
-18.1983
 30
0.0
 10
10.7247
 20
-18.0091
 30
0.0
 10
10.6588
 20
-17.8225
 30
0.0
  0
SPLINE
  5
155
330
1F
100
AcDbEntity
  8
AXIS
 62
   250
100
AcDbSpline
210
0.0
220
0.0
230
1.0
 70
     8
 71
     3
 72
     8
 73
     4
 74
     0
 42
0.0000000001
 43
0.0000000001
 40
0.0
 40
0.0
 40
0.0
 40
0.0
 40
1.0
 40
1.0
 40
1.0
 40
1.0
 10
10.1436
 20
-16.6792
 30
0.0
 10
9.8888
 20
-16.2207
 30
0.0
 10
9.5865
 20
-15.7902
 30
0.0
 10
9.2418
 20
-15.395
 30
0.0
  0
SPLINE
  5
156
330
1F
100
AcDbEntity
  8
AXIS
 62
   250
100
AcDbSpline
210
0.0
220
0.0
230
1.0
 70
     8
 71
     3
 72
     8
 73
     4
 74
     0
 42
0.0000000001
 43
0.0000000001
 40
0.0
 40
0.0
 40
0.0
 40
0.0
 40
1.0
 40
1.0
 40
1.0
 40
1.0
 10
8.521
 20
-14.6742
 30
0.0
 10
8.1257
 20
-14.3294
 30
0.0
 10
7.6952
 20
-14.0271
 30
0.0
 10
7.2368
 20
-13.7724
 30
0.0
  0
SPLINE
  5
157
330
1F
100
AcDbEntity
  8
AXIS
 62
   250
100
AcDbSpline
210
0.0
220
0.0
230
1.0
 70
     8
 71
     3
 72
     8
 73
     4
 74
     0
 42
0.0000000001
 43
0.0000000001
 40
0.0
 40
0.0
 40
0.0
 40
0.0
 40
1.0
 40
1.0
 40
1.0
 40
1.0
 10
6.0934
 20
-13.2572
 30
0.0
 10
5.9068
 20
-13.1913
 30
0.0
 10
5.7176
 20
-13.1328
 30
0.0
 10
5.5264
 20
-13.0819
 30
0.0
  0
SPLINE
  5
158
330
1F
100
AcDbEntity
  8
AXIS
 62
   250
100
AcDbSpline
210
0.0
220
0.0
230
1.0
 70
     8
 71
     3
 72
     8
 73
     4
 74
     0
 42
0.0000000001
 43
0.0000000001
 40
0.0
 40
0.0
 40
0.0
 40
0.0
 40
1.0
 40
1.0
 40
1.0
 40
1.0
 10
5.0986
 20
-12.9813
 30
0.0
 10
4.6758
 20
-12.895
 30
0.0
 10
4.2463
 20
-12.8454
 30
0.0
 10
3.8149
 20
-12.8331
 30
0.0
  0
SPLINE
  5
159
330
1F
100
AcDbEntity
  8
AXIS
 62
   250
100
AcDbSpline
210
0.0
220
0.0
230
1.0
 70
     8
 71
     3
 72
     8
 73
     4
 74
     0
 42
0.0000000001
 43
0.0000000001
 40
0.0
 40
0.0
 40
0.0
 40
0.0
 40
1.0
 40
1.0
 40
1.0
 40
1.0
 10
3.3871
 20
-12.8331
 30
0.0
 10
2.9557
 20
-12.8454
 30
0.0
 10
2.5262
 20
-12.895
 30
0.0
 10
2.1035
 20
-12.9813
 30
0.0
  0
SPLINE
  5
15A
330
1F
100
AcDbEntity
  8
AXIS
 62
   250
100
AcDbSpline
210
0.0
220
0.0
230
1.0
 70
     8
 71
     3
 72
     8
 73
     4
 74
     0
 42
0.0000000001
 43
0.0000000001
 40
0.0
 40
0.0
 40
0.0
 40
0.0
 40
1.0
 40
1.0
 40
1.0
 40
1.0
 10
1.6756
 20
-13.0819
 30
0.0
 10
1.4844
 20
-13.1328
 30
0.0
 10
1.2952
 20
-13.1913
 30
0.0
 10
1.1086
 20
-13.2572
 30
0.0
  0
SPLINE
  5
15B
330
1F
100
AcDbEntity
  8
AXIS
 62
   250
100
AcDbSpline
210
0.0
220
0.0
230
1.0
 70
     8
 71
     3
 72
     8
 73
     4
 74
     0
 42
0.0000000001
 43
0.0000000001
 40
0.0
 40
0.0
 40
0.0
 40
0.0
 40
1.0
 40
1.0
 40
1.0
 40
1.0
 10
-0.0348
 20
-13.7724
 30
0.0
 10
-0.4932
 20
-14.0271
 30
0.0
 10
-0.9237
 20
-14.3294
 30
0.0
 10
-1.319
 20
-14.6742
 30
0.0
  0
SPLINE
  5
15C
330
1F
100
AcDbEntity
  8
AXIS
 62
   250
100
AcDbSpline
210
0.0
220
0.0
230
1.0
 70
     8
 71
     3
 72
     8
 73
     4
 74
     0
 42
0.0000000001
 43
0.0000000001
 40
0.0
 40
0.0
 40
0.0
 40
0.0
 40
1.0
 40
1.0
 40
1.0
 40
1.0
 10
-2.0397
 20
-15.395
 30
0.0
 10
-2.3845
 20
-15.7902
 30
0.0
 10
-2.6868
 20
-16.2207
 30
0.0
 10
-2.9416
 20
-16.6792
 30
0.0
  0
SPLINE
  5
15D
330
1F
100
AcDbEntity
  8
AXIS
 62
   250
100
AcDbSpline
210
0.0
220
0.0
230
1.0
 70
     8
 71
     3
 72
     8
 73
     4
 74
     0
 42
0.0000000001
 43
0.0000000001
 40
0.0
 40
0.0
 40
0.0
 40
0.0
 40
1.0
 40
1.0
 40
1.0
 40
1.0
 10
-3.4567
 20
-17.8225
 30
0.0
 10
-3.5226
 20
-18.0091
 30
0.0
 10
-3.5811
 20
-18.1983
 30
0.0
 10
-3.632
 20
-18.3895
 30
0.0
  0
SPLINE
  5
15E
330
1F
100
AcDbEntity
  8
AXIS
 62
   250
100
AcDbSpline
210
0.0
220
0.0
230
1.0
 70
     8
 71
     3
 72
     8
 73
     4
 74
     0
 42
0.0000000001
 43
0.0000000001
 40
0.0
 40
0.0
 40
0.0
 40
0.0
 40
1.0
 40
1.0
 40
1.0
 40
1.0
 10
-3.7326
 20
-18.8174
 30
0.0
 10
-3.8189
 20
-19.2402
 30
0.0
 10
-3.8685
 20
-19.6696
 30
0.0
 10
-3.8808
 20
-20.101
 30
0.0
  0
SPLINE
  5
15F
330
1F
100
AcDbEntity
  8
AXIS
 62
   250
100
AcDbSpline
210
0.0
220
0.0
230
1.0
 70
     8
 71
     3
 72
     8
 73
     4
 74
     0
 42
0.0000000001
 43
0.0000000001
 40
0.0
 40
0.0
 40
0.0
 40
0.0
 40
1.0
 40
1.0
 40
1.0
 40
1.0
 10
19.6401
 20
-5.3451
 30
0.0
 10
19.6401
 20
-4.7545
 30
0.0
 10
19.1614
 20
-4.2758
 30
0.0
 10
18.5708
 20
-4.2758
 30
0.0
  0
SPLINE
  5
160
330
1F
100
AcDbEntity
  8
AXIS
 62
   250
100
AcDbSpline
210
0.0
220
0.0
230
1.0
 70
    24
 71
     3
 72
     8
 73
     4
 74
     0
 42
0.0000000001
 43
0.0000000001
 40
0.0
 40
0.0
 40
0.0
 40
0.0
 40
1.0
 40
1.0
 40
1.0
 40
1.0
 10
-5.9611
 20
16.8398
 30
0.0
 10
-5.9611
 20
16.8398
 30
0.0
 10
-6.1294
 20
26.4819
 30
0.0
 10
-6.1294
 20
26.4819
 30
0.0
  0
SPLINE
  5
161
330
1F
100
AcDbEntity
  8
AXIS
 62
   250
100
AcDbSpline
210
0.0
220
0.0
230
1.0
 70
    24
 71
     3
 72
     8
 73
     4
 74
     0
 42
0.0000000001
 43
0.0000000001
 40
0.0
 40
0.0
 40
0.0
 40
0.0
 40
1.0
 40
1.0
 40
1.0
 40
1.0
 10
-6.9848
 20
26.4819
 30
0.0
 10
-6.9848
 20
26.4819
 30
0.0
 10
-6.9848
 20
26.9096
 30
0.0
 10
-6.9848
 20
26.9096
 30
0.0
  0
SPLINE
  5
162
330
1F
100
AcDbEntity
  8
AXIS
 62
   250
100
AcDbSpline
210
0.0
220
0.0
230
1.0
 70
    24
 71
     3
 72
     8
 73
     4
 74
     0
 42
0.0000000001
 43
0.0000000001
 40
0.0
 40
0.0
 40
0.0
 40
0.0
 40
1.0
 40
1.0
 40
1.0
 40
1.0
 10
-0.89
 20
29.262
 30
0.0
 10
-0.89
 20
29.262
 30
0.0
 10
-0.89
 20
30.1174
 30
0.0
 10
-0.89
 20
30.1174
 30
0.0
  0
SPLINE
  5
163
330
1F
100
AcDbEntity
  8
AXIS
 62
   250
100
AcDbSpline
210
0.0
220
0.0
230
1.0
 70
    24
 71
     3
 72
     8
 73
     4
 74
     0
 42
0.0000000001
 43
0.0000000001
 40
0.0
 40
0.0
 40
0.0
 40
0.0
 40
1.0
 40
1.0
 40
1.0
 40
1.0
 10
11.4649
 20
15.7892
 30
0.0
 10
11.4649
 20
15.7892
 30
0.0
 10
-4.892
 20
15.7892
 30
0.0
 10
-4.892
 20
15.7892
 30
0.0
  0
SPLINE
  5
164
330
1F
100
AcDbEntity
  8
AXIS
  6
NEW_LINE1
 62
   250
100
AcDbSpline
210
0.0
220
0.0
230
1.0
 70
    24
 71
     3
 72
     8
 73
     4
 74
     0
 42
0.0000000001
 43
0.0000000001
 40
0.0
 40
0.0
 40
0.0
 40
0.0
 40
1.0
 40
1.0
 40
1.0
 40
1.0
 10
3.601
 20
4.4896
 30
0.0
 10
3.601
 20
4.4896
 30
0.0
 10
3.601
 20
32.7884
 30
0.0
 10
3.601
 20
32.7884
 30
0.0
  0
SPLINE
  5
166
330
1F
100
AcDbEntity
  8
AXIS
 62
   250
100
AcDbSpline
210
0.0
220
0.0
230
1.0
 70
    24
 71
     3
 72
     8
 73
     4
 74
     0
 42
0.0000000001
 43
0.0000000001
 40
0.0
 40
0.0
 40
0.0
 40
0.0
 40
1.0
 40
1.0
 40
1.0
 40
1.0
 10
-6.9848
 20
26.4819
 30
0.0
 10
-6.9848
 20
26.4819
 30
0.0
 10
14.1868
 20
26.4819
 30
0.0
 10
14.1868
 20
26.4819
 30
0.0
  0
SPLINE
  5
167
330
1F
100
AcDbEntity
  8
AXIS
 62
   250
100
AcDbSpline
210
0.0
220
0.0
230
1.0
 70
    24
 71
     3
 72
     8
 73
     4
 74
     0
 42
0.0000000001
 43
0.0000000001
 40
0.0
 40
0.0
 40
0.0
 40
0.0
 40
1.0
 40
1.0
 40
1.0
 40
1.0
 10
13.1634
 20
16.8584
 30
0.0
 10
13.1634
 20
16.8584
 30
0.0
 10
13.3314
 20
26.4819
 30
0.0
 10
13.3314
 20
26.4819
 30
0.0
  0
SPLINE
  5
168
330
1F
100
AcDbEntity
  8
AXIS
 62
   250
100
AcDbSpline
210
0.0
220
0.0
230
1.0
 70
    24
 71
     3
 72
     8
 73
     4
 74
     0
 42
0.0000000001
 43
0.0000000001
 40
0.0
 40
0.0
 40
0.0
 40
0.0
 40
1.0
 40
1.0
 40
1.0
 40
1.0
 10
14.1868
 20
26.4819
 30
0.0
 10
14.1868
 20
26.4819
 30
0.0
 10
14.1868
 20
26.9096
 30
0.0
 10
14.1868
 20
26.9096
 30
0.0
  0
SPLINE
  5
169
330
1F
100
AcDbEntity
  8
AXIS
 62
   250
100
AcDbSpline
210
0.0
220
0.0
230
1.0
 70
    24
 71
     3
 72
     8
 73
     4
 74
     0
 42
0.0000000001
 43
0.0000000001
 40
0.0
 40
0.0
 40
0.0
 40
0.0
 40
1.0
 40
1.0
 40
1.0
 40
1.0
 10
-0.0345
 20
-17.1071
 30
0.0
 10
-0.0345
 20
-17.1071
 30
0.0
 10
-0.0345
 20
-17.6783
 30
0.0
 10
-0.0345
 20
-17.6783
 30
0.0
  0
SPLINE
  5
16A
330
1F
100
AcDbEntity
  8
AXIS
 62
   250
100
AcDbSpline
210
0.0
220
0.0
230
1.0
 70
    24
 71
     3
 72
     8
 73
     4
 74
     0
 42
0.0000000001
 43
0.0000000001
 40
0.0
 40
0.0
 40
0.0
 40
0.0
 40
1.0
 40
1.0
 40
1.0
 40
1.0
 10
-0.0345
 20
-22.9515
 30
0.0
 10
-0.0345
 20
-22.9515
 30
0.0
 10
-0.0345
 20
-23.5227
 30
0.0
 10
-0.0345
 20
-23.5227
 30
0.0
  0
SPLINE
  5
16B
330
1F
100
AcDbEntity
  8
AXIS
 62
   250
100
AcDbSpline
210
0.0
220
0.0
230
1.0
 70
    24
 71
     3
 72
     8
 73
     4
 74
     0
 42
0.0000000001
 43
0.0000000001
 40
0.0
 40
0.0
 40
0.0
 40
0.0
 40
1.0
 40
1.0
 40
1.0
 40
1.0
 10
0.3932
 20
-23.9504
 30
0.0
 10
0.3932
 20
-23.9504
 30
0.0
 10
0.9644
 20
-23.9504
 30
0.0
 10
0.9644
 20
-23.9504
 30
0.0
  0
SPLINE
  5
16C
330
1F
100
AcDbEntity
  8
AXIS
 62
   250
100
AcDbSpline
210
0.0
220
0.0
230
1.0
 70
    24
 71
     3
 72
     8
 73
     4
 74
     0
 42
0.0000000001
 43
0.0000000001
 40
0.0
 40
0.0
 40
0.0
 40
0.0
 40
1.0
 40
1.0
 40
1.0
 40
1.0
 10
6.2376
 20
-23.9504
 30
0.0
 10
6.2376
 20
-23.9504
 30
0.0
 10
6.8088
 20
-23.9504
 30
0.0
 10
6.8088
 20
-23.9504
 30
0.0
  0
SPLINE
  5
16D
330
1F
100
AcDbEntity
  8
AXIS
 62
   250
100
AcDbSpline
210
0.0
220
0.0
230
1.0
 70
    24
 71
     3
 72
     8
 73
     4
 74
     0
 42
0.0000000001
 43
0.0000000001
 40
0.0
 40
0.0
 40
0.0
 40
0.0
 40
1.0
 40
1.0
 40
1.0
 40
1.0
 10
1.6763
 20
-15.3962
 30
0.0
 10
1.6763
 20
-15.3962
 30
0.0
 10
1.6763
 20
-16.2573
 30
0.0
 10
1.6763
 20
-16.2573
 30
0.0
  0
SPLINE
  5
16E
330
1F
100
AcDbEntity
  8
AXIS
 62
   250
100
AcDbSpline
210
0.0
220
0.0
230
1.0
 70
    24
 71
     3
 72
     8
 73
     4
 74
     0
 42
0.0000000001
 43
0.0000000001
 40
0.0
 40
0.0
 40
0.0
 40
0.0
 40
1.0
 40
1.0
 40
1.0
 40
1.0
 10
1.6763
 20
-24.3725
 30
0.0
 10
1.6763
 20
-24.3725
 30
0.0
 10
1.6763
 20
-25.2336
 30
0.0
 10
1.6763
 20
-25.2336
 30
0.0
  0
SPLINE
  5
16F
330
1F
100
AcDbEntity
  8
AXIS
 62
   250
100
AcDbSpline
210
0.0
220
0.0
230
1.0
 70
    24
 71
     3
 72
     8
 73
     4
 74
     0
 42
0.0000000001
 43
0.0000000001
 40
0.0
 40
0.0
 40
0.0
 40
0.0
 40
1.0
 40
1.0
 40
1.0
 40
1.0
 10
2.104
 20
-25.2336
 30
0.0
 10
2.104
 20
-25.2336
 30
0.0
 10
2.104
 20
-24.549
 30
0.0
 10
2.104
 20
-24.549
 30
0.0
  0
SPLINE
  5
170
330
1F
100
AcDbEntity
  8
AXIS
 62
   250
100
AcDbSpline
210
0.0
220
0.0
230
1.0
 70
    24
 71
     3
 72
     8
 73
     4
 74
     0
 42
0.0000000001
 43
0.0000000001
 40
0.0
 40
0.0
 40
0.0
 40
0.0
 40
1.0
 40
1.0
 40
1.0
 40
1.0
 10
2.104
 20
-16.0808
 30
0.0
 10
2.104
 20
-16.0808
 30
0.0
 10
2.104
 20
-15.3962
 30
0.0
 10
2.104
 20
-15.3962
 30
0.0
  0
SPLINE
  5
171
330
1F
100
AcDbEntity
  8
AXIS
 62
   250
100
AcDbSpline
210
0.0
220
0.0
230
1.0
 70
    24
 71
     3
 72
     8
 73
     4
 74
     0
 42
0.0000000001
 43
0.0000000001
 40
0.0
 40
0.0
 40
0.0
 40
0.0
 40
1.0
 40
1.0
 40
1.0
 40
1.0
 10
-1.3177
 20
-22.2396
 30
0.0
 10
-1.3177
 20
-22.2396
 30
0.0
 10
-0.4566
 20
-22.2396
 30
0.0
 10
-0.4566
 20
-22.2396
 30
0.0
  0
SPLINE
  5
172
330
1F
100
AcDbEntity
  8
AXIS
 62
   250
100
AcDbSpline
210
0.0
220
0.0
230
1.0
 70
    24
 71
     3
 72
     8
 73
     4
 74
     0
 42
0.0000000001
 43
0.0000000001
 40
0.0
 40
0.0
 40
0.0
 40
0.0
 40
1.0
 40
1.0
 40
1.0
 40
1.0
 10
7.6586
 20
-22.2396
 30
0.0
 10
7.6586
 20
-22.2396
 30
0.0
 10
8.5197
 20
-22.2396
 30
0.0
 10
8.5197
 20
-22.2396
 30
0.0
  0
SPLINE
  5
173
330
1F
100
AcDbEntity
  8
AXIS
 62
   250
100
AcDbSpline
210
0.0
220
0.0
230
1.0
 70
    24
 71
     3
 72
     8
 73
     4
 74
     0
 42
0.0000000001
 43
0.0000000001
 40
0.0
 40
0.0
 40
0.0
 40
0.0
 40
1.0
 40
1.0
 40
1.0
 40
1.0
 10
8.5197
 20
-21.8119
 30
0.0
 10
8.5197
 20
-21.8119
 30
0.0
 10
7.8351
 20
-21.8119
 30
0.0
 10
7.8351
 20
-21.8119
 30
0.0
  0
SPLINE
  5
174
330
1F
100
AcDbEntity
  8
AXIS
 62
   250
100
AcDbSpline
210
0.0
220
0.0
230
1.0
 70
    24
 71
     3
 72
     8
 73
     4
 74
     0
 42
0.0000000001
 43
0.0000000001
 40
0.0
 40
0.0
 40
0.0
 40
0.0
 40
1.0
 40
1.0
 40
1.0
 40
1.0
 10
-0.6331
 20
-21.8119
 30
0.0
 10
-0.6331
 20
-21.8119
 30
0.0
 10
-1.3177
 20
-21.8119
 30
0.0
 10
-1.3177
 20
-21.8119
 30
0.0
  0
SPLINE
  5
175
330
1F
100
AcDbEntity
  8
AXIS
 62
   250
100
AcDbSpline
210
0.0
220
0.0
230
1.0
 70
    24
 71
     3
 72
     8
 73
     4
 74
     0
 42
0.0000000001
 43
0.0000000001
 40
0.0
 40
0.0
 40
0.0
 40
0.0
 40
1.0
 40
1.0
 40
1.0
 40
1.0
 10
3.3871
 20
-15.3962
 30
0.0
 10
3.3871
 20
-15.3962
 30
0.0
 10
3.3871
 20
-15.829
 30
0.0
 10
3.3871
 20
-15.829
 30
0.0
  0
SPLINE
  5
176
330
1F
100
AcDbEntity
  8
AXIS
 62
   250
100
AcDbSpline
210
0.0
220
0.0
230
1.0
 70
    24
 71
     3
 72
     8
 73
     4
 74
     0
 42
0.0000000001
 43
0.0000000001
 40
0.0
 40
0.0
 40
0.0
 40
0.0
 40
1.0
 40
1.0
 40
1.0
 40
1.0
 10
3.3871
 20
-24.8008
 30
0.0
 10
3.3871
 20
-24.8008
 30
0.0
 10
3.3871
 20
-25.2336
 30
0.0
 10
3.3871
 20
-25.2336
 30
0.0
  0
SPLINE
  5
177
330
1F
100
AcDbEntity
  8
AXIS
  6
NEW_LINE2
 62
   250
100
AcDbSpline
210
0.0
220
0.0
230
1.0
 70
    24
 71
     3
 72
     8
 73
     4
 74
     0
 42
0.0000000001
 43
0.0000000001
 40
0.0
 40
0.0
 40
0.0
 40
0.0
 40
1.0
 40
1.0
 40
1.0
 40
1.0
 10
3.6011
 20
-9.4543
 30
0.0
 10
3.6011
 20
-9.4543
 30
0.0
 10
3.6011
 20
-31.3284
 30
0.0
 10
3.6011
 20
-31.3284
 30
0.0
  0
SPLINE
  5
179
330
1F
100
AcDbEntity
  8
AXIS
 62
   250
100
AcDbSpline
210
0.0
220
0.0
230
1.0
 70
    24
 71
     3
 72
     8
 73
     4
 74
     0
 42
0.0000000001
 43
0.0000000001
 40
0.0
 40
0.0
 40
0.0
 40
0.0
 40
1.0
 40
1.0
 40
1.0
 40
1.0
 10
-1.3177
 20
-20.5288
 30
0.0
 10
-1.3177
 20
-20.5288
 30
0.0
 10
-0.8848
 20
-20.5288
 30
0.0
 10
-0.8848
 20
-20.5288
 30
0.0
  0
SPLINE
  5
17A
330
1F
100
AcDbEntity
  8
AXIS
 62
   250
100
AcDbSpline
210
0.0
220
0.0
230
1.0
 70
    24
 71
     3
 72
     8
 73
     4
 74
     0
 42
0.0000000001
 43
0.0000000001
 40
0.0
 40
0.0
 40
0.0
 40
0.0
 40
1.0
 40
1.0
 40
1.0
 40
1.0
 10
8.0869
 20
-20.5288
 30
0.0
 10
8.0869
 20
-20.5288
 30
0.0
 10
8.5197
 20
-20.5288
 30
0.0
 10
8.5197
 20
-20.5288
 30
0.0
  0
SPLINE
  5
17B
330
1F
100
AcDbEntity
  8
AXIS
  6
NEW_LINE3
 62
   250
100
AcDbSpline
210
0.0
220
0.0
230
1.0
 70
    24
 71
     3
 72
     8
 73
     4
 74
     0
 42
0.0000000001
 43
0.0000000001
 40
0.0
 40
0.0
 40
0.0
 40
0.0
 40
1.0
 40
1.0
 40
1.0
 40
1.0
 10
14.5245
 20
-20.3149
 30
0.0
 10
14.5245
 20
-20.3149
 30
0.0
 10
-7.4125
 20
-20.3149
 30
0.0
 10
-7.4125
 20
-20.3149
 30
0.0
  0
SPLINE
  5
17D
330
1F
100
AcDbEntity
  8
AXIS
 62
   250
100
AcDbSpline
210
0.0
220
0.0
230
1.0
 70
    24
 71
     3
 72
     8
 73
     4
 74
     0
 42
0.0000000001
 43
0.0000000001
 40
0.0
 40
0.0
 40
0.0
 40
0.0
 40
1.0
 40
1.0
 40
1.0
 40
1.0
 10
3.8148
 20
-25.2336
 30
0.0
 10
3.8148
 20
-25.2336
 30
0.0
 10
3.8148
 20
-24.8008
 30
0.0
 10
3.8148
 20
-24.8008
 30
0.0
  0
SPLINE
  5
17E
330
1F
100
AcDbEntity
  8
AXIS
 62
   250
100
AcDbSpline
210
0.0
220
0.0
230
1.0
 70
    24
 71
     3
 72
     8
 73
     4
 74
     0
 42
0.0000000001
 43
0.0000000001
 40
0.0
 40
0.0
 40
0.0
 40
0.0
 40
1.0
 40
1.0
 40
1.0
 40
1.0
 10
3.8148
 20
-15.829
 30
0.0
 10
3.8148
 20
-15.829
 30
0.0
 10
3.8148
 20
-15.3962
 30
0.0
 10
3.8148
 20
-15.3962
 30
0.0
  0
SPLINE
  5
17F
330
1F
100
AcDbEntity
  8
AXIS
 62
   250
100
AcDbSpline
210
0.0
220
0.0
230
1.0
 70
    24
 71
     3
 72
     8
 73
     4
 74
     0
 42
0.0000000001
 43
0.0000000001
 40
0.0
 40
0.0
 40
0.0
 40
0.0
 40
1.0
 40
1.0
 40
1.0
 40
1.0
 10
5.098
 20
-15.3962
 30
0.0
 10
5.098
 20
-15.3962
 30
0.0
 10
5.098
 20
-16.0808
 30
0.0
 10
5.098
 20
-16.0808
 30
0.0
  0
SPLINE
  5
180
330
1F
100
AcDbEntity
  8
AXIS
 62
   250
100
AcDbSpline
210
0.0
220
0.0
230
1.0
 70
    24
 71
     3
 72
     8
 73
     4
 74
     0
 42
0.0000000001
 43
0.0000000001
 40
0.0
 40
0.0
 40
0.0
 40
0.0
 40
1.0
 40
1.0
 40
1.0
 40
1.0
 10
5.098
 20
-24.549
 30
0.0
 10
5.098
 20
-24.549
 30
0.0
 10
5.098
 20
-25.2336
 30
0.0
 10
5.098
 20
-25.2336
 30
0.0
  0
SPLINE
  5
181
330
1F
100
AcDbEntity
  8
AXIS
 62
   250
100
AcDbSpline
210
0.0
220
0.0
230
1.0
 70
    24
 71
     3
 72
     8
 73
     4
 74
     0
 42
0.0000000001
 43
0.0000000001
 40
0.0
 40
0.0
 40
0.0
 40
0.0
 40
1.0
 40
1.0
 40
1.0
 40
1.0
 10
8.5197
 20
-20.101
 30
0.0
 10
8.5197
 20
-20.101
 30
0.0
 10
8.0869
 20
-20.101
 30
0.0
 10
8.0869
 20
-20.101
 30
0.0
  0
SPLINE
  5
182
330
1F
100
AcDbEntity
  8
AXIS
 62
   250
100
AcDbSpline
210
0.0
220
0.0
230
1.0
 70
    24
 71
     3
 72
     8
 73
     4
 74
     0
 42
0.0000000001
 43
0.0000000001
 40
0.0
 40
0.0
 40
0.0
 40
0.0
 40
1.0
 40
1.0
 40
1.0
 40
1.0
 10
-0.8848
 20
-20.101
 30
0.0
 10
-0.8848
 20
-20.101
 30
0.0
 10
-1.3177
 20
-20.101
 30
0.0
 10
-1.3177
 20
-20.101
 30
0.0
  0
SPLINE
  5
183
330
1F
100
AcDbEntity
  8
AXIS
 62
   250
100
AcDbSpline
210
0.0
220
0.0
230
1.0
 70
    24
 71
     3
 72
     8
 73
     4
 74
     0
 42
0.0000000001
 43
0.0000000001
 40
0.0
 40
0.0
 40
0.0
 40
0.0
 40
1.0
 40
1.0
 40
1.0
 40
1.0
 10
-1.3177
 20
-18.8179
 30
0.0
 10
-1.3177
 20
-18.8179
 30
0.0
 10
-0.6331
 20
-18.8179
 30
0.0
 10
-0.6331
 20
-18.8179
 30
0.0
  0
SPLINE
  5
184
330
1F
100
AcDbEntity
  8
AXIS
 62
   250
100
AcDbSpline
210
0.0
220
0.0
230
1.0
 70
    24
 71
     3
 72
     8
 73
     4
 74
     0
 42
0.0000000001
 43
0.0000000001
 40
0.0
 40
0.0
 40
0.0
 40
0.0
 40
1.0
 40
1.0
 40
1.0
 40
1.0
 10
7.8351
 20
-18.8179
 30
0.0
 10
7.8351
 20
-18.8179
 30
0.0
 10
8.5197
 20
-18.8179
 30
0.0
 10
8.5197
 20
-18.8179
 30
0.0
  0
SPLINE
  5
185
330
1F
100
AcDbEntity
  8
AXIS
 62
   250
100
AcDbSpline
210
0.0
220
0.0
230
1.0
 70
    24
 71
     3
 72
     8
 73
     4
 74
     0
 42
0.0000000001
 43
0.0000000001
 40
0.0
 40
0.0
 40
0.0
 40
0.0
 40
1.0
 40
1.0
 40
1.0
 40
1.0
 10
5.5257
 20
-25.2336
 30
0.0
 10
5.5257
 20
-25.2336
 30
0.0
 10
5.5257
 20
-24.3725
 30
0.0
 10
5.5257
 20
-24.3725
 30
0.0
  0
SPLINE
  5
186
330
1F
100
AcDbEntity
  8
AXIS
 62
   250
100
AcDbSpline
210
0.0
220
0.0
230
1.0
 70
    24
 71
     3
 72
     8
 73
     4
 74
     0
 42
0.0000000001
 43
0.0000000001
 40
0.0
 40
0.0
 40
0.0
 40
0.0
 40
1.0
 40
1.0
 40
1.0
 40
1.0
 10
5.5257
 20
-16.2573
 30
0.0
 10
5.5257
 20
-16.2573
 30
0.0
 10
5.5257
 20
-15.3962
 30
0.0
 10
5.5257
 20
-15.3962
 30
0.0
  0
SPLINE
  5
187
330
1F
100
AcDbEntity
  8
AXIS
 62
   250
100
AcDbSpline
210
0.0
220
0.0
230
1.0
 70
    24
 71
     3
 72
     8
 73
     4
 74
     0
 42
0.0000000001
 43
0.0000000001
 40
0.0
 40
0.0
 40
0.0
 40
0.0
 40
1.0
 40
1.0
 40
1.0
 40
1.0
 10
8.5197
 20
-18.3902
 30
0.0
 10
8.5197
 20
-18.3902
 30
0.0
 10
7.6586
 20
-18.3902
 30
0.0
 10
7.6586
 20
-18.3902
 30
0.0
  0
SPLINE
  5
188
330
1F
100
AcDbEntity
  8
AXIS
 62
   250
100
AcDbSpline
210
0.0
220
0.0
230
1.0
 70
    24
 71
     3
 72
     8
 73
     4
 74
     0
 42
0.0000000001
 43
0.0000000001
 40
0.0
 40
0.0
 40
0.0
 40
0.0
 40
1.0
 40
1.0
 40
1.0
 40
1.0
 10
-0.4566
 20
-18.3902
 30
0.0
 10
-0.4566
 20
-18.3902
 30
0.0
 10
-1.3177
 20
-18.3902
 30
0.0
 10
-1.3177
 20
-18.3902
 30
0.0
  0
SPLINE
  5
189
330
1F
100
AcDbEntity
  8
AXIS
 62
   250
100
AcDbSpline
210
0.0
220
0.0
230
1.0
 70
    24
 71
     3
 72
     8
 73
     4
 74
     0
 42
0.0000000001
 43
0.0000000001
 40
0.0
 40
0.0
 40
0.0
 40
0.0
 40
1.0
 40
1.0
 40
1.0
 40
1.0
 10
7.2365
 20
-23.5227
 30
0.0
 10
7.2365
 20
-23.5227
 30
0.0
 10
7.2365
 20
-22.9515
 30
0.0
 10
7.2365
 20
-22.9515
 30
0.0
  0
SPLINE
  5
18A
330
1F
100
AcDbEntity
  8
AXIS
 62
   250
100
AcDbSpline
210
0.0
220
0.0
230
1.0
 70
    24
 71
     3
 72
     8
 73
     4
 74
     0
 42
0.0000000001
 43
0.0000000001
 40
0.0
 40
0.0
 40
0.0
 40
0.0
 40
1.0
 40
1.0
 40
1.0
 40
1.0
 10
7.2365
 20
-17.6783
 30
0.0
 10
7.2365
 20
-17.6783
 30
0.0
 10
7.2365
 20
-17.1071
 30
0.0
 10
7.2365
 20
-17.1071
 30
0.0
  0
SPLINE
  5
18B
330
1F
100
AcDbEntity
  8
AXIS
 62
   250
100
AcDbSpline
210
0.0
220
0.0
230
1.0
 70
    24
 71
     3
 72
     8
 73
     4
 74
     0
 42
0.0000000001
 43
0.0000000001
 40
0.0
 40
0.0
 40
0.0
 40
0.0
 40
1.0
 40
1.0
 40
1.0
 40
1.0
 10
6.8088
 20
-16.6794
 30
0.0
 10
6.8088
 20
-16.6794
 30
0.0
 10
6.2376
 20
-16.6794
 30
0.0
 10
6.2376
 20
-16.6794
 30
0.0
  0
SPLINE
  5
18C
330
1F
100
AcDbEntity
  8
AXIS
 62
   250
100
AcDbSpline
210
0.0
220
0.0
230
1.0
 70
    24
 71
     3
 72
     8
 73
     4
 74
     0
 42
0.0000000001
 43
0.0000000001
 40
0.0
 40
0.0
 40
0.0
 40
0.0
 40
1.0
 40
1.0
 40
1.0
 40
1.0
 10
0.9644
 20
-16.6794
 30
0.0
 10
0.9644
 20
-16.6794
 30
0.0
 10
0.3932
 20
-16.6794
 30
0.0
 10
0.3932
 20
-16.6794
 30
0.0
  0
SPLINE
  5
18D
330
1F
100
AcDbEntity
  8
AXIS
 62
   250
100
AcDbSpline
210
0.0
220
0.0
230
1.0
 70
    11
 71
     3
 72
    20
 73
    16
 74
     0
 42
0.0000000001
 43
0.0000000001
 40
0.0
 40
0.0
 40
0.0
 40
0.0
 40
0.2
 40
0.2
 40
0.2
 40
0.2
 40
0.4
 40
0.4
 40
0.4
 40
0.4
 40
0.6
 40
0.6
 40
0.6
 40
0.6
 40
1.0
 40
1.0
 40
1.0
 40
1.0
 10
13.7591
 20
-20.3149
 30
0.0
 10
13.7591
 20
-14.7048
 30
0.0
 10
9.2112
 20
-10.1568
 30
0.0
 10
3.601
 20
-10.1568
 30
0.0
 10
3.601
 20
-10.1568
 30
0.0
 10
-2.0091
 20
-10.1568
 30
0.0
 10
-6.5571
 20
-14.7048
 30
0.0
 10
-6.5571
 20
-20.3149
 30
0.0
 10
-6.5571
 20
-20.3149
 30
0.0
 10
-6.5571
 20
-25.9251
 30
0.0
 10
-2.0091
 20
-30.473
 30
0.0
 10
3.601
 20
-30.473
 30
0.0
 10
3.601
 20
-30.473
 30
0.0
 10
9.2112
 20
-30.473
 30
0.0
 10
13.7591
 20
-25.9251
 30
0.0
 10
13.7591
 20
-20.3149
 30
0.0
  0
SPLINE
  5
18E
330
1F
100
AcDbEntity
  8
AXIS
 62
   250
100
AcDbSpline
210
0.0
220
0.0
230
1.0
 70
     8
 71
     3
 72
     8
 73
     4
 74
     0
 42
0.0000000001
 43
0.0000000001
 40
0.0
 40
0.0
 40
0.0
 40
0.0
 40
1.0
 40
1.0
 40
1.0
 40
1.0
 10
7.2365
 20
-22.9515
 30
0.0
 10
7.3988
 20
-22.7277
 30
0.0
 10
7.5402
 20
-22.4894
 30
0.0
 10
7.6586
 20
-22.2396
 30
0.0
  0
SPLINE
  5
18F
330
1F
100
AcDbEntity
  8
AXIS
 62
   250
100
AcDbSpline
210
0.0
220
0.0
230
1.0
 70
     8
 71
     3
 72
     8
 73
     4
 74
     0
 42
0.0000000001
 43
0.0000000001
 40
0.0
 40
0.0
 40
0.0
 40
0.0
 40
1.0
 40
1.0
 40
1.0
 40
1.0
 10
7.8351
 20
-21.8119
 30
0.0
 10
7.9812
 20
-21.3988
 30
0.0
 10
8.066
 20
-20.9665
 30
0.0
 10
8.0869
 20
-20.5288
 30
0.0
  0
SPLINE
  5
190
330
1F
100
AcDbEntity
  8
AXIS
 62
   250
100
AcDbSpline
210
0.0
220
0.0
230
1.0
 70
     8
 71
     3
 72
     8
 73
     4
 74
     0
 42
0.0000000001
 43
0.0000000001
 40
0.0
 40
0.0
 40
0.0
 40
0.0
 40
1.0
 40
1.0
 40
1.0
 40
1.0
 10
8.0869
 20
-20.101
 30
0.0
 10
8.066
 20
-19.6634
 30
0.0
 10
7.9812
 20
-19.2311
 30
0.0
 10
7.8351
 20
-18.8179
 30
0.0
  0
SPLINE
  5
191
330
1F
100
AcDbEntity
  8
AXIS
 62
   250
100
AcDbSpline
210
0.0
220
0.0
230
1.0
 70
     8
 71
     3
 72
     8
 73
     4
 74
     0
 42
0.0000000001
 43
0.0000000001
 40
0.0
 40
0.0
 40
0.0
 40
0.0
 40
1.0
 40
1.0
 40
1.0
 40
1.0
 10
7.6586
 20
-18.3902
 30
0.0
 10
7.5402
 20
-18.1404
 30
0.0
 10
7.3988
 20
-17.9021
 30
0.0
 10
7.2365
 20
-17.6783
 30
0.0
  0
SPLINE
  5
192
330
1F
100
AcDbEntity
  8
AXIS
 62
   250
100
AcDbSpline
210
0.0
220
0.0
230
1.0
 70
     8
 71
     3
 72
     8
 73
     4
 74
     0
 42
0.0000000001
 43
0.0000000001
 40
0.0
 40
0.0
 40
0.0
 40
0.0
 40
1.0
 40
1.0
 40
1.0
 40
1.0
 10
5.5257
 20
-24.3725
 30
0.0
 10
5.7755
 20
-24.2541
 30
0.0
 10
6.0138
 20
-24.1127
 30
0.0
 10
6.2376
 20
-23.9504
 30
0.0
  0
SPLINE
  5
193
330
1F
100
AcDbEntity
  8
AXIS
 62
   250
100
AcDbSpline
210
0.0
220
0.0
230
1.0
 70
     8
 71
     3
 72
     8
 73
     4
 74
     0
 42
0.0000000001
 43
0.0000000001
 40
0.0
 40
0.0
 40
0.0
 40
0.0
 40
1.0
 40
1.0
 40
1.0
 40
1.0
 10
6.2376
 20
-16.6794
 30
0.0
 10
6.0138
 20
-16.5171
 30
0.0
 10
5.7755
 20
-16.3758
 30
0.0
 10
5.5257
 20
-16.2573
 30
0.0
  0
SPLINE
  5
194
330
1F
100
AcDbEntity
  8
AXIS
 62
   250
100
AcDbSpline
210
0.0
220
0.0
230
1.0
 70
     8
 71
     3
 72
     8
 73
     4
 74
     0
 42
0.0000000001
 43
0.0000000001
 40
0.0
 40
0.0
 40
0.0
 40
0.0
 40
1.0
 40
1.0
 40
1.0
 40
1.0
 10
3.8148
 20
-24.8008
 30
0.0
 10
4.2526
 20
-24.7799
 30
0.0
 10
4.6849
 20
-24.6951
 30
0.0
 10
5.098
 20
-24.549
 30
0.0
  0
SPLINE
  5
195
330
1F
100
AcDbEntity
  8
AXIS
 62
   250
100
AcDbSpline
210
0.0
220
0.0
230
1.0
 70
     8
 71
     3
 72
     8
 73
     4
 74
     0
 42
0.0000000001
 43
0.0000000001
 40
0.0
 40
0.0
 40
0.0
 40
0.0
 40
1.0
 40
1.0
 40
1.0
 40
1.0
 10
5.098
 20
-16.0808
 30
0.0
 10
4.6849
 20
-15.9347
 30
0.0
 10
4.2526
 20
-15.8499
 30
0.0
 10
3.8148
 20
-15.829
 30
0.0
  0
SPLINE
  5
196
330
1F
100
AcDbEntity
  8
AXIS
 62
   250
100
AcDbSpline
210
0.0
220
0.0
230
1.0
 70
     8
 71
     3
 72
     8
 73
     4
 74
     0
 42
0.0000000001
 43
0.0000000001
 40
0.0
 40
0.0
 40
0.0
 40
0.0
 40
1.0
 40
1.0
 40
1.0
 40
1.0
 10
2.104
 20
-24.549
 30
0.0
 10
2.5172
 20
-24.6951
 30
0.0
 10
2.9495
 20
-24.7799
 30
0.0
 10
3.3871
 20
-24.8008
 30
0.0
  0
SPLINE
  5
197
330
1F
100
AcDbEntity
  8
AXIS
 62
   250
100
AcDbSpline
210
0.0
220
0.0
230
1.0
 70
     8
 71
     3
 72
     8
 73
     4
 74
     0
 42
0.0000000001
 43
0.0000000001
 40
0.0
 40
0.0
 40
0.0
 40
0.0
 40
1.0
 40
1.0
 40
1.0
 40
1.0
 10
3.3871
 20
-15.829
 30
0.0
 10
2.9495
 20
-15.8499
 30
0.0
 10
2.5172
 20
-15.9347
 30
0.0
 10
2.104
 20
-16.0808
 30
0.0
  0
SPLINE
  5
198
330
1F
100
AcDbEntity
  8
AXIS
 62
   250
100
AcDbSpline
210
0.0
220
0.0
230
1.0
 70
     8
 71
     3
 72
     8
 73
     4
 74
     0
 42
0.0000000001
 43
0.0000000001
 40
0.0
 40
0.0
 40
0.0
 40
0.0
 40
1.0
 40
1.0
 40
1.0
 40
1.0
 10
0.9644
 20
-23.9504
 30
0.0
 10
1.1882
 20
-24.1127
 30
0.0
 10
1.4266
 20
-24.2541
 30
0.0
 10
1.6763
 20
-24.3725
 30
0.0
  0
SPLINE
  5
199
330
1F
100
AcDbEntity
  8
AXIS
 62
   250
100
AcDbSpline
210
0.0
220
0.0
230
1.0
 70
     8
 71
     3
 72
     8
 73
     4
 74
     0
 42
0.0000000001
 43
0.0000000001
 40
0.0
 40
0.0
 40
0.0
 40
0.0
 40
1.0
 40
1.0
 40
1.0
 40
1.0
 10
1.6763
 20
-16.2573
 30
0.0
 10
1.4266
 20
-16.3758
 30
0.0
 10
1.1882
 20
-16.5171
 30
0.0
 10
0.9644
 20
-16.6794
 30
0.0
  0
SPLINE
  5
19A
330
1F
100
AcDbEntity
  8
AXIS
 62
   250
100
AcDbSpline
210
0.0
220
0.0
230
1.0
 70
     8
 71
     3
 72
     8
 73
     4
 74
     0
 42
0.0000000001
 43
0.0000000001
 40
0.0
 40
0.0
 40
0.0
 40
0.0
 40
1.0
 40
1.0
 40
1.0
 40
1.0
 10
-0.4566
 20
-22.2396
 30
0.0
 10
-0.3381
 20
-22.4894
 30
0.0
 10
-0.1968
 20
-22.7277
 30
0.0
 10
-0.0345
 20
-22.9515
 30
0.0
  0
SPLINE
  5
19B
330
1F
100
AcDbEntity
  8
AXIS
 62
   250
100
AcDbSpline
210
0.0
220
0.0
230
1.0
 70
     8
 71
     3
 72
     8
 73
     4
 74
     0
 42
0.0000000001
 43
0.0000000001
 40
0.0
 40
0.0
 40
0.0
 40
0.0
 40
1.0
 40
1.0
 40
1.0
 40
1.0
 10
-0.8848
 20
-20.5288
 30
0.0
 10
-0.864
 20
-20.9665
 30
0.0
 10
-0.7792
 20
-21.3988
 30
0.0
 10
-0.6331
 20
-21.8119
 30
0.0
  0
SPLINE
  5
19C
330
1F
100
AcDbEntity
  8
AXIS
 62
   250
100
AcDbSpline
210
0.0
220
0.0
230
1.0
 70
     8
 71
     3
 72
     8
 73
     4
 74
     0
 42
0.0000000001
 43
0.0000000001
 40
0.0
 40
0.0
 40
0.0
 40
0.0
 40
1.0
 40
1.0
 40
1.0
 40
1.0
 10
-0.6331
 20
-18.8179
 30
0.0
 10
-0.7792
 20
-19.2311
 30
0.0
 10
-0.864
 20
-19.6634
 30
0.0
 10
-0.8848
 20
-20.101
 30
0.0
  0
SPLINE
  5
19D
330
1F
100
AcDbEntity
  8
AXIS
 62
   250
100
AcDbSpline
210
0.0
220
0.0
230
1.0
 70
     8
 71
     3
 72
     8
 73
     4
 74
     0
 42
0.0000000001
 43
0.0000000001
 40
0.0
 40
0.0
 40
0.0
 40
0.0
 40
1.0
 40
1.0
 40
1.0
 40
1.0
 10
-0.0345
 20
-17.6783
 30
0.0
 10
-0.1968
 20
-17.9021
 30
0.0
 10
-0.3381
 20
-18.1404
 30
0.0
 10
-0.4566
 20
-18.3902
 30
0.0
  0
SPLINE
  5
19E
330
1F
100
AcDbEntity
  8
AXIS
 62
   250
100
AcDbSpline
210
0.0
220
0.0
230
1.0
 70
     8
 71
     3
 72
    48
 73
    44
 74
     0
 42
0.0000000001
 43
0.0000000001
 40
0.0
 40
0.0
 40
0.0
 40
0.0
 40
0.0833333333333333
 40
0.0833333333333333
 40
0.0833333333333333
 40
0.0833333333333333
 40
0.1666666666666667
 40
0.1666666666666667
 40
0.1666666666666667
 40
0.1666666666666667
 40
0.25
 40
0.25
 40
0.25
 40
0.25
 40
0.3333333333333333
 40
0.3333333333333333
 40
0.3333333333333333
 40
0.3333333333333333
 40
0.4166666666666667
 40
0.4166666666666667
 40
0.4166666666666667
 40
0.4166666666666667
 40
0.5
 40
0.5
 40
0.5
 40
0.5
 40
0.5833333333333334
 40
0.5833333333333334
 40
0.5833333333333334
 40
0.5833333333333334
 40
0.6666666666666666
 40
0.6666666666666666
 40
0.6666666666666666
 40
0.6666666666666666
 40
0.75
 40
0.75
 40
0.75
 40
0.75
 40
0.8333333333333334
 40
0.8333333333333334
 40
0.8333333333333334
 40
0.8333333333333334
 40
1.0
 40
1.0
 40
1.0
 40
1.0
 10
13.1527
 20
16.8398
 30
0.0
 10
13.1527
 20
16.8398
 30
0.0
 10
13.1242
 20
16.7921
 30
0.0
 10
13.1242
 20
16.7921
 30
0.0
 10
13.1242
 20
16.7921
 30
0.0
 10
13.1242
 20
16.7921
 30
0.0
 10
13.075
 20
16.7163
 30
0.0
 10
13.075
 20
16.7163
 30
0.0
 10
13.075
 20
16.7163
 30
0.0
 10
13.075
 20
16.7163
 30
0.0
 10
13.0007
 20
16.6149
 30
0.0
 10
13.0007
 20
16.6149
 30
0.0
 10
13.0007
 20
16.6149
 30
0.0
 10
13.0007
 20
16.6149
 30
0.0
 10
12.8955
 20
16.4901
 30
0.0
 10
12.8955
 20
16.4901
 30
0.0
 10
12.8955
 20
16.4901
 30
0.0
 10
12.8955
 20
16.4901
 30
0.0
 10
12.751
 20
16.3453
 30
0.0
 10
12.751
 20
16.3453
 30
0.0
 10
12.751
 20
16.3453
 30
0.0
 10
12.751
 20
16.3453
 30
0.0
 10
12.563
 20
16.1906
 30
0.0
 10
12.563
 20
16.1906
 30
0.0
 10
12.563
 20
16.1906
 30
0.0
 10
12.563
 20
16.1906
 30
0.0
 10
12.348
 20
16.0497
 30
0.0
 10
12.348
 20
16.0497
 30
0.0
 10
12.348
 20
16.0497
 30
0.0
 10
12.348
 20
16.0497
 30
0.0
 10
12.1235
 20
15.9369
 30
0.0
 10
12.1235
 20
15.9369
 30
0.0
 10
12.1235
 20
15.9369
 30
0.0
 10
12.1235
 20
15.9369
 30
0.0
 10
11.9009
 20
15.8562
 30
0.0
 10
11.9009
 20
15.8562
 30
0.0
 10
11.9009
 20
15.8562
 30
0.0
 10
11.9009
 20
15.8562
 30
0.0
 10
11.6795
 20
15.8063
 30
0.0
 10
11.6795
 20
15.8063
 30
0.0
 10
11.6795
 20
15.8063
 30
0.0
 10
11.6795
 20
15.8063
 30
0.0
 10
11.4649
 20
15.7892
 30
0.0
 10
11.4649
 20
15.7892
 30
0.0
  0
SPLINE
  5
19F
330
1F
100
AcDbEntity
  8
AXIS
 62
   250
100
AcDbSpline
210
0.0
220
0.0
230
1.0
 70
     8
 71
     3
 72
    12
 73
     8
 74
     0
 42
0.0000000001
 43
0.0000000001
 40
0.0
 40
0.0
 40
0.0
 40
0.0
 40
0.3333333333333333
 40
0.3333333333333333
 40
0.3333333333333333
 40
0.3333333333333333
 40
1.0
 40
1.0
 40
1.0
 40
1.0
 10
13.1634
 20
16.8584
 30
0.0
 10
13.1634
 20
16.8584
 30
0.0
 10
13.1607
 20
16.8538
 30
0.0
 10
13.1607
 20
16.8538
 30
0.0
 10
13.1607
 20
16.8538
 30
0.0
 10
13.1607
 20
16.8538
 30
0.0
 10
13.1527
 20
16.8398
 30
0.0
 10
13.1527
 20
16.8398
 30
0.0
  0
SPLINE
  5
1A0
330
1F
100
AcDbEntity
  8
AXIS
 62
   250
100
AcDbSpline
210
0.0
220
0.0
230
1.0
 70
    11
 71
     3
 72
    84
 73
    80
 74
     0
 42
0.0000000001
 43
0.0000000001
 40
0.0
 40
0.0
 40
0.0
 40
0.0
 40
0.0476190476190476
 40
0.0476190476190476
 40
0.0476190476190476
 40
0.0476190476190476
 40
0.0952380952380952
 40
0.0952380952380952
 40
0.0952380952380952
 40
0.0952380952380952
 40
0.1428571428571428
 40
0.1428571428571428
 40
0.1428571428571428
 40
0.1428571428571428
 40
0.1904761904761905
 40
0.1904761904761905
 40
0.1904761904761905
 40
0.1904761904761905
 40
0.2380952380952381
 40
0.2380952380952381
 40
0.2380952380952381
 40
0.2380952380952381
 40
0.2857142857142857
 40
0.2857142857142857
 40
0.2857142857142857
 40
0.2857142857142857
 40
0.3333333333333333
 40
0.3333333333333333
 40
0.3333333333333333
 40
0.3333333333333333
 40
0.3809523809523809
 40
0.3809523809523809
 40
0.3809523809523809
 40
0.3809523809523809
 40
0.4285714285714285
 40
0.4285714285714285
 40
0.4285714285714285
 40
0.4285714285714285
 40
0.4761904761904762
 40
0.4761904761904762
 40
0.4761904761904762
 40
0.4761904761904762
 40
0.5238095238095238
 40
0.5238095238095238
 40
0.5238095238095238
 40
0.5238095238095238
 40
0.5714285714285714
 40
0.5714285714285714
 40
0.5714285714285714
 40
0.5714285714285714
 40
0.6190476190476191
 40
0.6190476190476191
 40
0.6190476190476191
 40
0.6190476190476191
 40
0.6666666666666666
 40
0.6666666666666666
 40
0.6666666666666666
 40
0.6666666666666666
 40
0.7142857142857143
 40
0.7142857142857143
 40
0.7142857142857143
 40
0.7142857142857143
 40
0.7619047619047619
 40
0.7619047619047619
 40
0.7619047619047619
 40
0.7619047619047619
 40
0.8095238095238095
 40
0.8095238095238095
 40
0.8095238095238095
 40
0.8095238095238095
 40
0.8571428571428571
 40
0.8571428571428571
 40
0.8571428571428571
 40
0.8571428571428571
 40
0.9047619047619048
 40
0.9047619047619048
 40
0.9047619047619048
 40
0.9047619047619048
 40
1.0
 40
1.0
 40
1.0
 40
1.0
 10
2.2884
 20
36.1766
 30
0.0
 10
2.2884
 20
36.1766
 30
0.0
 10
2.5198
 20
36.4357
 30
0.0
 10
2.5198
 20
36.4357
 30
0.0
 10
2.5198
 20
36.4357
 30
0.0
 10
2.5198
 20
36.4357
 30
0.0
 10
2.6562
 20
36.32
 30
0.0
 10
2.6562
 20
36.32
 30
0.0
 10
2.6562
 20
36.32
 30
0.0
 10
2.6562
 20
36.32
 30
0.0
 10
2.414
 20
36.0472
 30
0.0
 10
2.414
 20
36.0472
 30
0.0
 10
2.414
 20
36.0472
 30
0.0
 10
2.493
 20
35.9296
 30
0.0
 10
2.5461
 20
35.8266
 30
0.0
 10
2.5739
 20
35.7387
 30
0.0
 10
2.5739
 20
35.7387
 30
0.0
 10
2.6106
 20
35.6229
 30
0.0
 10
2.6289
 20
35.4931
 30
0.0
 10
2.6289
 20
35.3501
 30
0.0
 10
2.6289
 20
35.3501
 30
0.0
 10
2.6289
 20
35.1432
 30
0.0
 10
2.5871
 20
34.9588
 30
0.0
 10
2.5033
 20
34.7975
 30
0.0
 10
2.5033
 20
34.7975
 30
0.0
 10
2.4196
 20
34.6356
 30
0.0
 10
2.3025
 20
34.5134
 30
0.0
 10
2.1515
 20
34.4306
 30
0.0
 10
2.1515
 20
34.4306
 30
0.0
 10
2.0
 20
34.3483
 30
0.0
 10
1.8397
 20
34.3069
 30
0.0
 10
1.6699
 20
34.3069
 30
0.0
 10
1.6699
 20
34.3069
 30
0.0
 10
1.5429
 20
34.3069
 30
0.0
 10
1.4281
 20
34.3247
 30
0.0
 10
1.3251
 20
34.3605
 30
0.0
 10
1.3251
 20
34.3605
 30
0.0
 10
1.2461
 20
34.3882
 30
0.0
 10
1.1539
 20
34.4409
 30
0.0
 10
1.048
 20
34.519
 30
0.0
 10
1.048
 20
34.519
 30
0.0
 10
1.048
 20
34.519
 30
0.0
 10
0.8166
 20
34.2598
 30
0.0
 10
0.8166
 20
34.2598
 30
0.0
 10
0.8166
 20
34.2598
 30
0.0
 10
0.8166
 20
34.2598
 30
0.0
 10
0.6802
 20
34.3755
 30
0.0
 10
0.6802
 20
34.3755
 30
0.0
 10
0.6802
 20
34.3755
 30
0.0
 10
0.6802
 20
34.3755
 30
0.0
 10
0.9229
 20
34.6469
 30
0.0
 10
0.9229
 20
34.6469
 30
0.0
 10
0.9229
 20
34.6469
 30
0.0
 10
0.8326
 20
34.7838
 30
0.0
 10
0.7724
 20
34.9009
 30
0.0
 10
0.7423
 20
34.9978
 30
0.0
 10
0.7423
 20
34.9978
 30
0.0
 10
0.7122
 20
35.0947
 30
0.0
 10
0.6967
 20
35.2114
 30
0.0
 10
0.6967
 20
35.3473
 30
0.0
 10
0.6967
 20
35.3473
 30
0.0
 10
0.6967
 20
35.5547
 30
0.0
 10
0.7381
 20
35.7396
 30
0.0
 10
0.8208
 20
35.9019
 30
0.0
 10
0.8208
 20
35.9019
 30
0.0
 10
0.9036
 20
36.0642
 30
0.0
 10
1.0193
 20
36.1869
 30
0.0
 10
1.1689
 20
36.2706
 30
0.0
 10
1.1689
 20
36.2706
 30
0.0
 10
1.318
 20
36.3539
 30
0.0
 10
1.4841
 20
36.3958
 30
0.0
 10
1.667
 20
36.3958
 30
0.0
 10
1.667
 20
36.3958
 30
0.0
 10
1.7903
 20
36.3958
 30
0.0
 10
1.898
 20
36.3798
 30
0.0
 10
1.9902
 20
36.3468
 30
0.0
 10
1.9902
 20
36.3468
 30
0.0
 10
2.0824
 20
36.3144
 30
0.0
 10
2.1821
 20
36.2575
 30
0.0
 10
2.2884
 20
36.1766
 30
0.0
  0
SPLINE
  5
1A1
330
1F
100
AcDbEntity
  8
AXIS
 62
   250
100
AcDbSpline
210
0.0
220
0.0
230
1.0
 70
    11
 71
     3
 72
    32
 73
    28
 74
     0
 42
0.0000000001
 43
0.0000000001
 40
0.0
 40
0.0
 40
0.0
 40
0.0
 40
0.125
 40
0.125
 40
0.125
 40
0.125
 40
0.25
 40
0.25
 40
0.25
 40
0.25
 40
0.375
 40
0.375
 40
0.375
 40
0.375
 40
0.5
 40
0.5
 40
0.5
 40
0.5
 40
0.625
 40
0.625
 40
0.625
 40
0.625
 40
0.75
 40
0.75
 40
0.75
 40
0.75
 40
1.0
 40
1.0
 40
1.0
 40
1.0
 10
2.1233
 20
35.9908
 30
0.0
 10
2.0367
 20
36.0585
 30
0.0
 10
1.961
 20
36.1051
 30
0.0
 10
1.8966
 20
36.13
 30
0.0
 10
1.8966
 20
36.13
 30
0.0
 10
1.8317
 20
36.1545
 30
0.0
 10
1.7555
 20
36.1672
 30
0.0
 10
1.6684
 20
36.1672
 30
0.0
 10
1.6684
 20
36.1672
 30
0.0
 10
1.4671
 20
36.1672
 30
0.0
 10
1.3011
 20
36.099
 30
0.0
 10
1.1694
 20
35.9626
 30
0.0
 10
1.1694
 20
35.9626
 30
0.0
 10
1.0381
 20
35.8261
 30
0.0
 10
0.9723
 20
35.6225
 30
0.0
 10
0.9723
 20
35.3511
 30
0.0
 10
0.9723
 20
35.3511
 30
0.0
 10
0.9723
 20
35.2448
 30
0.0
 10
0.9826
 20
35.1502
 30
0.0
 10
1.0029
 20
35.0674
 30
0.0
 10
1.0029
 20
35.0674
 30
0.0
 10
1.0175
 20
35.0058
 30
0.0
 10
1.048
 20
34.9301
 30
0.0
 10
1.0951
 20
34.8403
 30
0.0
 10
1.0951
 20
34.8403
 30
0.0
 10
1.0951
 20
34.8403
 30
0.0
 10
2.1233
 20
35.9908
 30
0.0
 10
2.1233
 20
35.9908
 30
0.0
  0
SPLINE
  5
1A2
330
1F
100
AcDbEntity
  8
AXIS
 62
   250
100
AcDbSpline
210
0.0
220
0.0
230
1.0
 70
    11
 71
     3
 72
    28
 73
    24
 74
     0
 42
0.0000000001
 43
0.0000000001
 40
0.0
 40
0.0
 40
0.0
 40
0.0
 40
0.1428571428571428
 40
0.1428571428571428
 40
0.1428571428571428
 40
0.1428571428571428
 40
0.2857142857142857
 40
0.2857142857142857
 40
0.2857142857142857
 40
0.2857142857142857
 40
0.4285714285714285
 40
0.4285714285714285
 40
0.4285714285714285
 40
0.4285714285714285
 40
0.5714285714285714
 40
0.5714285714285714
 40
0.5714285714285714
 40
0.5714285714285714
 40
0.7142857142857143
 40
0.7142857142857143
 40
0.7142857142857143
 40
0.7142857142857143
 40
1.0
 40
1.0
 40
1.0
 40
1.0
 10
2.2362
 20
35.8487
 30
0.0
 10
2.2362
 20
35.8487
 30
0.0
 10
1.2122
 20
34.7024
 30
0.0
 10
1.2122
 20
34.7024
 30
0.0
 10
1.2122
 20
34.7024
 30
0.0
 10
1.2827
 20
34.6446
 30
0.0
 10
1.3481
 20
34.6041
 30
0.0
 10
1.4079
 20
34.5811
 30
0.0
 10
1.4079
 20
34.5811
 30
0.0
 10
1.4859
 20
34.5505
 30
0.0
 10
1.5706
 20
34.5355
 30
0.0
 10
1.6614
 20
34.5355
 30
0.0
 10
1.6614
 20
34.5355
 30
0.0
 10
1.8618
 20
34.5355
 30
0.0
 10
2.0269
 20
34.606
 30
0.0
 10
2.1576
 20
34.7476
 30
0.0
 10
2.1576
 20
34.7476
 30
0.0
 10
2.2879
 20
34.8892
 30
0.0
 10
2.3533
 20
35.0877
 30
0.0
 10
2.3533
 20
35.3431
 30
0.0
 10
2.3533
 20
35.3431
 30
0.0
 10
2.3533
 20
35.534
 30
0.0
 10
2.3143
 20
35.7029
 30
0.0
 10
2.2362
 20
35.8487
 30
0.0
  0
SPLINE
  5
1A3
330
1F
100
AcDbEntity
  8
AXIS
 62
   250
100
AcDbSpline
210
0.0
220
0.0
230
1.0
 70
    11
 71
     3
 72
    92
 73
    88
 74
     0
 42
0.0000000001
 43
0.0000000001
 40
0.0
 40
0.0
 40
0.0
 40
0.0
 40
0.0434782608695652
 40
0.0434782608695652
 40
0.0434782608695652
 40
0.0434782608695652
 40
0.0869565217391304
 40
0.0869565217391304
 40
0.0869565217391304
 40
0.0869565217391304
 40
0.1304347826086956
 40
0.1304347826086956
 40
0.1304347826086956
 40
0.1304347826086956
 40
0.1739130434782609
 40
0.1739130434782609
 40
0.1739130434782609
 40
0.1739130434782609
 40
0.2173913043478261
 40
0.2173913043478261
 40
0.2173913043478261
 40
0.2173913043478261
 40
0.2608695652173913
 40
0.2608695652173913
 40
0.2608695652173913
 40
0.2608695652173913
 40
0.3043478260869565
 40
0.3043478260869565
 40
0.3043478260869565
 40
0.3043478260869565
 40
0.3478260869565217
 40
0.3478260869565217
 40
0.3478260869565217
 40
0.3478260869565217
 40
0.391304347826087
 40
0.391304347826087
 40
0.391304347826087
 40
0.391304347826087
 40
0.4347826086956522
 40
0.4347826086956522
 40
0.4347826086956522
 40
0.4347826086956522
 40
0.4782608695652174
 40
0.4782608695652174
 40
0.4782608695652174
 40
0.4782608695652174
 40
0.5217391304347826
 40
0.5217391304347826
 40
0.5217391304347826
 40
0.5217391304347826
 40
0.5652173913043478
 40
0.5652173913043478
 40
0.5652173913043478
 40
0.5652173913043478
 40
0.6086956521739131
 40
0.6086956521739131
 40
0.6086956521739131
 40
0.6086956521739131
 40
0.6521739130434783
 40
0.6521739130434783
 40
0.6521739130434783
 40
0.6521739130434783
 40
0.6956521739130435
 40
0.6956521739130435
 40
0.6956521739130435
 40
0.6956521739130435
 40
0.7391304347826086
 40
0.7391304347826086
 40
0.7391304347826086
 40
0.7391304347826086
 40
0.782608695652174
 40
0.782608695652174
 40
0.782608695652174
 40
0.782608695652174
 40
0.8260869565217391
 40
0.8260869565217391
 40
0.8260869565217391
 40
0.8260869565217391
 40
0.8695652173913043
 40
0.8695652173913043
 40
0.8695652173913043
 40
0.8695652173913043
 40
0.9130434782608695
 40
0.9130434782608695
 40
0.9130434782608695
 40
0.9130434782608695
 40
1.0
 40
1.0
 40
1.0
 40
1.0
 10
2.9154
 20
34.8083
 30
0.0
 10
2.9154
 20
34.8083
 30
0.0
 10
3.1539
 20
34.8304
 30
0.0
 10
3.1539
 20
34.8304
 30
0.0
 10
3.1539
 20
34.8304
 30
0.0
 10
3.1741
 20
34.7184
 30
0.0
 10
3.2127
 20
34.6371
 30
0.0
 10
3.2696
 20
34.5863
 30
0.0
 10
3.2696
 20
34.5863
 30
0.0
 10
3.3265
 20
34.5359
 30
0.0
 10
3.3994
 20
34.5105
 30
0.0
 10
3.4888
 20
34.5105
 30
0.0
 10
3.4888
 20
34.5105
 30
0.0
 10
3.565
 20
34.5105
 30
0.0
 10
3.6317
 20
34.5279
 30
0.0
 10
3.6891
 20
34.5632
 30
0.0
 10
3.6891
 20
34.5632
 30
0.0
 10
3.7465
 20
34.598
 30
0.0
 10
3.7936
 20
34.6446
 30
0.0
 10
3.8302
 20
34.7029
 30
0.0
 10
3.8302
 20
34.7029
 30
0.0
 10
3.8674
 20
34.7612
 30
0.0
 10
3.898
 20
34.8403
 30
0.0
 10
3.9229
 20
34.939
 30
0.0
 10
3.9229
 20
34.939
 30
0.0
 10
3.9474
 20
35.0383
 30
0.0
 10
3.9601
 20
35.1394
 30
0.0
 10
3.9601
 20
35.2424
 30
0.0
 10
3.9601
 20
35.2424
 30
0.0
 10
3.9601
 20
35.2532
 30
0.0
 10
3.9596
 20
35.2702
 30
0.0
 10
3.9587
 20
35.2918
 30
0.0
 10
3.9587
 20
35.2918
 30
0.0
 10
3.9088
 20
35.2133
 30
0.0
 10
3.8411
 20
35.1488
 30
0.0
 10
3.7555
 20
35.0999
 30
0.0
 10
3.7555
 20
35.0999
 30
0.0
 10
3.6694
 20
35.0505
 30
0.0
 10
3.5762
 20
35.0261
 30
0.0
 10
3.4765
 20
35.0261
 30
0.0
 10
3.4765
 20
35.0261
 30
0.0
 10
3.3091
 20
35.0261
 30
0.0
 10
3.1675
 20
35.0867
 30
0.0
 10
3.0518
 20
35.2081
 30
0.0
 10
3.0518
 20
35.2081
 30
0.0
 10
2.9361
 20
35.3294
 30
0.0
 10
2.8782
 20
35.4889
 30
0.0
 10
2.8782
 20
35.6874
 30
0.0
 10
2.8782
 20
35.6874
 30
0.0
 10
2.8782
 20
35.8925
 30
0.0
 10
2.9384
 20
36.0571
 30
0.0
 10
3.0593
 20
36.1822
 30
0.0
 10
3.0593
 20
36.1822
 30
0.0
 10
3.1802
 20
36.3073
 30
0.0
 10
3.3317
 20
36.3699
 30
0.0
 10
3.5137
 20
36.3699
 30
0.0
 10
3.5137
 20
36.3699
 30
0.0
 10
3.6449
 20
36.3699
 30
0.0
 10
3.7649
 20
36.3341
 30
0.0
 10
3.874
 20
36.2636
 30
0.0
 10
3.874
 20
36.2636
 30
0.0
 10
3.9826
 20
36.193
 30
0.0
 10
4.0654
 20
36.0919
 30
0.0
 10
4.1219
 20
35.9611
 30
0.0
 10
4.1219
 20
35.9611
 30
0.0
 10
4.1783
 20
35.8304
 30
0.0
 10
4.2065
 20
35.6408
 30
0.0
 10
4.2065
 20
35.3925
 30
0.0
 10
4.2065
 20
35.3925
 30
0.0
 10
4.2065
 20
35.1347
 30
0.0
 10
4.1788
 20
34.9292
 30
0.0
 10
4.1228
 20
34.7758
 30
0.0
 10
4.1228
 20
34.7758
 30
0.0
 10
4.0664
 20
34.6229
 30
0.0
 10
3.9831
 20
34.5068
 30
0.0
 10
3.8726
 20
34.4268
 30
0.0
 10
3.8726
 20
34.4268
 30
0.0
 10
3.7616
 20
34.3468
 30
0.0
 10
3.6322
 20
34.3069
 30
0.0
 10
3.4831
 20
34.3069
 30
0.0
 10
3.4831
 20
34.3069
 30
0.0
 10
3.3251
 20
34.3069
 30
0.0
 10
3.1962
 20
34.3506
 30
0.0
 10
3.096
 20
34.4386
 30
0.0
 10
3.096
 20
34.4386
 30
0.0
 10
2.9958
 20
34.5261
 30
0.0
 10
2.9356
 20
34.6493
 30
0.0
 10
2.9154
 20
34.8083
 30
0.0
  0
SPLINE
  5
1A4
330
1F
100
AcDbEntity
  8
AXIS
 62
   250
100
AcDbSpline
210
0.0
220
0.0
230
1.0
 70
    11
 71
     3
 72
    36
 73
    32
 74
     0
 42
0.0000000001
 43
0.0000000001
 40
0.0
 40
0.0
 40
0.0
 40
0.0
 40
0.1111111111111111
 40
0.1111111111111111
 40
0.1111111111111111
 40
0.1111111111111111
 40
0.2222222222222222
 40
0.2222222222222222
 40
0.2222222222222222
 40
0.2222222222222222
 40
0.3333333333333333
 40
0.3333333333333333
 40
0.3333333333333333
 40
0.3333333333333333
 40
0.4444444444444444
 40
0.4444444444444444
 40
0.4444444444444444
 40
0.4444444444444444
 40
0.5555555555555556
 40
0.5555555555555556
 40
0.5555555555555556
 40
0.5555555555555556
 40
0.6666666666666666
 40
0.6666666666666666
 40
0.6666666666666666
 40
0.6666666666666666
 40
0.7777777777777778
 40
0.7777777777777778
 40
0.7777777777777778
 40
0.7777777777777778
 40
1.0
 40
1.0
 40
1.0
 40
1.0
 10
3.9309
 20
35.7001
 30
0.0
 10
3.9309
 20
35.8421
 30
0.0
 10
3.8933
 20
35.9555
 30
0.0
 10
3.8175
 20
36.0388
 30
0.0
 10
3.8175
 20
36.0388
 30
0.0
 10
3.7413
 20
36.1225
 30
0.0
 10
3.6506
 20
36.1643
 30
0.0
 10
3.5438
 20
36.1643
 30
0.0
 10
3.5438
 20
36.1643
 30
0.0
 10
3.4337
 20
36.1643
 30
0.0
 10
3.3378
 20
36.1192
 30
0.0
 10
3.2559
 20
36.0293
 30
0.0
 10
3.2559
 20
36.0293
 30
0.0
 10
3.1741
 20
35.939
 30
0.0
 10
3.1332
 20
35.8224
 30
0.0
 10
3.1332
 20
35.6794
 30
0.0
 10
3.1332
 20
35.6794
 30
0.0
 10
3.1332
 20
35.5505
 30
0.0
 10
3.1722
 20
35.4461
 30
0.0
 10
3.2498
 20
35.3657
 30
0.0
 10
3.2498
 20
35.3657
 30
0.0
 10
3.3274
 20
35.2852
 30
0.0
 10
3.4229
 20
35.2452
 30
0.0
 10
3.5367
 20
35.2452
 30
0.0
 10
3.5367
 20
35.2452
 30
0.0
 10
3.652
 20
35.2452
 30
0.0
 10
3.746
 20
35.2852
 30
0.0
 10
3.8199
 20
35.3657
 30
0.0
 10
3.8199
 20
35.3657
 30
0.0
 10
3.8942
 20
35.4461
 30
0.0
 10
3.9309
 20
35.5576
 30
0.0
 10
3.9309
 20
35.7001
 30
0.0
  0
SPLINE
  5
1A5
330
1F
100
AcDbEntity
  8
AXIS
 62
   250
100
AcDbSpline
210
0.0
220
0.0
230
1.0
 70
    11
 71
     3
 72
   124
 73
   120
 74
     0
 42
0.0000000001
 43
0.0000000001
 40
0.0
 40
0.0
 40
0.0
 40
0.0
 40
0.032258064516129
 40
0.032258064516129
 40
0.032258064516129
 40
0.032258064516129
 40
0.0645161290322581
 40
0.0645161290322581
 40
0.0645161290322581
 40
0.0645161290322581
 40
0.0967741935483871
 40
0.0967741935483871
 40
0.0967741935483871
 40
0.0967741935483871
 40
0.1290322580645161
 40
0.1290322580645161
 40
0.1290322580645161
 40
0.1290322580645161
 40
0.1612903225806452
 40
0.1612903225806452
 40
0.1612903225806452
 40
0.1612903225806452
 40
0.1935483870967742
 40
0.1935483870967742
 40
0.1935483870967742
 40
0.1935483870967742
 40
0.2258064516129032
 40
0.2258064516129032
 40
0.2258064516129032
 40
0.2258064516129032
 40
0.2580645161290323
 40
0.2580645161290323
 40
0.2580645161290323
 40
0.2580645161290323
 40
0.2903225806451613
 40
0.2903225806451613
 40
0.2903225806451613
 40
0.2903225806451613
 40
0.3225806451612903
 40
0.3225806451612903
 40
0.3225806451612903
 40
0.3225806451612903
 40
0.3548387096774194
 40
0.3548387096774194
 40
0.3548387096774194
 40
0.3548387096774194
 40
0.3870967741935484
 40
0.3870967741935484
 40
0.3870967741935484
 40
0.3870967741935484
 40
0.4193548387096774
 40
0.4193548387096774
 40
0.4193548387096774
 40
0.4193548387096774
 40
0.4516129032258064
 40
0.4516129032258064
 40
0.4516129032258064
 40
0.4516129032258064
 40
0.4838709677419355
 40
0.4838709677419355
 40
0.4838709677419355
 40
0.4838709677419355
 40
0.5161290322580645
 40
0.5161290322580645
 40
0.5161290322580645
 40
0.5161290322580645
 40
0.5483870967741935
 40
0.5483870967741935
 40
0.5483870967741935
 40
0.5483870967741935
 40
0.5806451612903226
 40
0.5806451612903226
 40
0.5806451612903226
 40
0.5806451612903226
 40
0.6129032258064516
 40
0.6129032258064516
 40
0.6129032258064516
 40
0.6129032258064516
 40
0.6451612903225806
 40
0.6451612903225806
 40
0.6451612903225806
 40
0.6451612903225806
 40
0.6774193548387096
 40
0.6774193548387096
 40
0.6774193548387096
 40
0.6774193548387096
 40
0.7096774193548387
 40
0.7096774193548387
 40
0.7096774193548387
 40
0.7096774193548387
 40
0.7419354838709677
 40
0.7419354838709677
 40
0.7419354838709677
 40
0.7419354838709677
 40
0.7741935483870968
 40
0.7741935483870968
 40
0.7741935483870968
 40
0.7741935483870968
 40
0.8064516129032258
 40
0.8064516129032258
 40
0.8064516129032258
 40
0.8064516129032258
 40
0.8387096774193549
 40
0.8387096774193549
 40
0.8387096774193549
 40
0.8387096774193549
 40
0.8709677419354839
 40
0.8709677419354839
 40
0.8709677419354839
 40
0.8709677419354839
 40
0.9032258064516129
 40
0.9032258064516129
 40
0.9032258064516129
 40
0.9032258064516129
 40
0.9354838709677419
 40
0.9354838709677419
 40
0.9354838709677419
 40
0.9354838709677419
 40
1.0
 40
1.0
 40
1.0
 40
1.0
 10
4.4492
 20
34.8746
 30
0.0
 10
4.4492
 20
34.8746
 30
0.0
 10
4.6971
 20
34.9075
 30
0.0
 10
4.6971
 20
34.9075
 30
0.0
 10
4.6971
 20
34.9075
 30
0.0
 10
4.7258
 20
34.7669
 30
0.0
 10
4.7743
 20
34.6658
 30
0.0
 10
4.8425
 20
34.6037
 30
0.0
 10
4.8425
 20
34.6037
 30
0.0
 10
4.9111
 20
34.5416
 30
0.0
 10
4.9944
 20
34.5105
 30
0.0
 10
5.0927
 20
34.5105
 30
0.0
 10
5.0927
 20
34.5105
 30
0.0
 10
5.2093
 20
34.5105
 30
0.0
 10
5.3081
 20
34.551
 30
0.0
 10
5.3886
 20
34.6319
 30
0.0
 10
5.3886
 20
34.6319
 30
0.0
 10
5.4685
 20
34.7128
 30
0.0
 10
5.509
 20
34.813
 30
0.0
 10
5.509
 20
34.9325
 30
0.0
 10
5.509
 20
34.9325
 30
0.0
 10
5.509
 20
35.0463
 30
0.0
 10
5.4718
 20
35.1404
 30
0.0
 10
5.3975
 20
35.2142
 30
0.0
 10
5.3975
 20
35.2142
 30
0.0
 10
5.3227
 20
35.288
 30
0.0
 10
5.2282
 20
35.3252
 30
0.0
 10
5.1134
 20
35.3252
 30
0.0
 10
5.1134
 20
35.3252
 30
0.0
 10
5.0664
 20
35.3252
 30
0.0
 10
5.008
 20
35.3158
 30
0.0
 10
4.9384
 20
35.2975
 30
0.0
 10
4.9384
 20
35.2975
 30
0.0
 10
4.9384
 20
35.2975
 30
0.0
 10
4.9662
 20
35.5152
 30
0.0
 10
4.9662
 20
35.5152
 30
0.0
 10
4.9662
 20
35.5152
 30
0.0
 10
4.9826
 20
35.5134
 30
0.0
 10
4.9958
 20
35.5124
 30
0.0
 10
5.0061
 20
35.5124
 30
0.0
 10
5.0061
 20
35.5124
 30
0.0
 10
5.1115
 20
35.5124
 30
0.0
 10
5.2065
 20
35.5402
 30
0.0
 10
5.2912
 20
35.5952
 30
0.0
 10
5.2912
 20
35.5952
 30
0.0
 10
5.3759
 20
35.6502
 30
0.0
 10
5.4182
 20
35.7354
 30
0.0
 10
5.4182
 20
35.8501
 30
0.0
 10
5.4182
 20
35.8501
 30
0.0
 10
5.4182
 20
35.9409
 30
0.0
 10
5.3871
 20
36.0166
 30
0.0
 10
5.3255
 20
36.0759
 30
0.0
 10
5.3255
 20
36.0759
 30
0.0
 10
5.2639
 20
36.1356
 30
0.0
 10
5.1844
 20
36.1658
 30
0.0
 10
5.087
 20
36.1658
 30
0.0
 10
5.087
 20
36.1658
 30
0.0
 10
4.9906
 20
36.1658
 30
0.0
 10
4.9102
 20
36.1352
 30
0.0
 10
4.8462
 20
36.075
 30
0.0
 10
4.8462
 20
36.075
 30
0.0
 10
4.7818
 20
36.0143
 30
0.0
 10
4.7404
 20
35.923
 30
0.0
 10
4.722
 20
35.8017
 30
0.0
 10
4.722
 20
35.8017
 30
0.0
 10
4.722
 20
35.8017
 30
0.0
 10
4.4742
 20
35.8459
 30
0.0
 10
4.4742
 20
35.8459
 30
0.0
 10
4.4742
 20
35.8459
 30
0.0
 10
4.5043
 20
36.0124
 30
0.0
 10
4.5734
 20
36.1413
 30
0.0
 10
4.6807
 20
36.2325
 30
0.0
 10
4.6807
 20
36.2325
 30
0.0
 10
4.7884
 20
36.3238
 30
0.0
 10
4.922
 20
36.3699
 30
0.0
 10
5.0819
 20
36.3699
 30
0.0
 10
5.0819
 20
36.3699
 30
0.0
 10
5.1919
 20
36.3699
 30
0.0
 10
5.2935
 20
36.3459
 30
0.0
 10
5.3862
 20
36.2989
 30
0.0
 10
5.3862
 20
36.2989
 30
0.0
 10
5.4789
 20
36.2514
 30
0.0
 10
5.5499
 20
36.1869
 30
0.0
 10
5.5993
 20
36.1051
 30
0.0
 10
5.5993
 20
36.1051
 30
0.0
 10
5.6482
 20
36.0232
 30
0.0
 10
5.6731
 20
35.9367
 30
0.0
 10
5.6731
 20
35.8445
 30
0.0
 10
5.6731
 20
35.8445
 30
0.0
 10
5.6731
 20
35.7575
 30
0.0
 10
5.6496
 20
35.678
 30
0.0
 10
5.6026
 20
35.606
 30
0.0
 10
5.6026
 20
35.606
 30
0.0
 10
5.5555
 20
35.5345
 30
0.0
 10
5.4864
 20
35.4776
 30
0.0
 10
5.3947
 20
35.4353
 30
0.0
 10
5.3947
 20
35.4353
 30
0.0
 10
5.5141
 20
35.408
 30
0.0
 10
5.6068
 20
35.3506
 30
0.0
 10
5.6731
 20
35.2636
 30
0.0
 10
5.6731
 20
35.2636
 30
0.0
 10
5.739
 20
35.177
 30
0.0
 10
5.7719
 20
35.0684
 30
0.0
 10
5.7719
 20
34.9381
 30
0.0
 10
5.7719
 20
34.9381
 30
0.0
 10
5.7719
 20
34.7617
 30
0.0
 10
5.7079
 20
34.6121
 30
0.0
 10
5.5791
 20
34.4894
 30
0.0
 10
5.5791
 20
34.4894
 30
0.0
 10
5.4506
 20
34.3666
 30
0.0
 10
5.2879
 20
34.3055
 30
0.0
 10
5.0913
 20
34.3055
 30
0.0
 10
5.0913
 20
34.3055
 30
0.0
 10
4.914
 20
34.3055
 30
0.0
 10
4.7667
 20
34.3581
 30
0.0
 10
4.6496
 20
34.464
 30
0.0
 10
4.6496
 20
34.464
 30
0.0
 10
4.5325
 20
34.5693
 30
0.0
 10
4.4657
 20
34.7062
 30
0.0
 10
4.4492
 20
34.8746
 30
0.0
  0
SPLINE
  5
1A6
330
1F
100
AcDbEntity
  8
AXIS
 62
   250
100
AcDbSpline
210
0.0
220
0.0
230
1.0
 70
    24
 71
     3
 72
     8
 73
     4
 74
     0
 42
0.0000000001
 43
0.0000000001
 40
0.0
 40
0.0
 40
0.0
 40
0.0
 40
1.0
 40
1.0
 40
1.0
 40
1.0
 10
12.2636
 20
33.9521
 30
0.0
 10
12.2636
 20
33.9521
 30
0.0
 10
-5.6635
 20
33.9521
 30
0.0
 10
-5.6635
 20
33.9521
 30
0.0
  0
SPLINE
  5
1A7
330
1F
100
AcDbEntity
  8
AXIS
 62
   250
100
AcDbSpline
210
0.0
220
0.0
230
1.0
 70
    11
 71
     3
 72
    20
 73
    16
 74
     0
 42
0.0000000001
 43
0.0000000001
 40
0.0
 40
0.0
 40
0.0
 40
0.0
 40
0.2
 40
0.2
 40
0.2
 40
0.2
 40
0.4
 40
0.4
 40
0.4
 40
0.4
 40
0.6
 40
0.6
 40
0.6
 40
0.6
 40
1.0
 40
1.0
 40
1.0
 40
1.0
 10
11.1317
 20
34.2995
 30
0.0
 10
11.1317
 20
34.2995
 30
0.0
 10
13.4791
 20
33.9682
 30
0.0
 10
13.4791
 20
33.9682
 30
0.0
 10
13.4791
 20
33.9682
 30
0.0
 10
13.4791
 20
33.9682
 30
0.0
 10
13.4791
 20
33.8946
 30
0.0
 10
13.4791
 20
33.8946
 30
0.0
 10
13.4791
 20
33.8946
 30
0.0
 10
13.4791
 20
33.8946
 30
0.0
 10
11.1317
 20
33.5413
 30
0.0
 10
11.1317
 20
33.5413
 30
0.0
 10
11.1317
 20
33.5413
 30
0.0
 10
11.1317
 20
33.5413
 30
0.0
 10
11.1317
 20
34.2995
 30
0.0
 10
11.1317
 20
34.2995
 30
0.0
  0
SPLINE
  5
1A8
330
1F
100
AcDbEntity
  8
AXIS
 62
   250
100
AcDbSpline
210
0.0
220
0.0
230
1.0
 70
    11
 71
     3
 72
    20
 73
    16
 74
     0
 42
0.0000000001
 43
0.0000000001
 40
0.0
 40
0.0
 40
0.0
 40
0.0
 40
0.2
 40
0.2
 40
0.2
 40
0.2
 40
0.4
 40
0.4
 40
0.4
 40
0.4
 40
0.6
 40
0.6
 40
0.6
 40
0.6
 40
1.0
 40
1.0
 40
1.0
 40
1.0
 10
-3.7944
 20
33.5681
 30
0.0
 10
-3.7944
 20
33.5681
 30
0.0
 10
-6.1418
 20
33.8993
 30
0.0
 10
-6.1418
 20
33.8993
 30
0.0
 10
-6.1418
 20
33.8993
 30
0.0
 10
-6.1418
 20
33.8993
 30
0.0
 10
-6.1418
 20
33.9729
 30
0.0
 10
-6.1418
 20
33.9729
 30
0.0
 10
-6.1418
 20
33.9729
 30
0.0
 10
-6.1418
 20
33.9729
 30
0.0
 10
-3.7944
 20
34.3262
 30
0.0
 10
-3.7944
 20
34.3262
 30
0.0
 10
-3.7944
 20
34.3262
 30
0.0
 10
-3.7944
 20
34.3262
 30
0.0
 10
-3.7944
 20
33.5681
 30
0.0
 10
-3.7944
 20
33.5681
 30
0.0
  0
SPLINE
  5
1A9
330
1F
100
AcDbEntity
  8
AXIS
 62
   250
100
AcDbSpline
210
0.0
220
0.0
230
1.0
 70
    24
 71
     3
 72
     8
 73
     4
 74
     0
 42
0.0000000001
 43
0.0000000001
 40
0.0
 40
0.0
 40
0.0
 40
0.0
 40
1.0
 40
1.0
 40
1.0
 40
1.0
 10
-17.3631
 20
27.8973
 30
0.0
 10
-17.3631
 20
27.8973
 30
0.0
 10
-17.3631
 20
6.3036
 30
0.0
 10
-17.3631
 20
6.3036
 30
0.0
  0
SPLINE
  5
1AA
330
1F
100
AcDbEntity
  8
AXIS
 62
   250
100
AcDbSpline
210
0.0
220
0.0
230
1.0
 70
    11
 71
     3
 72
    40
 73
    36
 74
     0
 42
0.0000000001
 43
0.0000000001
 40
0.0
 40
0.0
 40
0.0
 40
0.0
 40
0.1
 40
0.1
 40
0.1
 40
0.1
 40
0.2
 40
0.2
 40
0.2
 40
0.2
 40
0.3
 40
0.3
 40
0.3
 40
0.3
 40
0.4
 40
0.4
 40
0.4
 40
0.4
 40
0.5
 40
0.5
 40
0.5
 40
0.5
 40
0.6
 40
0.6
 40
0.6
 40
0.6
 40
0.7
 40
0.7
 40
0.7
 40
0.7
 40
0.8
 40
0.8
 40
0.8
 40
0.8
 40
1.0
 40
1.0
 40
1.0
 40
1.0
 10
-17.6939
 20
15.9827
 30
0.0
 10
-17.6939
 20
15.9827
 30
0.0
 10
-17.6939
 20
15.7348
 30
0.0
 10
-17.6939
 20
15.7348
 30
0.0
 10
-17.6939
 20
15.7348
 30
0.0
 10
-17.6939
 20
15.7348
 30
0.0
 10
-19.2743
 20
15.7348
 30
0.0
 10
-19.2743
 20
15.7348
 30
0.0
 10
-19.2743
 20
15.7348
 30
0.0
 10
-19.2174
 20
15.675
 30
0.0
 10
-19.1605
 20
15.597
 30
0.0
 10
-19.1036
 20
15.5001
 30
0.0
 10
-19.1036
 20
15.5001
 30
0.0
 10
-19.0467
 20
15.4027
 30
0.0
 10
-19.0039
 20
15.3157
 30
0.0
 10
-18.9756
 20
15.2385
 30
0.0
 10
-18.9756
 20
15.2385
 30
0.0
 10
-18.9756
 20
15.2385
 30
0.0
 10
-19.2151
 20
15.2385
 30
0.0
 10
-19.2151
 20
15.2385
 30
0.0
 10
-19.2151
 20
15.2385
 30
0.0
 10
-19.2804
 20
15.3773
 30
0.0
 10
-19.3595
 20
15.4987
 30
0.0
 10
-19.4521
 20
15.6026
 30
0.0
 10
-19.4521
 20
15.6026
 30
0.0
 10
-19.5453
 20
15.7061
 30
0.0
 10
-19.6351
 20
15.7799
 30
0.0
 10
-19.7226
 20
15.8232
 30
0.0
 10
-19.7226
 20
15.8232
 30
0.0
 10
-19.7226
 20
15.8232
 30
0.0
 10
-19.7226
 20
15.9827
 30
0.0
 10
-19.7226
 20
15.9827
 30
0.0
 10
-19.7226
 20
15.9827
 30
0.0
 10
-19.7226
 20
15.9827
 30
0.0
 10
-17.6939
 20
15.9827
 30
0.0
 10
-17.6939
 20
15.9827
 30
0.0
  0
SPLINE
  5
1AB
330
1F
100
AcDbEntity
  8
AXIS
 62
   250
100
AcDbSpline
210
0.0
220
0.0
230
1.0
 70
    11
 71
     3
 72
    52
 73
    48
 74
     0
 42
0.0000000001
 43
0.0000000001
 40
0.0
 40
0.0
 40
0.0
 40
0.0
 40
0.0769230769230769
 40
0.0769230769230769
 40
0.0769230769230769
 40
0.0769230769230769
 40
0.1538461538461539
 40
0.1538461538461539
 40
0.1538461538461539
 40
0.1538461538461539
 40
0.2307692307692308
 40
0.2307692307692308
 40
0.2307692307692308
 40
0.2307692307692308
 40
0.3076923076923077
 40
0.3076923076923077
 40
0.3076923076923077
 40
0.3076923076923077
 40
0.3846153846153846
 40
0.3846153846153846
 40
0.3846153846153846
 40
0.3846153846153846
 40
0.4615384615384616
 40
0.4615384615384616
 40
0.4615384615384616
 40
0.4615384615384616
 40
0.5384615384615384
 40
0.5384615384615384
 40
0.5384615384615384
 40
0.5384615384615384
 40
0.6153846153846154
 40
0.6153846153846154
 40
0.6153846153846154
 40
0.6153846153846154
 40
0.6923076923076923
 40
0.6923076923076923
 40
0.6923076923076923
 40
0.6923076923076923
 40
0.7692307692307693
 40
0.7692307692307693
 40
0.7692307692307693
 40
0.7692307692307693
 40
0.8461538461538461
 40
0.8461538461538461
 40
0.8461538461538461
 40
0.8461538461538461
 40
1.0
 40
1.0
 40
1.0
 40
1.0
 10
-18.6901
 20
16.6181
 30
0.0
 10
-18.9291
 20
16.6181
 30
0.0
 10
-19.1215
 20
16.6426
 30
0.0
 10
-19.2668
 20
16.692
 30
0.0
 10
-19.2668
 20
16.692
 30
0.0
 10
-19.4126
 20
16.7409
 30
0.0
 10
-19.525
 20
16.8143
 30
0.0
 10
-19.6041
 20
16.9112
 30
0.0
 10
-19.6041
 20
16.9112
 30
0.0
 10
-19.6831
 20
17.0081
 30
0.0
 10
-19.7226
 20
17.1299
 30
0.0
 10
-19.7226
 20
17.2766
 30
0.0
 10
-19.7226
 20
17.2766
 30
0.0
 10
-19.7226
 20
17.3853
 30
0.0
 10
-19.7005
 20
17.4803
 30
0.0
 10
-19.6567
 20
17.5621
 30
0.0
 10
-19.6567
 20
17.5621
 30
0.0
 10
-19.6135
 20
17.644
 30
0.0
 10
-19.5504
 20
17.7113
 30
0.0
 10
-19.4681
 20
17.7649
 30
0.0
 10
-19.4681
 20
17.7649
 30
0.0
 10
-19.3858
 20
17.818
 30
0.0
 10
-19.2856
 20
17.8599
 30
0.0
 10
-19.1676
 20
17.89
 30
0.0
 10
-19.1676
 20
17.89
 30
0.0
 10
-19.0495
 20
17.9206
 30
0.0
 10
-18.8905
 20
17.9356
 30
0.0
 10
-18.6901
 20
17.9356
 30
0.0
 10
-18.6901
 20
17.9356
 30
0.0
 10
-18.4531
 20
17.9356
 30
0.0
 10
-18.2621
 20
17.9112
 30
0.0
 10
-18.1163
 20
17.8627
 30
0.0
 10
-18.1163
 20
17.8627
 30
0.0
 10
-17.9705
 20
17.8138
 30
0.0
 10
-17.8581
 20
17.7409
 30
0.0
 10
-17.7786
 20
17.644
 30
0.0
 10
-17.7786
 20
17.644
 30
0.0
 10
-17.6991
 20
17.5471
 30
0.0
 10
-17.6596
 20
17.4248
 30
0.0
 10
-17.6596
 20
17.2766
 30
0.0
 10
-17.6596
 20
17.2766
 30
0.0
 10
-17.6596
 20
17.0819
 30
0.0
 10
-17.7292
 20
16.929
 30
0.0
 10
-17.8689
 20
16.818
 30
0.0
 10
-17.8689
 20
16.818
 30
0.0
 10
-18.0368
 20
16.6849
 30
0.0
 10
-18.311
 20
16.6181
 30
0.0
 10
-18.6901
 20
16.6181
 30
0.0
  0
SPLINE
  5
1AC
330
1F
100
AcDbEntity
  8
AXIS
 62
   250
100
AcDbSpline
210
0.0
220
0.0
230
1.0
 70
    11
 71
     3
 72
    36
 73
    32
 74
     0
 42
0.0000000001
 43
0.0000000001
 40
0.0
 40
0.0
 40
0.0
 40
0.0
 40
0.1111111111111111
 40
0.1111111111111111
 40
0.1111111111111111
 40
0.1111111111111111
 40
0.2222222222222222
 40
0.2222222222222222
 40
0.2222222222222222
 40
0.2222222222222222
 40
0.3333333333333333
 40
0.3333333333333333
 40
0.3333333333333333
 40
0.3333333333333333
 40
0.4444444444444444
 40
0.4444444444444444
 40
0.4444444444444444
 40
0.4444444444444444
 40
0.5555555555555556
 40
0.5555555555555556
 40
0.5555555555555556
 40
0.5555555555555556
 40
0.6666666666666666
 40
0.6666666666666666
 40
0.6666666666666666
 40
0.6666666666666666
 40
0.7777777777777778
 40
0.7777777777777778
 40
0.7777777777777778
 40
0.7777777777777778
 40
1.0
 40
1.0
 40
1.0
 40
1.0
 10
-18.6901
 20
16.8731
 30
0.0
 10
-18.3585
 20
16.8731
 30
0.0
 10
-18.1379
 20
16.9121
 30
0.0
 10
-18.0279
 20
16.9897
 30
0.0
 10
-18.0279
 20
16.9897
 30
0.0
 10
-17.9183
 20
17.0673
 30
0.0
 10
-17.8632
 20
17.1628
 30
0.0
 10
-17.8632
 20
17.2766
 30
0.0
 10
-17.8632
 20
17.2766
 30
0.0
 10
-17.8632
 20
17.3909
 30
0.0
 10
-17.9187
 20
17.4864
 30
0.0
 10
-18.0288
 20
17.564
 30
0.0
 10
-18.0288
 20
17.564
 30
0.0
 10
-18.1389
 20
17.6416
 30
0.0
 10
-18.3595
 20
17.6807
 30
0.0
 10
-18.6901
 20
17.6807
 30
0.0
 10
-18.6901
 20
17.6807
 30
0.0
 10
-19.0227
 20
17.6807
 30
0.0
 10
-19.2438
 20
17.6416
 30
0.0
 10
-19.3529
 20
17.564
 30
0.0
 10
-19.3529
 20
17.564
 30
0.0
 10
-19.4625
 20
17.4864
 30
0.0
 10
-19.517
 20
17.39
 30
0.0
 10
-19.517
 20
17.2743
 30
0.0
 10
-19.517
 20
17.2743
 30
0.0
 10
-19.517
 20
17.16
 30
0.0
 10
-19.4686
 20
17.0692
 30
0.0
 10
-19.3722
 20
17.001
 30
0.0
 10
-19.3722
 20
17.001
 30
0.0
 10
-19.2494
 20
16.9159
 30
0.0
 10
-19.0217
 20
16.8731
 30
0.0
 10
-18.6901
 20
16.8731
 30
0.0
  0
SPLINE
  5
1AD
330
1F
100
AcDbEntity
  8
AXIS
 62
   250
100
AcDbSpline
210
0.0
220
0.0
230
1.0
 70
    11
 71
     3
 72
    92
 73
    88
 74
     0
 42
0.0000000001
 43
0.0000000001
 40
0.0
 40
0.0
 40
0.0
 40
0.0
 40
0.0434782608695652
 40
0.0434782608695652
 40
0.0434782608695652
 40
0.0434782608695652
 40
0.0869565217391304
 40
0.0869565217391304
 40
0.0869565217391304
 40
0.0869565217391304
 40
0.1304347826086956
 40
0.1304347826086956
 40
0.1304347826086956
 40
0.1304347826086956
 40
0.1739130434782609
 40
0.1739130434782609
 40
0.1739130434782609
 40
0.1739130434782609
 40
0.2173913043478261
 40
0.2173913043478261
 40
0.2173913043478261
 40
0.2173913043478261
 40
0.2608695652173913
 40
0.2608695652173913
 40
0.2608695652173913
 40
0.2608695652173913
 40
0.3043478260869565
 40
0.3043478260869565
 40
0.3043478260869565
 40
0.3043478260869565
 40
0.3478260869565217
 40
0.3478260869565217
 40
0.3478260869565217
 40
0.3478260869565217
 40
0.391304347826087
 40
0.391304347826087
 40
0.391304347826087
 40
0.391304347826087
 40
0.4347826086956522
 40
0.4347826086956522
 40
0.4347826086956522
 40
0.4347826086956522
 40
0.4782608695652174
 40
0.4782608695652174
 40
0.4782608695652174
 40
0.4782608695652174
 40
0.5217391304347826
 40
0.5217391304347826
 40
0.5217391304347826
 40
0.5217391304347826
 40
0.5652173913043478
 40
0.5652173913043478
 40
0.5652173913043478
 40
0.5652173913043478
 40
0.6086956521739131
 40
0.6086956521739131
 40
0.6086956521739131
 40
0.6086956521739131
 40
0.6521739130434783
 40
0.6521739130434783
 40
0.6521739130434783
 40
0.6521739130434783
 40
0.6956521739130435
 40
0.6956521739130435
 40
0.6956521739130435
 40
0.6956521739130435
 40
0.7391304347826086
 40
0.7391304347826086
 40
0.7391304347826086
 40
0.7391304347826086
 40
0.782608695652174
 40
0.782608695652174
 40
0.782608695652174
 40
0.782608695652174
 40
0.8260869565217391
 40
0.8260869565217391
 40
0.8260869565217391
 40
0.8260869565217391
 40
0.8695652173913043
 40
0.8695652173913043
 40
0.8695652173913043
 40
0.8695652173913043
 40
0.9130434782608695
 40
0.9130434782608695
 40
0.9130434782608695
 40
0.9130434782608695
 40
1.0
 40
1.0
 40
1.0
 40
1.0
 10
-18.2231
 20
18.1877
 30
0.0
 10
-18.2231
 20
18.1877
 30
0.0
 10
-18.2452
 20
18.4483
 30
0.0
 10
-18.2452
 20
18.4483
 30
0.0
 10
-18.2452
 20
18.4483
 30
0.0
 10
-18.1182
 20
18.4676
 30
0.0
 10
-18.0232
 20
18.5123
 30
0.0
 10
-17.9592
 20
18.5824
 30
0.0
 10
-17.9592
 20
18.5824
 30
0.0
 10
-17.8952
 20
18.6529
 30
0.0
 10
-17.8632
 20
18.7376
 30
0.0
 10
-17.8632
 20
18.8368
 30
0.0
 10
-17.8632
 20
18.8368
 30
0.0
 10
-17.8632
 20
18.9563
 30
0.0
 10
-17.9084
 20
19.0574
 30
0.0
 10
-17.9982
 20
19.1397
 30
0.0
 10
-17.9982
 20
19.1397
 30
0.0
 10
-18.0885
 20
19.2225
 30
0.0
 10
-18.208
 20
19.2639
 30
0.0
 10
-18.3566
 20
19.2639
 30
0.0
 10
-18.3566
 20
19.2639
 30
0.0
 10
-18.4982
 20
19.2639
 30
0.0
 10
-18.6097
 20
19.2244
 30
0.0
 10
-18.6915
 20
19.1449
 30
0.0
 10
-18.6915
 20
19.1449
 30
0.0
 10
-18.7734
 20
19.0654
 30
0.0
 10
-18.8143
 20
18.9615
 30
0.0
 10
-18.8143
 20
18.8326
 30
0.0
 10
-18.8143
 20
18.8326
 30
0.0
 10
-18.8143
 20
18.7526
 30
0.0
 10
-18.796
 20
18.6807
 30
0.0
 10
-18.7598
 20
18.6162
 30
0.0
 10
-18.7598
 20
18.6162
 30
0.0
 10
-18.7235
 20
18.5518
 30
0.0
 10
-18.6765
 20
18.5015
 30
0.0
 10
-18.6186
 20
18.4648
 30
0.0
 10
-18.6186
 20
18.4648
 30
0.0
 10
-18.6186
 20
18.4648
 30
0.0
 10
-18.6487
 20
18.2319
 30
0.0
 10
-18.6487
 20
18.2319
 30
0.0
 10
-18.6487
 20
18.2319
 30
0.0
 10
-18.6487
 20
18.2319
 30
0.0
 10
-19.6864
 20
18.4276
 30
0.0
 10
-19.6864
 20
18.4276
 30
0.0
 10
-19.6864
 20
18.4276
 30
0.0
 10
-19.6864
 20
18.4276
 30
0.0
 10
-19.6864
 20
19.4323
 30
0.0
 10
-19.6864
 20
19.4323
 30
0.0
 10
-19.6864
 20
19.4323
 30
0.0
 10
-19.6864
 20
19.4323
 30
0.0
 10
-19.4493
 20
19.4323
 30
0.0
 10
-19.4493
 20
19.4323
 30
0.0
 10
-19.4493
 20
19.4323
 30
0.0
 10
-19.4493
 20
19.4323
 30
0.0
 10
-19.4493
 20
18.6261
 30
0.0
 10
-19.4493
 20
18.6261
 30
0.0
 10
-19.4493
 20
18.6261
 30
0.0
 10
-19.4493
 20
18.6261
 30
0.0
 10
-18.9065
 20
18.517
 30
0.0
 10
-18.9065
 20
18.517
 30
0.0
 10
-18.9065
 20
18.517
 30
0.0
 10
-18.9912
 20
18.6383
 30
0.0
 10
-19.0335
 20
18.7658
 30
0.0
 10
-19.0335
 20
18.8989
 30
0.0
 10
-19.0335
 20
18.8989
 30
0.0
 10
-19.0335
 20
19.0753
 30
0.0
 10
-18.9724
 20
19.2239
 30
0.0
 10
-18.8501
 20
19.3453
 30
0.0
 10
-18.8501
 20
19.3453
 30
0.0
 10
-18.7278
 20
19.4666
 30
0.0
 10
-18.5707
 20
19.5273
 30
0.0
 10
-18.3788
 20
19.5273
 30
0.0
 10
-18.3788
 20
19.5273
 30
0.0
 10
-18.1958
 20
19.5273
 30
0.0
 10
-18.0377
 20
19.4737
 30
0.0
 10
-17.9046
 20
19.3674
 30
0.0
 10
-17.9046
 20
19.3674
 30
0.0
 10
-17.7414
 20
19.2376
 30
0.0
 10
-17.6596
 20
19.0607
 30
0.0
 10
-17.6596
 20
18.8368
 30
0.0
 10
-17.6596
 20
18.8368
 30
0.0
 10
-17.6596
 20
18.6529
 30
0.0
 10
-17.7108
 20
18.5029
 30
0.0
 10
-17.8138
 20
18.3867
 30
0.0
 10
-17.8138
 20
18.3867
 30
0.0
 10
-17.9169
 20
18.2705
 30
0.0
 10
-18.0533
 20
18.2042
 30
0.0
 10
-18.2231
 20
18.1877
 30
0.0
  0
SPLINE
  5
1AE
330
1F
100
AcDbEntity
  8
AXIS
 62
   250
100
AcDbSpline
210
0.0
220
0.0
230
1.0
 70
    11
 71
     3
 72
    20
 73
    16
 74
     0
 42
0.0000000001
 43
0.0000000001
 40
0.0
 40
0.0
 40
0.0
 40
0.0
 40
0.2
 40
0.2
 40
0.2
 40
0.2
 40
0.4
 40
0.4
 40
0.4
 40
0.4
 40
0.6
 40
0.6
 40
0.6
 40
0.6
 40
1.0
 40
1.0
 40
1.0
 40
1.0
 10
-17.7347
 20
26.1431
 30
0.0
 10
-17.7347
 20
26.1431
 30
0.0
 10
-17.4034
 20
28.4905
 30
0.0
 10
-17.4034
 20
28.4905
 30
0.0
 10
-17.4034
 20
28.4905
 30
0.0
 10
-17.4034
 20
28.4905
 30
0.0
 10
-17.3298
 20
28.4905
 30
0.0
 10
-17.3298
 20
28.4905
 30
0.0
 10
-17.3298
 20
28.4905
 30
0.0
 10
-17.3298
 20
28.4905
 30
0.0
 10
-16.9765
 20
26.1431
 30
0.0
 10
-16.9765
 20
26.1431
 30
0.0
 10
-16.9765
 20
26.1431
 30
0.0
 10
-16.9765
 20
26.1431
 30
0.0
 10
-17.7347
 20
26.1431
 30
0.0
 10
-17.7347
 20
26.1431
 30
0.0
  0
SPLINE
  5
1AF
330
1F
100
AcDbEntity
  8
AXIS
 62
   250
100
AcDbSpline
210
0.0
220
0.0
230
1.0
 70
    11
 71
     3
 72
    20
 73
    16
 74
     0
 42
0.0000000001
 43
0.0000000001
 40
0.0
 40
0.0
 40
0.0
 40
0.0
 40
0.2
 40
0.2
 40
0.2
 40
0.2
 40
0.4
 40
0.4
 40
0.4
 40
0.4
 40
0.6
 40
0.6
 40
0.6
 40
0.6
 40
1.0
 40
1.0
 40
1.0
 40
1.0
 10
-16.9852
 20
7.6949
 30
0.0
 10
-16.9852
 20
7.6949
 30
0.0
 10
-17.3165
 20
5.3475
 30
0.0
 10
-17.3165
 20
5.3475
 30
0.0
 10
-17.3165
 20
5.3475
 30
0.0
 10
-17.3165
 20
5.3475
 30
0.0
 10
-17.3901
 20
5.3475
 30
0.0
 10
-17.3901
 20
5.3475
 30
0.0
 10
-17.3901
 20
5.3475
 30
0.0
 10
-17.3901
 20
5.3475
 30
0.0
 10
-17.7434
 20
7.6949
 30
0.0
 10
-17.7434
 20
7.6949
 30
0.0
 10
-17.7434
 20
7.6949
 30
0.0
 10
-17.7434
 20
7.6949
 30
0.0
 10
-16.9852
 20
7.6949
 30
0.0
 10
-16.9852
 20
7.6949
 30
0.0
  0
SPLINE
  5
1B0
330
1F
100
AcDbEntity
  8
AXIS
 62
   250
100
AcDbSpline
210
0.0
220
0.0
230
1.0
 70
    24
 71
     3
 72
     8
 73
     4
 74
     0
 42
0.0000000001
 43
0.0000000001
 40
0.0
 40
0.0
 40
0.0
 40
0.0
 40
1.0
 40
1.0
 40
1.0
 40
1.0
 10
17.5343
 20
10.3524
 30
0.0
 10
17.5343
 20
10.3524
 30
0.0
 10
-5.2753
 20
10.3524
 30
0.0
 10
-5.2753
 20
10.3524
 30
0.0
  0
SPLINE
  5
1B1
330
1F
100
AcDbEntity
  8
AXIS
 62
   250
100
AcDbSpline
210
0.0
220
0.0
230
1.0
 70
    11
 71
     3
 72
    84
 73
    80
 74
     0
 42
0.0000000001
 43
0.0000000001
 40
0.0
 40
0.0
 40
0.0
 40
0.0
 40
0.0476190476190476
 40
0.0476190476190476
 40
0.0476190476190476
 40
0.0476190476190476
 40
0.0952380952380952
 40
0.0952380952380952
 40
0.0952380952380952
 40
0.0952380952380952
 40
0.1428571428571428
 40
0.1428571428571428
 40
0.1428571428571428
 40
0.1428571428571428
 40
0.1904761904761905
 40
0.1904761904761905
 40
0.1904761904761905
 40
0.1904761904761905
 40
0.2380952380952381
 40
0.2380952380952381
 40
0.2380952380952381
 40
0.2380952380952381
 40
0.2857142857142857
 40
0.2857142857142857
 40
0.2857142857142857
 40
0.2857142857142857
 40
0.3333333333333333
 40
0.3333333333333333
 40
0.3333333333333333
 40
0.3333333333333333
 40
0.3809523809523809
 40
0.3809523809523809
 40
0.3809523809523809
 40
0.3809523809523809
 40
0.4285714285714285
 40
0.4285714285714285
 40
0.4285714285714285
 40
0.4285714285714285
 40
0.4761904761904762
 40
0.4761904761904762
 40
0.4761904761904762
 40
0.4761904761904762
 40
0.5238095238095238
 40
0.5238095238095238
 40
0.5238095238095238
 40
0.5238095238095238
 40
0.5714285714285714
 40
0.5714285714285714
 40
0.5714285714285714
 40
0.5714285714285714
 40
0.6190476190476191
 40
0.6190476190476191
 40
0.6190476190476191
 40
0.6190476190476191
 40
0.6666666666666666
 40
0.6666666666666666
 40
0.6666666666666666
 40
0.6666666666666666
 40
0.7142857142857143
 40
0.7142857142857143
 40
0.7142857142857143
 40
0.7142857142857143
 40
0.7619047619047619
 40
0.7619047619047619
 40
0.7619047619047619
 40
0.7619047619047619
 40
0.8095238095238095
 40
0.8095238095238095
 40
0.8095238095238095
 40
0.8095238095238095
 40
0.8571428571428571
 40
0.8571428571428571
 40
0.8571428571428571
 40
0.8571428571428571
 40
0.9047619047619048
 40
0.9047619047619048
 40
0.9047619047619048
 40
0.9047619047619048
 40
1.0
 40
1.0
 40
1.0
 40
1.0
 10
13.8349
 20
12.7857
 30
0.0
 10
13.8349
 20
12.7857
 30
0.0
 10
14.0663
 20
13.0448
 30
0.0
 10
14.0663
 20
13.0448
 30
0.0
 10
14.0663
 20
13.0448
 30
0.0
 10
14.0663
 20
13.0448
 30
0.0
 10
14.2027
 20
12.9291
 30
0.0
 10
14.2027
 20
12.9291
 30
0.0
 10
14.2027
 20
12.9291
 30
0.0
 10
14.2027
 20
12.9291
 30
0.0
 10
13.9605
 20
12.6563
 30
0.0
 10
13.9605
 20
12.6563
 30
0.0
 10
13.9605
 20
12.6563
 30
0.0
 10
14.0395
 20
12.5387
 30
0.0
 10
14.0926
 20
12.4357
 30
0.0
 10
14.1204
 20
12.3478
 30
0.0
 10
14.1204
 20
12.3478
 30
0.0
 10
14.1571
 20
12.232
 30
0.0
 10
14.1754
 20
12.1022
 30
0.0
 10
14.1754
 20
11.9592
 30
0.0
 10
14.1754
 20
11.9592
 30
0.0
 10
14.1754
 20
11.7523
 30
0.0
 10
14.1336
 20
11.5679
 30
0.0
 10
14.0498
 20
11.4066
 30
0.0
 10
14.0498
 20
11.4066
 30
0.0
 10
13.9661
 20
11.2447
 30
0.0
 10
13.849
 20
11.1225
 30
0.0
 10
13.698
 20
11.0397
 30
0.0
 10
13.698
 20
11.0397
 30
0.0
 10
13.5465
 20
10.9574
 30
0.0
 10
13.3862
 20
10.916
 30
0.0
 10
13.2164
 20
10.916
 30
0.0
 10
13.2164
 20
10.916
 30
0.0
 10
13.0894
 20
10.916
 30
0.0
 10
12.9746
 20
10.9338
 30
0.0
 10
12.8716
 20
10.9696
 30
0.0
 10
12.8716
 20
10.9696
 30
0.0
 10
12.7926
 20
10.9973
 30
0.0
 10
12.7004
 20
11.05
 30
0.0
 10
12.5945
 20
11.1281
 30
0.0
 10
12.5945
 20
11.1281
 30
0.0
 10
12.5945
 20
11.1281
 30
0.0
 10
12.3631
 20
10.8689
 30
0.0
 10
12.3631
 20
10.8689
 30
0.0
 10
12.3631
 20
10.8689
 30
0.0
 10
12.3631
 20
10.8689
 30
0.0
 10
12.2267
 20
10.9846
 30
0.0
 10
12.2267
 20
10.9846
 30
0.0
 10
12.2267
 20
10.9846
 30
0.0
 10
12.2267
 20
10.9846
 30
0.0
 10
12.4694
 20
11.256
 30
0.0
 10
12.4694
 20
11.256
 30
0.0
 10
12.4694
 20
11.256
 30
0.0
 10
12.3791
 20
11.3929
 30
0.0
 10
12.3189
 20
11.51
 30
0.0
 10
12.2888
 20
11.6069
 30
0.0
 10
12.2888
 20
11.6069
 30
0.0
 10
12.2587
 20
11.7038
 30
0.0
 10
12.2432
 20
11.8205
 30
0.0
 10
12.2432
 20
11.9564
 30
0.0
 10
12.2432
 20
11.9564
 30
0.0
 10
12.2432
 20
12.1638
 30
0.0
 10
12.2846
 20
12.3487
 30
0.0
 10
12.3673
 20
12.511
 30
0.0
 10
12.3673
 20
12.511
 30
0.0
 10
12.4501
 20
12.6733
 30
0.0
 10
12.5658
 20
12.796
 30
0.0
 10
12.7154
 20
12.8797
 30
0.0
 10
12.7154
 20
12.8797
 30
0.0
 10
12.8645
 20
12.963
 30
0.0
 10
13.0306
 20
13.0049
 30
0.0
 10
13.2135
 20
13.0049
 30
0.0
 10
13.2135
 20
13.0049
 30
0.0
 10
13.3368
 20
13.0049
 30
0.0
 10
13.4445
 20
12.9889
 30
0.0
 10
13.5367
 20
12.9559
 30
0.0
 10
13.5367
 20
12.9559
 30
0.0
 10
13.6289
 20
12.9235
 30
0.0
 10
13.7286
 20
12.8666
 30
0.0
 10
13.8349
 20
12.7857
 30
0.0
  0
SPLINE
  5
1B2
330
1F
100
AcDbEntity
  8
AXIS
 62
   250
100
AcDbSpline
210
0.0
220
0.0
230
1.0
 70
    11
 71
     3
 72
    32
 73
    28
 74
     0
 42
0.0000000001
 43
0.0000000001
 40
0.0
 40
0.0
 40
0.0
 40
0.0
 40
0.125
 40
0.125
 40
0.125
 40
0.125
 40
0.25
 40
0.25
 40
0.25
 40
0.25
 40
0.375
 40
0.375
 40
0.375
 40
0.375
 40
0.5
 40
0.5
 40
0.5
 40
0.5
 40
0.625
 40
0.625
 40
0.625
 40
0.625
 40
0.75
 40
0.75
 40
0.75
 40
0.75
 40
1.0
 40
1.0
 40
1.0
 40
1.0
 10
13.6698
 20
12.5999
 30
0.0
 10
13.5832
 20
12.6676
 30
0.0
 10
13.5075
 20
12.7142
 30
0.0
 10
13.4431
 20
12.7391
 30
0.0
 10
13.4431
 20
12.7391
 30
0.0
 10
13.3782
 20
12.7636
 30
0.0
 10
13.302
 20
12.7763
 30
0.0
 10
13.2149
 20
12.7763
 30
0.0
 10
13.2149
 20
12.7763
 30
0.0
 10
13.0136
 20
12.7763
 30
0.0
 10
12.8476
 20
12.7081
 30
0.0
 10
12.7159
 20
12.5717
 30
0.0
 10
12.7159
 20
12.5717
 30
0.0
 10
12.5846
 20
12.4352
 30
0.0
 10
12.5188
 20
12.2316
 30
0.0
 10
12.5188
 20
11.9602
 30
0.0
 10
12.5188
 20
11.9602
 30
0.0
 10
12.5188
 20
11.8539
 30
0.0
 10
12.5291
 20
11.7593
 30
0.0
 10
12.5494
 20
11.6765
 30
0.0
 10
12.5494
 20
11.6765
 30
0.0
 10
12.564
 20
11.6149
 30
0.0
 10
12.5945
 20
11.5392
 30
0.0
 10
12.6416
 20
11.4494
 30
0.0
 10
12.6416
 20
11.4494
 30
0.0
 10
12.6416
 20
11.4494
 30
0.0
 10
13.6698
 20
12.5999
 30
0.0
 10
13.6698
 20
12.5999
 30
0.0
  0
SPLINE
  5
1B3
330
1F
100
AcDbEntity
  8
AXIS
 62
   250
100
AcDbSpline
210
0.0
220
0.0
230
1.0
 70
    11
 71
     3
 72
    28
 73
    24
 74
     0
 42
0.0000000001
 43
0.0000000001
 40
0.0
 40
0.0
 40
0.0
 40
0.0
 40
0.1428571428571428
 40
0.1428571428571428
 40
0.1428571428571428
 40
0.1428571428571428
 40
0.2857142857142857
 40
0.2857142857142857
 40
0.2857142857142857
 40
0.2857142857142857
 40
0.4285714285714285
 40
0.4285714285714285
 40
0.4285714285714285
 40
0.4285714285714285
 40
0.5714285714285714
 40
0.5714285714285714
 40
0.5714285714285714
 40
0.5714285714285714
 40
0.7142857142857143
 40
0.7142857142857143
 40
0.7142857142857143
 40
0.7142857142857143
 40
1.0
 40
1.0
 40
1.0
 40
1.0
 10
13.7827
 20
12.4578
 30
0.0
 10
13.7827
 20
12.4578
 30
0.0
 10
12.7587
 20
11.3115
 30
0.0
 10
12.7587
 20
11.3115
 30
0.0
 10
12.7587
 20
11.3115
 30
0.0
 10
12.8292
 20
11.2537
 30
0.0
 10
12.8946
 20
11.2132
 30
0.0
 10
12.9544
 20
11.1902
 30
0.0
 10
12.9544
 20
11.1902
 30
0.0
 10
13.0324
 20
11.1596
 30
0.0
 10
13.1171
 20
11.1446
 30
0.0
 10
13.2079
 20
11.1446
 30
0.0
 10
13.2079
 20
11.1446
 30
0.0
 10
13.4083
 20
11.1446
 30
0.0
 10
13.5734
 20
11.2151
 30
0.0
 10
13.7041
 20
11.3567
 30
0.0
 10
13.7041
 20
11.3567
 30
0.0
 10
13.8344
 20
11.4983
 30
0.0
 10
13.8998
 20
11.6968
 30
0.0
 10
13.8998
 20
11.9522
 30
0.0
 10
13.8998
 20
11.9522
 30
0.0
 10
13.8998
 20
12.1431
 30
0.0
 10
13.8608
 20
12.312
 30
0.0
 10
13.7827
 20
12.4578
 30
0.0
  0
SPLINE
  5
1B4
330
1F
100
AcDbEntity
  8
AXIS
 62
   250
100
AcDbSpline
210
0.0
220
0.0
230
1.0
 70
    11
 71
     3
 72
    92
 73
    88
 74
     0
 42
0.0000000001
 43
0.0000000001
 40
0.0
 40
0.0
 40
0.0
 40
0.0
 40
0.0434782608695652
 40
0.0434782608695652
 40
0.0434782608695652
 40
0.0434782608695652
 40
0.0869565217391304
 40
0.0869565217391304
 40
0.0869565217391304
 40
0.0869565217391304
 40
0.1304347826086956
 40
0.1304347826086956
 40
0.1304347826086956
 40
0.1304347826086956
 40
0.1739130434782609
 40
0.1739130434782609
 40
0.1739130434782609
 40
0.1739130434782609
 40
0.2173913043478261
 40
0.2173913043478261
 40
0.2173913043478261
 40
0.2173913043478261
 40
0.2608695652173913
 40
0.2608695652173913
 40
0.2608695652173913
 40
0.2608695652173913
 40
0.3043478260869565
 40
0.3043478260869565
 40
0.3043478260869565
 40
0.3043478260869565
 40
0.3478260869565217
 40
0.3478260869565217
 40
0.3478260869565217
 40
0.3478260869565217
 40
0.391304347826087
 40
0.391304347826087
 40
0.391304347826087
 40
0.391304347826087
 40
0.4347826086956522
 40
0.4347826086956522
 40
0.4347826086956522
 40
0.4347826086956522
 40
0.4782608695652174
 40
0.4782608695652174
 40
0.4782608695652174
 40
0.4782608695652174
 40
0.5217391304347826
 40
0.5217391304347826
 40
0.5217391304347826
 40
0.5217391304347826
 40
0.5652173913043478
 40
0.5652173913043478
 40
0.5652173913043478
 40
0.5652173913043478
 40
0.6086956521739131
 40
0.6086956521739131
 40
0.6086956521739131
 40
0.6086956521739131
 40
0.6521739130434783
 40
0.6521739130434783
 40
0.6521739130434783
 40
0.6521739130434783
 40
0.6956521739130435
 40
0.6956521739130435
 40
0.6956521739130435
 40
0.6956521739130435
 40
0.7391304347826086
 40
0.7391304347826086
 40
0.7391304347826086
 40
0.7391304347826086
 40
0.782608695652174
 40
0.782608695652174
 40
0.782608695652174
 40
0.782608695652174
 40
0.8260869565217391
 40
0.8260869565217391
 40
0.8260869565217391
 40
0.8260869565217391
 40
0.8695652173913043
 40
0.8695652173913043
 40
0.8695652173913043
 40
0.8695652173913043
 40
0.9130434782608695
 40
0.9130434782608695
 40
0.9130434782608695
 40
0.9130434782608695
 40
1.0
 40
1.0
 40
1.0
 40
1.0
 10
14.4247
 20
11.4795
 30
0.0
 10
14.4247
 20
11.4795
 30
0.0
 10
14.6853
 20
11.5016
 30
0.0
 10
14.6853
 20
11.5016
 30
0.0
 10
14.6853
 20
11.5016
 30
0.0
 10
14.7046
 20
11.3746
 30
0.0
 10
14.7493
 20
11.2796
 30
0.0
 10
14.8194
 20
11.2156
 30
0.0
 10
14.8194
 20
11.2156
 30
0.0
 10
14.8899
 20
11.1516
 30
0.0
 10
14.9746
 20
11.1196
 30
0.0
 10
15.0738
 20
11.1196
 30
0.0
 10
15.0738
 20
11.1196
 30
0.0
 10
15.1933
 20
11.1196
 30
0.0
 10
15.2944
 20
11.1648
 30
0.0
 10
15.3767
 20
11.2546
 30
0.0
 10
15.3767
 20
11.2546
 30
0.0
 10
15.4595
 20
11.3449
 30
0.0
 10
15.5009
 20
11.4644
 30
0.0
 10
15.5009
 20
11.613
 30
0.0
 10
15.5009
 20
11.613
 30
0.0
 10
15.5009
 20
11.7546
 30
0.0
 10
15.4614
 20
11.8661
 30
0.0
 10
15.3819
 20
11.9479
 30
0.0
 10
15.3819
 20
11.9479
 30
0.0
 10
15.3024
 20
12.0298
 30
0.0
 10
15.1985
 20
12.0707
 30
0.0
 10
15.0696
 20
12.0707
 30
0.0
 10
15.0696
 20
12.0707
 30
0.0
 10
14.9896
 20
12.0707
 30
0.0
 10
14.9177
 20
12.0524
 30
0.0
 10
14.8532
 20
12.0162
 30
0.0
 10
14.8532
 20
12.0162
 30
0.0
 10
14.7888
 20
11.9799
 30
0.0
 10
14.7385
 20
11.9329
 30
0.0
 10
14.7018
 20
11.875
 30
0.0
 10
14.7018
 20
11.875
 30
0.0
 10
14.7018
 20
11.875
 30
0.0
 10
14.4689
 20
11.9051
 30
0.0
 10
14.4689
 20
11.9051
 30
0.0
 10
14.4689
 20
11.9051
 30
0.0
 10
14.4689
 20
11.9051
 30
0.0
 10
14.6646
 20
12.9428
 30
0.0
 10
14.6646
 20
12.9428
 30
0.0
 10
14.6646
 20
12.9428
 30
0.0
 10
14.6646
 20
12.9428
 30
0.0
 10
15.6693
 20
12.9428
 30
0.0
 10
15.6693
 20
12.9428
 30
0.0
 10
15.6693
 20
12.9428
 30
0.0
 10
15.6693
 20
12.9428
 30
0.0
 10
15.6693
 20
12.7057
 30
0.0
 10
15.6693
 20
12.7057
 30
0.0
 10
15.6693
 20
12.7057
 30
0.0
 10
15.6693
 20
12.7057
 30
0.0
 10
14.8631
 20
12.7057
 30
0.0
 10
14.8631
 20
12.7057
 30
0.0
 10
14.8631
 20
12.7057
 30
0.0
 10
14.8631
 20
12.7057
 30
0.0
 10
14.754
 20
12.1629
 30
0.0
 10
14.754
 20
12.1629
 30
0.0
 10
14.754
 20
12.1629
 30
0.0
 10
14.8753
 20
12.2476
 30
0.0
 10
15.0028
 20
12.2899
 30
0.0
 10
15.1359
 20
12.2899
 30
0.0
 10
15.1359
 20
12.2899
 30
0.0
 10
15.3123
 20
12.2899
 30
0.0
 10
15.4609
 20
12.2288
 30
0.0
 10
15.5823
 20
12.1065
 30
0.0
 10
15.5823
 20
12.1065
 30
0.0
 10
15.7036
 20
11.9842
 30
0.0
 10
15.7643
 20
11.8271
 30
0.0
 10
15.7643
 20
11.6352
 30
0.0
 10
15.7643
 20
11.6352
 30
0.0
 10
15.7643
 20
11.4522
 30
0.0
 10
15.7107
 20
11.2941
 30
0.0
 10
15.6044
 20
11.161
 30
0.0
 10
15.6044
 20
11.161
 30
0.0
 10
15.4746
 20
10.9978
 30
0.0
 10
15.2977
 20
10.916
 30
0.0
 10
15.0738
 20
10.916
 30
0.0
 10
15.0738
 20
10.916
 30
0.0
 10
14.8899
 20
10.916
 30
0.0
 10
14.7399
 20
10.9672
 30
0.0
 10
14.6237
 20
11.0702
 30
0.0
 10
14.6237
 20
11.0702
 30
0.0
 10
14.5075
 20
11.1733
 30
0.0
 10
14.4412
 20
11.3097
 30
0.0
 10
14.4247
 20
11.4795
 30
0.0
  0
SPLINE
  5
1B5
330
1F
100
AcDbEntity
  8
AXIS
 62
   250
100
AcDbSpline
210
0.0
220
0.0
230
1.0
 70
    11
 71
     3
 72
    52
 73
    48
 74
     0
 42
0.0000000001
 43
0.0000000001
 40
0.0
 40
0.0
 40
0.0
 40
0.0
 40
0.0769230769230769
 40
0.0769230769230769
 40
0.0769230769230769
 40
0.0769230769230769
 40
0.1538461538461539
 40
0.1538461538461539
 40
0.1538461538461539
 40
0.1538461538461539
 40
0.2307692307692308
 40
0.2307692307692308
 40
0.2307692307692308
 40
0.2307692307692308
 40
0.3076923076923077
 40
0.3076923076923077
 40
0.3076923076923077
 40
0.3076923076923077
 40
0.3846153846153846
 40
0.3846153846153846
 40
0.3846153846153846
 40
0.3846153846153846
 40
0.4615384615384616
 40
0.4615384615384616
 40
0.4615384615384616
 40
0.4615384615384616
 40
0.5384615384615384
 40
0.5384615384615384
 40
0.5384615384615384
 40
0.5384615384615384
 40
0.6153846153846154
 40
0.6153846153846154
 40
0.6153846153846154
 40
0.6153846153846154
 40
0.6923076923076923
 40
0.6923076923076923
 40
0.6923076923076923
 40
0.6923076923076923
 40
0.7692307692307693
 40
0.7692307692307693
 40
0.7692307692307693
 40
0.7692307692307693
 40
0.8461538461538461
 40
0.8461538461538461
 40
0.8461538461538461
 40
0.8461538461538461
 40
1.0
 40
1.0
 40
1.0
 40
1.0
 10
15.9943
 20
11.9465
 30
0.0
 10
15.9943
 20
12.1855
 30
0.0
 10
16.0188
 20
12.3779
 30
0.0
 10
16.0682
 20
12.5232
 30
0.0
 10
16.0682
 20
12.5232
 30
0.0
 10
16.1171
 20
12.669
 30
0.0
 10
16.1905
 20
12.7814
 30
0.0
 10
16.2874
 20
12.8605
 30
0.0
 10
16.2874
 20
12.8605
 30
0.0
 10
16.3843
 20
12.9395
 30
0.0
 10
16.5061
 20
12.979
 30
0.0
 10
16.6528
 20
12.979
 30
0.0
 10
16.6528
 20
12.979
 30
0.0
 10
16.7615
 20
12.979
 30
0.0
 10
16.8565
 20
12.9569
 30
0.0
 10
16.9383
 20
12.9131
 30
0.0
 10
16.9383
 20
12.9131
 30
0.0
 10
17.0202
 20
12.8699
 30
0.0
 10
17.0875
 20
12.8068
 30
0.0
 10
17.1411
 20
12.7245
 30
0.0
 10
17.1411
 20
12.7245
 30
0.0
 10
17.1942
 20
12.6422
 30
0.0
 10
17.2361
 20
12.542
 30
0.0
 10
17.2662
 20
12.424
 30
0.0
 10
17.2662
 20
12.424
 30
0.0
 10
17.2968
 20
12.3059
 30
0.0
 10
17.3118
 20
12.1469
 30
0.0
 10
17.3118
 20
11.9465
 30
0.0
 10
17.3118
 20
11.9465
 30
0.0
 10
17.3118
 20
11.7095
 30
0.0
 10
17.2874
 20
11.5185
 30
0.0
 10
17.2389
 20
11.3727
 30
0.0
 10
17.2389
 20
11.3727
 30
0.0
 10
17.19
 20
11.2269
 30
0.0
 10
17.1171
 20
11.1145
 30
0.0
 10
17.0202
 20
11.035
 30
0.0
 10
17.0202
 20
11.035
 30
0.0
 10
16.9233
 20
10.9555
 30
0.0
 10
16.801
 20
10.916
 30
0.0
 10
16.6528
 20
10.916
 30
0.0
 10
16.6528
 20
10.916
 30
0.0
 10
16.4581
 20
10.916
 30
0.0
 10
16.3052
 20
10.9856
 30
0.0
 10
16.1942
 20
11.1253
 30
0.0
 10
16.1942
 20
11.1253
 30
0.0
 10
16.0611
 20
11.2932
 30
0.0
 10
15.9943
 20
11.5674
 30
0.0
 10
15.9943
 20
11.9465
 30
0.0
  0
SPLINE
  5
1B6
330
1F
100
AcDbEntity
  8
AXIS
 62
   250
100
AcDbSpline
210
0.0
220
0.0
230
1.0
 70
    11
 71
     3
 72
    36
 73
    32
 74
     0
 42
0.0000000001
 43
0.0000000001
 40
0.0
 40
0.0
 40
0.0
 40
0.0
 40
0.1111111111111111
 40
0.1111111111111111
 40
0.1111111111111111
 40
0.1111111111111111
 40
0.2222222222222222
 40
0.2222222222222222
 40
0.2222222222222222
 40
0.2222222222222222
 40
0.3333333333333333
 40
0.3333333333333333
 40
0.3333333333333333
 40
0.3333333333333333
 40
0.4444444444444444
 40
0.4444444444444444
 40
0.4444444444444444
 40
0.4444444444444444
 40
0.5555555555555556
 40
0.5555555555555556
 40
0.5555555555555556
 40
0.5555555555555556
 40
0.6666666666666666
 40
0.6666666666666666
 40
0.6666666666666666
 40
0.6666666666666666
 40
0.7777777777777778
 40
0.7777777777777778
 40
0.7777777777777778
 40
0.7777777777777778
 40
1.0
 40
1.0
 40
1.0
 40
1.0
 10
16.2493
 20
11.9465
 30
0.0
 10
16.2493
 20
11.6149
 30
0.0
 10
16.2883
 20
11.3943
 30
0.0
 10
16.3659
 20
11.2843
 30
0.0
 10
16.3659
 20
11.2843
 30
0.0
 10
16.4435
 20
11.1747
 30
0.0
 10
16.539
 20
11.1196
 30
0.0
 10
16.6528
 20
11.1196
 30
0.0
 10
16.6528
 20
11.1196
 30
0.0
 10
16.7671
 20
11.1196
 30
0.0
 10
16.8626
 20
11.1751
 30
0.0
 10
16.9402
 20
11.2852
 30
0.0
 10
16.9402
 20
11.2852
 30
0.0
 10
17.0178
 20
11.3953
 30
0.0
 10
17.0569
 20
11.6159
 30
0.0
 10
17.0569
 20
11.9465
 30
0.0
 10
17.0569
 20
11.9465
 30
0.0
 10
17.0569
 20
12.2791
 30
0.0
 10
17.0178
 20
12.5002
 30
0.0
 10
16.9402
 20
12.6093
 30
0.0
 10
16.9402
 20
12.6093
 30
0.0
 10
16.8626
 20
12.7189
 30
0.0
 10
16.7662
 20
12.7734
 30
0.0
 10
16.6505
 20
12.7734
 30
0.0
 10
16.6505
 20
12.7734
 30
0.0
 10
16.5362
 20
12.7734
 30
0.0
 10
16.4454
 20
12.725
 30
0.0
 10
16.3772
 20
12.6286
 30
0.0
 10
16.3772
 20
12.6286
 30
0.0
 10
16.2921
 20
12.5058
 30
0.0
 10
16.2493
 20
12.2781
 30
0.0
 10
16.2493
 20
11.9465
 30
0.0
  0
SPLINE
  5
1B7
330
1F
100
AcDbEntity
  8
AXIS
 62
   250
100
AcDbSpline
210
0.0
220
0.0
230
1.0
 70
    11
 71
     3
 72
    20
 73
    16
 74
     0
 42
0.0000000001
 43
0.0000000001
 40
0.0
 40
0.0
 40
0.0
 40
0.0
 40
0.2
 40
0.2
 40
0.2
 40
0.2
 40
0.4
 40
0.4
 40
0.4
 40
0.4
 40
0.6
 40
0.6
 40
0.6
 40
0.6
 40
1.0
 40
1.0
 40
1.0
 40
1.0
 10
-4.2
 20
10.7315
 30
0.0
 10
-4.2
 20
10.7315
 30
0.0
 10
-1.8526
 20
10.4002
 30
0.0
 10
-1.8526
 20
10.4002
 30
0.0
 10
-1.8526
 20
10.4002
 30
0.0
 10
-1.8526
 20
10.4002
 30
0.0
 10
-1.8526
 20
10.3266
 30
0.0
 10
-1.8526
 20
10.3266
 30
0.0
 10
-1.8526
 20
10.3266
 30
0.0
 10
-1.8526
 20
10.3266
 30
0.0
 10
-4.2
 20
9.9733
 30
0.0
 10
-4.2
 20
9.9733
 30
0.0
 10
-4.2
 20
9.9733
 30
0.0
 10
-4.2
 20
9.9733
 30
0.0
 10
-4.2
 20
10.7315
 30
0.0
 10
-4.2
 20
10.7315
 30
0.0
  0
SPLINE
  5
1B8
330
1F
100
AcDbEntity
  8
AXIS
 62
   250
100
AcDbSpline
210
0.0
220
0.0
230
1.0
 70
    11
 71
     3
 72
    20
 73
    16
 74
     0
 42
0.0000000001
 43
0.0000000001
 40
0.0
 40
0.0
 40
0.0
 40
0.0
 40
0.2
 40
0.2
 40
0.2
 40
0.2
 40
0.4
 40
0.4
 40
0.4
 40
0.4
 40
0.6
 40
0.6
 40
0.6
 40
0.6
 40
1.0
 40
1.0
 40
1.0
 40
1.0
 10
11.4538
 20
9.9733
 30
0.0
 10
11.4538
 20
9.9733
 30
0.0
 10
9.1064
 20
10.3046
 30
0.0
 10
9.1064
 20
10.3046
 30
0.0
 10
9.1064
 20
10.3046
 30
0.0
 10
9.1064
 20
10.3046
 30
0.0
 10
9.1064
 20
10.3782
 30
0.0
 10
9.1064
 20
10.3782
 30
0.0
 10
9.1064
 20
10.3782
 30
0.0
 10
9.1064
 20
10.3782
 30
0.0
 10
11.4538
 20
10.7315
 30
0.0
 10
11.4538
 20
10.7315
 30
0.0
 10
11.4538
 20
10.7315
 30
0.0
 10
11.4538
 20
10.7315
 30
0.0
 10
11.4538
 20
9.9733
 30
0.0
 10
11.4538
 20
9.9733
 30
0.0
  0
SPLINE
  5
1B9
330
1F
100
AcDbEntity
  8
AXIS
 62
   250
100
AcDbSpline
210
0.0
220
0.0
230
1.0
 70
    24
 71
     3
 72
     8
 73
     4
 74
     0
 42
0.0000000001
 43
0.0000000001
 40
0.0
 40
0.0
 40
0.0
 40
0.0
 40
1.0
 40
1.0
 40
1.0
 40
1.0
 10
16.6417
 20
35.7046
 30
0.0
 10
16.6417
 20
35.7046
 30
0.0
 10
16.6417
 20
29.6931
 30
0.0
 10
16.6417
 20
29.6931
 30
0.0
  0
SPLINE
  5
1BA
330
1F
100
AcDbEntity
  8
AXIS
 62
   250
100
AcDbSpline
210
0.0
220
0.0
230
1.0
 70
    11
 71
     3
 72
    20
 73
    16
 74
     0
 42
0.0000000001
 43
0.0000000001
 40
0.0
 40
0.0
 40
0.0
 40
0.0
 40
0.2
 40
0.2
 40
0.2
 40
0.2
 40
0.4
 40
0.4
 40
0.4
 40
0.4
 40
0.6
 40
0.6
 40
0.6
 40
0.6
 40
1.0
 40
1.0
 40
1.0
 40
1.0
 10
17.0313
 20
31.7753
 30
0.0
 10
17.0313
 20
31.7753
 30
0.0
 10
16.7
 20
29.4279
 30
0.0
 10
16.7
 20
29.4279
 30
0.0
 10
16.7
 20
29.4279
 30
0.0
 10
16.7
 20
29.4279
 30
0.0
 10
16.6264
 20
29.4279
 30
0.0
 10
16.6264
 20
29.4279
 30
0.0
 10
16.6264
 20
29.4279
 30
0.0
 10
16.6264
 20
29.4279
 30
0.0
 10
16.2731
 20
31.7753
 30
0.0
 10
16.2731
 20
31.7753
 30
0.0
 10
16.2731
 20
31.7753
 30
0.0
 10
16.2731
 20
31.7753
 30
0.0
 10
17.0313
 20
31.7753
 30
0.0
 10
17.0313
 20
31.7753
 30
0.0
  0
SPLINE
  5
1BB
330
1F
100
AcDbEntity
  8
AXIS
 62
   250
100
AcDbSpline
210
0.0
220
0.0
230
1.0
 70
    24
 71
     3
 72
     8
 73
     4
 74
     0
 42
0.0000000001
 43
0.0000000001
 40
0.0
 40
0.0
 40
0.0
 40
0.0
 40
1.0
 40
1.0
 40
1.0
 40
1.0
 10
19.7224
 20
-4.3074
 30
0.0
 10
19.7224
 20
-4.3074
 30
0.0
 10
19.7224
 20
-0.3265
 30
0.0
 10
19.7224
 20
-0.3265
 30
0.0
  0
SPLINE
  5
1BC
330
1F
100
AcDbEntity
  8
AXIS
 62
   250
100
AcDbSpline
210
0.0
220
0.0
230
1.0
 70
    24
 71
     3
 72
     8
 73
     4
 74
     0
 42
0.0000000001
 43
0.0000000001
 40
0.0
 40
0.0
 40
0.0
 40
0.0
 40
1.0
 40
1.0
 40
1.0
 40
1.0
 10
-12.4596
 20
-3.5136
 30
0.0
 10
-12.4596
 20
-3.5136
 30
0.0
 10
-12.4596
 20
-0.2996
 30
0.0
 10
-12.4596
 20
-0.2996
 30
0.0
  0
SPLINE
  5
1BD
330
1F
100
AcDbEntity
  8
AXIS
 62
   250
100
AcDbSpline
210
0.0
220
0.0
230
1.0
 70
    11
 71
     3
 72
    40
 73
    36
 74
     0
 42
0.0000000001
 43
0.0000000001
 40
0.0
 40
0.0
 40
0.0
 40
0.0
 40
0.1
 40
0.1
 40
0.1
 40
0.1
 40
0.2
 40
0.2
 40
0.2
 40
0.2
 40
0.3
 40
0.3
 40
0.3
 40
0.3
 40
0.4
 40
0.4
 40
0.4
 40
0.4
 40
0.5
 40
0.5
 40
0.5
 40
0.5
 40
0.6
 40
0.6
 40
0.6
 40
0.6
 40
0.7
 40
0.7
 40
0.7
 40
0.7
 40
0.8
 40
0.8
 40
0.8
 40
0.8
 40
1.0
 40
1.0
 40
1.0
 40
1.0
 10
2.4961
 20
-0.2197
 30
0.0
 10
2.4961
 20
-0.2197
 30
0.0
 10
2.2482
 20
-0.2197
 30
0.0
 10
2.2482
 20
-0.2197
 30
0.0
 10
2.2482
 20
-0.2197
 30
0.0
 10
2.2482
 20
-0.2197
 30
0.0
 10
2.2482
 20
1.3607
 30
0.0
 10
2.2482
 20
1.3607
 30
0.0
 10
2.2482
 20
1.3607
 30
0.0
 10
2.1884
 20
1.3038
 30
0.0
 10
2.1104
 20
1.2469
 30
0.0
 10
2.0135
 20
1.19
 30
0.0
 10
2.0135
 20
1.19
 30
0.0
 10
1.9161
 20
1.1331
 30
0.0
 10
1.8291
 20
1.0903
 30
0.0
 10
1.7519
 20
1.062
 30
0.0
 10
1.7519
 20
1.062
 30
0.0
 10
1.7519
 20
1.062
 30
0.0
 10
1.7519
 20
1.3015
 30
0.0
 10
1.7519
 20
1.3015
 30
0.0
 10
1.7519
 20
1.3015
 30
0.0
 10
1.8907
 20
1.3668
 30
0.0
 10
2.0121
 20
1.4459
 30
0.0
 10
2.116
 20
1.5385
 30
0.0
 10
2.116
 20
1.5385
 30
0.0
 10
2.2195
 20
1.6317
 30
0.0
 10
2.2933
 20
1.7215
 30
0.0
 10
2.3366
 20
1.809
 30
0.0
 10
2.3366
 20
1.809
 30
0.0
 10
2.3366
 20
1.809
 30
0.0
 10
2.4961
 20
1.809
 30
0.0
 10
2.4961
 20
1.809
 30
0.0
 10
2.4961
 20
1.809
 30
0.0
 10
2.4961
 20
1.809
 30
0.0
 10
2.4961
 20
-0.2197
 30
0.0
 10
2.4961
 20
-0.2197
 30
0.0
  0
SPLINE
  5
1BE
330
1F
100
AcDbEntity
  8
AXIS
 62
   250
100
AcDbSpline
210
0.0
220
0.0
230
1.0
 70
    11
 71
     3
 72
    92
 73
    88
 74
     0
 42
0.0000000001
 43
0.0000000001
 40
0.0
 40
0.0
 40
0.0
 40
0.0
 40
0.0434782608695652
 40
0.0434782608695652
 40
0.0434782608695652
 40
0.0434782608695652
 40
0.0869565217391304
 40
0.0869565217391304
 40
0.0869565217391304
 40
0.0869565217391304
 40
0.1304347826086956
 40
0.1304347826086956
 40
0.1304347826086956
 40
0.1304347826086956
 40
0.1739130434782609
 40
0.1739130434782609
 40
0.1739130434782609
 40
0.1739130434782609
 40
0.2173913043478261
 40
0.2173913043478261
 40
0.2173913043478261
 40
0.2173913043478261
 40
0.2608695652173913
 40
0.2608695652173913
 40
0.2608695652173913
 40
0.2608695652173913
 40
0.3043478260869565
 40
0.3043478260869565
 40
0.3043478260869565
 40
0.3043478260869565
 40
0.3478260869565217
 40
0.3478260869565217
 40
0.3478260869565217
 40
0.3478260869565217
 40
0.391304347826087
 40
0.391304347826087
 40
0.391304347826087
 40
0.391304347826087
 40
0.4347826086956522
 40
0.4347826086956522
 40
0.4347826086956522
 40
0.4347826086956522
 40
0.4782608695652174
 40
0.4782608695652174
 40
0.4782608695652174
 40
0.4782608695652174
 40
0.5217391304347826
 40
0.5217391304347826
 40
0.5217391304347826
 40
0.5217391304347826
 40
0.5652173913043478
 40
0.5652173913043478
 40
0.5652173913043478
 40
0.5652173913043478
 40
0.6086956521739131
 40
0.6086956521739131
 40
0.6086956521739131
 40
0.6086956521739131
 40
0.6521739130434783
 40
0.6521739130434783
 40
0.6521739130434783
 40
0.6521739130434783
 40
0.6956521739130435
 40
0.6956521739130435
 40
0.6956521739130435
 40
0.6956521739130435
 40
0.7391304347826086
 40
0.7391304347826086
 40
0.7391304347826086
 40
0.7391304347826086
 40
0.782608695652174
 40
0.782608695652174
 40
0.782608695652174
 40
0.782608695652174
 40
0.8260869565217391
 40
0.8260869565217391
 40
0.8260869565217391
 40
0.8260869565217391
 40
0.8695652173913043
 40
0.8695652173913043
 40
0.8695652173913043
 40
0.8695652173913043
 40
0.9130434782608695
 40
0.9130434782608695
 40
0.9130434782608695
 40
0.9130434782608695
 40
1.0
 40
1.0
 40
1.0
 40
1.0
 10
3.1315
 20
0.3095
 30
0.0
 10
3.1315
 20
0.3095
 30
0.0
 10
3.3921
 20
0.3316
 30
0.0
 10
3.3921
 20
0.3316
 30
0.0
 10
3.3921
 20
0.3316
 30
0.0
 10
3.4114
 20
0.2046
 30
0.0
 10
3.4561
 20
0.1096
 30
0.0
 10
3.5262
 20
0.0456
 30
0.0
 10
3.5262
 20
0.0456
 30
0.0
 10
3.5967
 20
-0.0184
 30
0.0
 10
3.6814
 20
-0.0504
 30
0.0
 10
3.7806
 20
-0.0504
 30
0.0
 10
3.7806
 20
-0.0504
 30
0.0
 10
3.9001
 20
-0.0504
 30
0.0
 10
4.0012
 20
-0.0052
 30
0.0
 10
4.0835
 20
0.0846
 30
0.0
 10
4.0835
 20
0.0846
 30
0.0
 10
4.1663
 20
0.1749
 30
0.0
 10
4.2077
 20
0.2944
 30
0.0
 10
4.2077
 20
0.443
 30
0.0
 10
4.2077
 20
0.443
 30
0.0
 10
4.2077
 20
0.5846
 30
0.0
 10
4.1682
 20
0.6961
 30
0.0
 10
4.0887
 20
0.7779
 30
0.0
 10
4.0887
 20
0.7779
 30
0.0
 10
4.0092
 20
0.8598
 30
0.0
 10
3.9053
 20
0.9007
 30
0.0
 10
3.7764
 20
0.9007
 30
0.0
 10
3.7764
 20
0.9007
 30
0.0
 10
3.6964
 20
0.9007
 30
0.0
 10
3.6245
 20
0.8824
 30
0.0
 10
3.56
 20
0.8462
 30
0.0
 10
3.56
 20
0.8462
 30
0.0
 10
3.4956
 20
0.8099
 30
0.0
 10
3.4453
 20
0.7629
 30
0.0
 10
3.4086
 20
0.705
 30
0.0
 10
3.4086
 20
0.705
 30
0.0
 10
3.4086
 20
0.705
 30
0.0
 10
3.1757
 20
0.7351
 30
0.0
 10
3.1757
 20
0.7351
 30
0.0
 10
3.1757
 20
0.7351
 30
0.0
 10
3.1757
 20
0.7351
 30
0.0
 10
3.3714
 20
1.7728
 30
0.0
 10
3.3714
 20
1.7728
 30
0.0
 10
3.3714
 20
1.7728
 30
0.0
 10
3.3714
 20
1.7728
 30
0.0
 10
4.3761
 20
1.7728
 30
0.0
 10
4.3761
 20
1.7728
 30
0.0
 10
4.3761
 20
1.7728
 30
0.0
 10
4.3761
 20
1.7728
 30
0.0
 10
4.3761
 20
1.5357
 30
0.0
 10
4.3761
 20
1.5357
 30
0.0
 10
4.3761
 20
1.5357
 30
0.0
 10
4.3761
 20
1.5357
 30
0.0
 10
3.5699
 20
1.5357
 30
0.0
 10
3.5699
 20
1.5357
 30
0.0
 10
3.5699
 20
1.5357
 30
0.0
 10
3.5699
 20
1.5357
 30
0.0
 10
3.4608
 20
0.9929
 30
0.0
 10
3.4608
 20
0.9929
 30
0.0
 10
3.4608
 20
0.9929
 30
0.0
 10
3.5821
 20
1.0776
 30
0.0
 10
3.7096
 20
1.1199
 30
0.0
 10
3.8427
 20
1.1199
 30
0.0
 10
3.8427
 20
1.1199
 30
0.0
 10
4.0191
 20
1.1199
 30
0.0
 10
4.1677
 20
1.0588
 30
0.0
 10
4.2891
 20
0.9365
 30
0.0
 10
4.2891
 20
0.9365
 30
0.0
 10
4.4104
 20
0.8142
 30
0.0
 10
4.4711
 20
0.6571
 30
0.0
 10
4.4711
 20
0.4652
 30
0.0
 10
4.4711
 20
0.4652
 30
0.0
 10
4.4711
 20
0.2822
 30
0.0
 10
4.4175
 20
0.1241
 30
0.0
 10
4.3112
 20
-0.009
 30
0.0
 10
4.3112
 20
-0.009
 30
0.0
 10
4.1814
 20
-0.1722
 30
0.0
 10
4.0045
 20
-0.254
 30
0.0
 10
3.7806
 20
-0.254
 30
0.0
 10
3.7806
 20
-0.254
 30
0.0
 10
3.5967
 20
-0.254
 30
0.0
 10
3.4467
 20
-0.2028
 30
0.0
 10
3.3305
 20
-0.0998
 30
0.0
 10
3.3305
 20
-0.0998
 30
0.0
 10
3.2143
 20
0.0033
 30
0.0
 10
3.148
 20
0.1397
 30
0.0
 10
3.1315
 20
0.3095
 30
0.0
  0
SPLINE
  5
1BF
330
1F
100
AcDbEntity
  8
AXIS
 62
   250
100
AcDbSpline
210
0.0
220
0.0
230
1.0
 70
    11
 71
     3
 72
    52
 73
    48
 74
     0
 42
0.0000000001
 43
0.0000000001
 40
0.0
 40
0.0
 40
0.0
 40
0.0
 40
0.0769230769230769
 40
0.0769230769230769
 40
0.0769230769230769
 40
0.0769230769230769
 40
0.1538461538461539
 40
0.1538461538461539
 40
0.1538461538461539
 40
0.1538461538461539
 40
0.2307692307692308
 40
0.2307692307692308
 40
0.2307692307692308
 40
0.2307692307692308
 40
0.3076923076923077
 40
0.3076923076923077
 40
0.3076923076923077
 40
0.3076923076923077
 40
0.3846153846153846
 40
0.3846153846153846
 40
0.3846153846153846
 40
0.3846153846153846
 40
0.4615384615384616
 40
0.4615384615384616
 40
0.4615384615384616
 40
0.4615384615384616
 40
0.5384615384615384
 40
0.5384615384615384
 40
0.5384615384615384
 40
0.5384615384615384
 40
0.6153846153846154
 40
0.6153846153846154
 40
0.6153846153846154
 40
0.6153846153846154
 40
0.6923076923076923
 40
0.6923076923076923
 40
0.6923076923076923
 40
0.6923076923076923
 40
0.7692307692307693
 40
0.7692307692307693
 40
0.7692307692307693
 40
0.7692307692307693
 40
0.8461538461538461
 40
0.8461538461538461
 40
0.8461538461538461
 40
0.8461538461538461
 40
1.0
 40
1.0
 40
1.0
 40
1.0
 10
4.7011
 20
0.7765
 30
0.0
 10
4.7011
 20
1.0155
 30
0.0
 10
4.7256
 20
1.2079
 30
0.0
 10
4.775
 20
1.3532
 30
0.0
 10
4.775
 20
1.3532
 30
0.0
 10
4.8239
 20
1.499
 30
0.0
 10
4.8973
 20
1.6114
 30
0.0
 10
4.9942
 20
1.6905
 30
0.0
 10
4.9942
 20
1.6905
 30
0.0
 10
5.0911
 20
1.7695
 30
0.0
 10
5.2129
 20
1.809
 30
0.0
 10
5.3596
 20
1.809
 30
0.0
 10
5.3596
 20
1.809
 30
0.0
 10
5.4683
 20
1.809
 30
0.0
 10
5.5633
 20
1.7869
 30
0.0
 10
5.6451
 20
1.7431
 30
0.0
 10
5.6451
 20
1.7431
 30
0.0
 10
5.727
 20
1.6999
 30
0.0
 10
5.7943
 20
1.6368
 30
0.0
 10
5.8479
 20
1.5545
 30
0.0
 10
5.8479
 20
1.5545
 30
0.0
 10
5.901
 20
1.4722
 30
0.0
 10
5.9429
 20
1.372
 30
0.0
 10
5.973
 20
1.254
 30
0.0
 10
5.973
 20
1.254
 30
0.0
 10
6.0036
 20
1.1359
 30
0.0
 10
6.0186
 20
0.9769
 30
0.0
 10
6.0186
 20
0.7765
 30
0.0
 10
6.0186
 20
0.7765
 30
0.0
 10
6.0186
 20
0.5395
 30
0.0
 10
5.9942
 20
0.3485
 30
0.0
 10
5.9457
 20
0.2027
 30
0.0
 10
5.9457
 20
0.2027
 30
0.0
 10
5.8968
 20
0.0569
 30
0.0
 10
5.8239
 20
-0.0555
 30
0.0
 10
5.727
 20
-0.135
 30
0.0
 10
5.727
 20
-0.135
 30
0.0
 10
5.6301
 20
-0.2145
 30
0.0
 10
5.5078
 20
-0.254
 30
0.0
 10
5.3596
 20
-0.254
 30
0.0
 10
5.3596
 20
-0.254
 30
0.0
 10
5.1649
 20
-0.254
 30
0.0
 10
5.012
 20
-0.1844
 30
0.0
 10
4.901
 20
-0.0447
 30
0.0
 10
4.901
 20
-0.0447
 30
0.0
 10
4.7679
 20
0.1232
 30
0.0
 10
4.7011
 20
0.3974
 30
0.0
 10
4.7011
 20
0.7765
 30
0.0
  0
SPLINE
  5
1C0
330
1F
100
AcDbEntity
  8
AXIS
 62
   250
100
AcDbSpline
210
0.0
220
0.0
230
1.0
 70
    11
 71
     3
 72
    36
 73
    32
 74
     0
 42
0.0000000001
 43
0.0000000001
 40
0.0
 40
0.0
 40
0.0
 40
0.0
 40
0.1111111111111111
 40
0.1111111111111111
 40
0.1111111111111111
 40
0.1111111111111111
 40
0.2222222222222222
 40
0.2222222222222222
 40
0.2222222222222222
 40
0.2222222222222222
 40
0.3333333333333333
 40
0.3333333333333333
 40
0.3333333333333333
 40
0.3333333333333333
 40
0.4444444444444444
 40
0.4444444444444444
 40
0.4444444444444444
 40
0.4444444444444444
 40
0.5555555555555556
 40
0.5555555555555556
 40
0.5555555555555556
 40
0.5555555555555556
 40
0.6666666666666666
 40
0.6666666666666666
 40
0.6666666666666666
 40
0.6666666666666666
 40
0.7777777777777778
 40
0.7777777777777778
 40
0.7777777777777778
 40
0.7777777777777778
 40
1.0
 40
1.0
 40
1.0
 40
1.0
 10
4.9561
 20
0.7765
 30
0.0
 10
4.9561
 20
0.4449
 30
0.0
 10
4.9951
 20
0.2243
 30
0.0
 10
5.0727
 20
0.1143
 30
0.0
 10
5.0727
 20
0.1143
 30
0.0
 10
5.1503
 20
0.0047
 30
0.0
 10
5.2458
 20
-0.0504
 30
0.0
 10
5.3596
 20
-0.0504
 30
0.0
 10
5.3596
 20
-0.0504
 30
0.0
 10
5.4739
 20
-0.0504
 30
0.0
 10
5.5694
 20
0.0051
 30
0.0
 10
5.647
 20
0.1152
 30
0.0
 10
5.647
 20
0.1152
 30
0.0
 10
5.7246
 20
0.2253
 30
0.0
 10
5.7637
 20
0.4459
 30
0.0
 10
5.7637
 20
0.7765
 30
0.0
 10
5.7637
 20
0.7765
 30
0.0
 10
5.7637
 20
1.1091
 30
0.0
 10
5.7246
 20
1.3302
 30
0.0
 10
5.647
 20
1.4393
 30
0.0
 10
5.647
 20
1.4393
 30
0.0
 10
5.5694
 20
1.5489
 30
0.0
 10
5.473
 20
1.6034
 30
0.0
 10
5.3573
 20
1.6034
 30
0.0
 10
5.3573
 20
1.6034
 30
0.0
 10
5.243
 20
1.6034
 30
0.0
 10
5.1522
 20
1.555
 30
0.0
 10
5.084
 20
1.4586
 30
0.0
 10
5.084
 20
1.4586
 30
0.0
 10
4.9989
 20
1.3358
 30
0.0
 10
4.9561
 20
1.1081
 30
0.0
 10
4.9561
 20
0.7765
 30
0.0
  0
SPLINE
  5
1C1
330
1F
100
AcDbEntity
  8
AXIS
 62
   250
100
AcDbSpline
210
0.0
220
0.0
230
1.0
 70
    24
 71
     3
 72
     8
 73
     4
 74
     0
 42
0.0000000001
 43
0.0000000001
 40
0.0
 40
0.0
 40
0.0
 40
0.0
 40
1.0
 40
1.0
 40
1.0
 40
1.0
 10
18.8773
 20
-0.6088
 30
0.0
 10
18.8773
 20
-0.6088
 30
0.0
 10
-11.7798
 20
-0.6088
 30
0.0
 10
-11.7798
 20
-0.6088
 30
0.0
  0
SPLINE
  5
1C2
330
1F
100
AcDbEntity
  8
AXIS
 62
   250
100
AcDbSpline
210
0.0
220
0.0
230
1.0
 70
    11
 71
     3
 72
    20
 73
    16
 74
     0
 42
0.0000000001
 43
0.0000000001
 40
0.0
 40
0.0
 40
0.0
 40
0.0
 40
0.2
 40
0.2
 40
0.2
 40
0.2
 40
0.4
 40
0.4
 40
0.4
 40
0.4
 40
0.6
 40
0.6
 40
0.6
 40
0.6
 40
1.0
 40
1.0
 40
1.0
 40
1.0
 10
17.3089
 20
-0.2885
 30
0.0
 10
17.3089
 20
-0.2885
 30
0.0
 10
19.6563
 20
-0.6198
 30
0.0
 10
19.6563
 20
-0.6198
 30
0.0
 10
19.6563
 20
-0.6198
 30
0.0
 10
19.6563
 20
-0.6198
 30
0.0
 10
19.6563
 20
-0.6934
 30
0.0
 10
19.6563
 20
-0.6934
 30
0.0
 10
19.6563
 20
-0.6934
 30
0.0
 10
19.6563
 20
-0.6934
 30
0.0
 10
17.3089
 20
-1.0467
 30
0.0
 10
17.3089
 20
-1.0467
 30
0.0
 10
17.3089
 20
-1.0467
 30
0.0
 10
17.3089
 20
-1.0467
 30
0.0
 10
17.3089
 20
-0.2885
 30
0.0
 10
17.3089
 20
-0.2885
 30
0.0
  0
SPLINE
  5
1C3
330
1F
100
AcDbEntity
  8
AXIS
 62
   250
100
AcDbSpline
210
0.0
220
0.0
230
1.0
 70
    11
 71
     3
 72
    20
 73
    16
 74
     0
 42
0.0000000001
 43
0.0000000001
 40
0.0
 40
0.0
 40
0.0
 40
0.0
 40
0.2
 40
0.2
 40
0.2
 40
0.2
 40
0.4
 40
0.4
 40
0.4
 40
0.4
 40
0.6
 40
0.6
 40
0.6
 40
0.6
 40
1.0
 40
1.0
 40
1.0
 40
1.0
 10
-9.9107
 20
-0.9928
 30
0.0
 10
-9.9107
 20
-0.9928
 30
0.0
 10
-12.2581
 20
-0.6616
 30
0.0
 10
-12.2581
 20
-0.6616
 30
0.0
 10
-12.2581
 20
-0.6616
 30
0.0
 10
-12.2581
 20
-0.6616
 30
0.0
 10
-12.2581
 20
-0.588
 30
0.0
 10
-12.2581
 20
-0.588
 30
0.0
 10
-12.2581
 20
-0.588
 30
0.0
 10
-12.2581
 20
-0.588
 30
0.0
 10
-9.9107
 20
-0.2347
 30
0.0
 10
-9.9107
 20
-0.2347
 30
0.0
 10
-9.9107
 20
-0.2347
 30
0.0
 10
-9.9107
 20
-0.2347
 30
0.0
 10
-9.9107
 20
-0.9928
 30
0.0
 10
-9.9107
 20
-0.9928
 30
0.0
  0
SPLINE
  5
1C4
330
1F
100
AcDbEntity
  8
AXIS
 62
   250
100
AcDbSpline
210
0.0
220
0.0
230
1.0
 70
    24
 71
     3
 72
     8
 73
     4
 74
     0
 42
0.0000000001
 43
0.0000000001
 40
0.0
 40
0.0
 40
0.0
 40
0.0
 40
1.0
 40
1.0
 40
1.0
 40
1.0
 10
-12.284
 20
-4.2534
 30
0.0
 10
-12.284
 20
-4.2534
 30
0.0
 10
-16.2649
 20
-4.2534
 30
0.0
 10
-16.2649
 20
-4.2534
 30
0.0
  0
SPLINE
  5
1C5
330
1F
100
AcDbEntity
  8
AXIS
 62
   250
100
AcDbSpline
210
0.0
220
0.0
230
1.0
 70
    24
 71
     3
 72
     8
 73
     4
 74
     0
 42
0.0000000001
 43
0.0000000001
 40
0.0
 40
0.0
 40
0.0
 40
0.0
 40
1.0
 40
1.0
 40
1.0
 40
1.0
 10
-13.0778
 20
-36.4354
 30
0.0
 10
-13.0778
 20
-36.4354
 30
0.0
 10
-16.2918
 20
-36.4354
 30
0.0
 10
-16.2918
 20
-36.4354
 30
0.0
  0
SPLINE
  5
1C6
330
1F
100
AcDbEntity
  8
AXIS
 62
   250
100
AcDbSpline
210
0.0
220
0.0
230
1.0
 70
    11
 71
     3
 72
    40
 73
    36
 74
     0
 42
0.0000000001
 43
0.0000000001
 40
0.0
 40
0.0
 40
0.0
 40
0.0
 40
0.1
 40
0.1
 40
0.1
 40
0.1
 40
0.2
 40
0.2
 40
0.2
 40
0.2
 40
0.3
 40
0.3
 40
0.3
 40
0.3
 40
0.4
 40
0.4
 40
0.4
 40
0.4
 40
0.5
 40
0.5
 40
0.5
 40
0.5
 40
0.6
 40
0.6
 40
0.6
 40
0.6
 40
0.7
 40
0.7
 40
0.7
 40
0.7
 40
0.8
 40
0.8
 40
0.8
 40
0.8
 40
1.0
 40
1.0
 40
1.0
 40
1.0
 10
-16.3717
 20
-21.4797
 30
0.0
 10
-16.3717
 20
-21.4797
 30
0.0
 10
-16.3717
 20
-21.7276
 30
0.0
 10
-16.3717
 20
-21.7276
 30
0.0
 10
-16.3717
 20
-21.7276
 30
0.0
 10
-16.3717
 20
-21.7276
 30
0.0
 10
-17.9521
 20
-21.7276
 30
0.0
 10
-17.9521
 20
-21.7276
 30
0.0
 10
-17.9521
 20
-21.7276
 30
0.0
 10
-17.8952
 20
-21.7874
 30
0.0
 10
-17.8383
 20
-21.8654
 30
0.0
 10
-17.7814
 20
-21.9623
 30
0.0
 10
-17.7814
 20
-21.9623
 30
0.0
 10
-17.7245
 20
-22.0597
 30
0.0
 10
-17.6817
 20
-22.1467
 30
0.0
 10
-17.6534
 20
-22.2239
 30
0.0
 10
-17.6534
 20
-22.2239
 30
0.0
 10
-17.6534
 20
-22.2239
 30
0.0
 10
-17.8929
 20
-22.2239
 30
0.0
 10
-17.8929
 20
-22.2239
 30
0.0
 10
-17.8929
 20
-22.2239
 30
0.0
 10
-17.9582
 20
-22.0851
 30
0.0
 10
-18.0373
 20
-21.9637
 30
0.0
 10
-18.1299
 20
-21.8598
 30
0.0
 10
-18.1299
 20
-21.8598
 30
0.0
 10
-18.2231
 20
-21.7563
 30
0.0
 10
-18.3129
 20
-21.6825
 30
0.0
 10
-18.4004
 20
-21.6392
 30
0.0
 10
-18.4004
 20
-21.6392
 30
0.0
 10
-18.4004
 20
-21.6392
 30
0.0
 10
-18.4004
 20
-21.4797
 30
0.0
 10
-18.4004
 20
-21.4797
 30
0.0
 10
-18.4004
 20
-21.4797
 30
0.0
 10
-18.4004
 20
-21.4797
 30
0.0
 10
-16.3717
 20
-21.4797
 30
0.0
 10
-16.3717
 20
-21.4797
 30
0.0
  0
SPLINE
  5
1C7
330
1F
100
AcDbEntity
  8
AXIS
 62
   250
100
AcDbSpline
210
0.0
220
0.0
230
1.0
 70
    11
 71
     3
 72
    92
 73
    88
 74
     0
 42
0.0000000001
 43
0.0000000001
 40
0.0
 40
0.0
 40
0.0
 40
0.0
 40
0.0434782608695652
 40
0.0434782608695652
 40
0.0434782608695652
 40
0.0434782608695652
 40
0.0869565217391304
 40
0.0869565217391304
 40
0.0869565217391304
 40
0.0869565217391304
 40
0.1304347826086956
 40
0.1304347826086956
 40
0.1304347826086956
 40
0.1304347826086956
 40
0.1739130434782609
 40
0.1739130434782609
 40
0.1739130434782609
 40
0.1739130434782609
 40
0.2173913043478261
 40
0.2173913043478261
 40
0.2173913043478261
 40
0.2173913043478261
 40
0.2608695652173913
 40
0.2608695652173913
 40
0.2608695652173913
 40
0.2608695652173913
 40
0.3043478260869565
 40
0.3043478260869565
 40
0.3043478260869565
 40
0.3043478260869565
 40
0.3478260869565217
 40
0.3478260869565217
 40
0.3478260869565217
 40
0.3478260869565217
 40
0.391304347826087
 40
0.391304347826087
 40
0.391304347826087
 40
0.391304347826087
 40
0.4347826086956522
 40
0.4347826086956522
 40
0.4347826086956522
 40
0.4347826086956522
 40
0.4782608695652174
 40
0.4782608695652174
 40
0.4782608695652174
 40
0.4782608695652174
 40
0.5217391304347826
 40
0.5217391304347826
 40
0.5217391304347826
 40
0.5217391304347826
 40
0.5652173913043478
 40
0.5652173913043478
 40
0.5652173913043478
 40
0.5652173913043478
 40
0.6086956521739131
 40
0.6086956521739131
 40
0.6086956521739131
 40
0.6086956521739131
 40
0.6521739130434783
 40
0.6521739130434783
 40
0.6521739130434783
 40
0.6521739130434783
 40
0.6956521739130435
 40
0.6956521739130435
 40
0.6956521739130435
 40
0.6956521739130435
 40
0.7391304347826086
 40
0.7391304347826086
 40
0.7391304347826086
 40
0.7391304347826086
 40
0.782608695652174
 40
0.782608695652174
 40
0.782608695652174
 40
0.782608695652174
 40
0.8260869565217391
 40
0.8260869565217391
 40
0.8260869565217391
 40
0.8260869565217391
 40
0.8695652173913043
 40
0.8695652173913043
 40
0.8695652173913043
 40
0.8695652173913043
 40
0.9130434782608695
 40
0.9130434782608695
 40
0.9130434782608695
 40
0.9130434782608695
 40
1.0
 40
1.0
 40
1.0
 40
1.0
 10
-16.9009
 20
-20.8443
 30
0.0
 10
-16.9009
 20
-20.8443
 30
0.0
 10
-16.923
 20
-20.5837
 30
0.0
 10
-16.923
 20
-20.5837
 30
0.0
 10
-16.923
 20
-20.5837
 30
0.0
 10
-16.796
 20
-20.5644
 30
0.0
 10
-16.701
 20
-20.5197
 30
0.0
 10
-16.637
 20
-20.4496
 30
0.0
 10
-16.637
 20
-20.4496
 30
0.0
 10
-16.573
 20
-20.3791
 30
0.0
 10
-16.541
 20
-20.2944
 30
0.0
 10
-16.541
 20
-20.1952
 30
0.0
 10
-16.541
 20
-20.1952
 30
0.0
 10
-16.541
 20
-20.0757
 30
0.0
 10
-16.5862
 20
-19.9746
 30
0.0
 10
-16.676
 20
-19.8923
 30
0.0
 10
-16.676
 20
-19.8923
 30
0.0
 10
-16.7663
 20
-19.8095
 30
0.0
 10
-16.8858
 20
-19.7681
 30
0.0
 10
-17.0344
 20
-19.7681
 30
0.0
 10
-17.0344
 20
-19.7681
 30
0.0
 10
-17.176
 20
-19.7681
 30
0.0
 10
-17.2875
 20
-19.8076
 30
0.0
 10
-17.3693
 20
-19.8871
 30
0.0
 10
-17.3693
 20
-19.8871
 30
0.0
 10
-17.4512
 20
-19.9666
 30
0.0
 10
-17.4921
 20
-20.0705
 30
0.0
 10
-17.4921
 20
-20.1994
 30
0.0
 10
-17.4921
 20
-20.1994
 30
0.0
 10
-17.4921
 20
-20.2794
 30
0.0
 10
-17.4738
 20
-20.3513
 30
0.0
 10
-17.4376
 20
-20.4158
 30
0.0
 10
-17.4376
 20
-20.4158
 30
0.0
 10
-17.4013
 20
-20.4802
 30
0.0
 10
-17.3543
 20
-20.5305
 30
0.0
 10
-17.2964
 20
-20.5672
 30
0.0
 10
-17.2964
 20
-20.5672
 30
0.0
 10
-17.2964
 20
-20.5672
 30
0.0
 10
-17.3265
 20
-20.8001
 30
0.0
 10
-17.3265
 20
-20.8001
 30
0.0
 10
-17.3265
 20
-20.8001
 30
0.0
 10
-17.3265
 20
-20.8001
 30
0.0
 10
-18.3642
 20
-20.6044
 30
0.0
 10
-18.3642
 20
-20.6044
 30
0.0
 10
-18.3642
 20
-20.6044
 30
0.0
 10
-18.3642
 20
-20.6044
 30
0.0
 10
-18.3642
 20
-19.5997
 30
0.0
 10
-18.3642
 20
-19.5997
 30
0.0
 10
-18.3642
 20
-19.5997
 30
0.0
 10
-18.3642
 20
-19.5997
 30
0.0
 10
-18.1271
 20
-19.5997
 30
0.0
 10
-18.1271
 20
-19.5997
 30
0.0
 10
-18.1271
 20
-19.5997
 30
0.0
 10
-18.1271
 20
-19.5997
 30
0.0
 10
-18.1271
 20
-20.4059
 30
0.0
 10
-18.1271
 20
-20.4059
 30
0.0
 10
-18.1271
 20
-20.4059
 30
0.0
 10
-18.1271
 20
-20.4059
 30
0.0
 10
-17.5843
 20
-20.515
 30
0.0
 10
-17.5843
 20
-20.515
 30
0.0
 10
-17.5843
 20
-20.515
 30
0.0
 10
-17.669
 20
-20.3937
 30
0.0
 10
-17.7113
 20
-20.2662
 30
0.0
 10
-17.7113
 20
-20.1331
 30
0.0
 10
-17.7113
 20
-20.1331
 30
0.0
 10
-17.7113
 20
-19.9567
 30
0.0
 10
-17.6502
 20
-19.8081
 30
0.0
 10
-17.5279
 20
-19.6867
 30
0.0
 10
-17.5279
 20
-19.6867
 30
0.0
 10
-17.4056
 20
-19.5654
 30
0.0
 10
-17.2485
 20
-19.5047
 30
0.0
 10
-17.0566
 20
-19.5047
 30
0.0
 10
-17.0566
 20
-19.5047
 30
0.0
 10
-16.8736
 20
-19.5047
 30
0.0
 10
-16.7155
 20
-19.5583
 30
0.0
 10
-16.5824
 20
-19.6646
 30
0.0
 10
-16.5824
 20
-19.6646
 30
0.0
 10
-16.4192
 20
-19.7944
 30
0.0
 10
-16.3374
 20
-19.9713
 30
0.0
 10
-16.3374
 20
-20.1952
 30
0.0
 10
-16.3374
 20
-20.1952
 30
0.0
 10
-16.3374
 20
-20.3791
 30
0.0
 10
-16.3886
 20
-20.5291
 30
0.0
 10
-16.4916
 20
-20.6453
 30
0.0
 10
-16.4916
 20
-20.6453
 30
0.0
 10
-16.5947
 20
-20.7615
 30
0.0
 10
-16.7311
 20
-20.8278
 30
0.0
 10
-16.9009
 20
-20.8443
 30
0.0
  0
SPLINE
  5
1C8
330
1F
100
AcDbEntity
  8
AXIS
 62
   250
100
AcDbSpline
210
0.0
220
0.0
230
1.0
 70
    11
 71
     3
 72
    52
 73
    48
 74
     0
 42
0.0000000001
 43
0.0000000001
 40
0.0
 40
0.0
 40
0.0
 40
0.0
 40
0.0769230769230769
 40
0.0769230769230769
 40
0.0769230769230769
 40
0.0769230769230769
 40
0.1538461538461539
 40
0.1538461538461539
 40
0.1538461538461539
 40
0.1538461538461539
 40
0.2307692307692308
 40
0.2307692307692308
 40
0.2307692307692308
 40
0.2307692307692308
 40
0.3076923076923077
 40
0.3076923076923077
 40
0.3076923076923077
 40
0.3076923076923077
 40
0.3846153846153846
 40
0.3846153846153846
 40
0.3846153846153846
 40
0.3846153846153846
 40
0.4615384615384616
 40
0.4615384615384616
 40
0.4615384615384616
 40
0.4615384615384616
 40
0.5384615384615384
 40
0.5384615384615384
 40
0.5384615384615384
 40
0.5384615384615384
 40
0.6153846153846154
 40
0.6153846153846154
 40
0.6153846153846154
 40
0.6153846153846154
 40
0.6923076923076923
 40
0.6923076923076923
 40
0.6923076923076923
 40
0.6923076923076923
 40
0.7692307692307693
 40
0.7692307692307693
 40
0.7692307692307693
 40
0.7692307692307693
 40
0.8461538461538461
 40
0.8461538461538461
 40
0.8461538461538461
 40
0.8461538461538461
 40
1.0
 40
1.0
 40
1.0
 40
1.0
 10
-17.3679
 20
-19.2747
 30
0.0
 10
-17.6069
 20
-19.2747
 30
0.0
 10
-17.7993
 20
-19.2502
 30
0.0
 10
-17.9446
 20
-19.2008
 30
0.0
 10
-17.9446
 20
-19.2008
 30
0.0
 10
-18.0904
 20
-19.1519
 30
0.0
 10
-18.2028
 20
-19.0785
 30
0.0
 10
-18.2819
 20
-18.9816
 30
0.0
 10
-18.2819
 20
-18.9816
 30
0.0
 10
-18.3609
 20
-18.8847
 30
0.0
 10
-18.4004
 20
-18.7629
 30
0.0
 10
-18.4004
 20
-18.6162
 30
0.0
 10
-18.4004
 20
-18.6162
 30
0.0
 10
-18.4004
 20
-18.5075
 30
0.0
 10
-18.3783
 20
-18.4125
 30
0.0
 10
-18.3345
 20
-18.3307
 30
0.0
 10
-18.3345
 20
-18.3307
 30
0.0
 10
-18.2913
 20
-18.2488
 30
0.0
 10
-18.2282
 20
-18.1815
 30
0.0
 10
-18.1459
 20
-18.1279
 30
0.0
 10
-18.1459
 20
-18.1279
 30
0.0
 10
-18.0636
 20
-18.0748
 30
0.0
 10
-17.9634
 20
-18.0329
 30
0.0
 10
-17.8454
 20
-18.0028
 30
0.0
 10
-17.8454
 20
-18.0028
 30
0.0
 10
-17.7273
 20
-17.9722
 30
0.0
 10
-17.5683
 20
-17.9572
 30
0.0
 10
-17.3679
 20
-17.9572
 30
0.0
 10
-17.3679
 20
-17.9572
 30
0.0
 10
-17.1309
 20
-17.9572
 30
0.0
 10
-16.9399
 20
-17.9816
 30
0.0
 10
-16.7941
 20
-18.0301
 30
0.0
 10
-16.7941
 20
-18.0301
 30
0.0
 10
-16.6483
 20
-18.079
 30
0.0
 10
-16.5359
 20
-18.1519
 30
0.0
 10
-16.4564
 20
-18.2488
 30
0.0
 10
-16.4564
 20
-18.2488
 30
0.0
 10
-16.3769
 20
-18.3457
 30
0.0
 10
-16.3374
 20
-18.468
 30
0.0
 10
-16.3374
 20
-18.6162
 30
0.0
 10
-16.3374
 20
-18.6162
 30
0.0
 10
-16.3374
 20
-18.8109
 30
0.0
 10
-16.407
 20
-18.9638
 30
0.0
 10
-16.5467
 20
-19.0748
 30
0.0
 10
-16.5467
 20
-19.0748
 30
0.0
 10
-16.7146
 20
-19.2079
 30
0.0
 10
-16.9888
 20
-19.2747
 30
0.0
 10
-17.3679
 20
-19.2747
 30
0.0
  0
SPLINE
  5
1C9
330
1F
100
AcDbEntity
  8
AXIS
 62
   250
100
AcDbSpline
210
0.0
220
0.0
230
1.0
 70
    11
 71
     3
 72
    36
 73
    32
 74
     0
 42
0.0000000001
 43
0.0000000001
 40
0.0
 40
0.0
 40
0.0
 40
0.0
 40
0.1111111111111111
 40
0.1111111111111111
 40
0.1111111111111111
 40
0.1111111111111111
 40
0.2222222222222222
 40
0.2222222222222222
 40
0.2222222222222222
 40
0.2222222222222222
 40
0.3333333333333333
 40
0.3333333333333333
 40
0.3333333333333333
 40
0.3333333333333333
 40
0.4444444444444444
 40
0.4444444444444444
 40
0.4444444444444444
 40
0.4444444444444444
 40
0.5555555555555556
 40
0.5555555555555556
 40
0.5555555555555556
 40
0.5555555555555556
 40
0.6666666666666666
 40
0.6666666666666666
 40
0.6666666666666666
 40
0.6666666666666666
 40
0.7777777777777778
 40
0.7777777777777778
 40
0.7777777777777778
 40
0.7777777777777778
 40
1.0
 40
1.0
 40
1.0
 40
1.0
 10
-17.3679
 20
-19.0197
 30
0.0
 10
-17.0363
 20
-19.0197
 30
0.0
 10
-16.8157
 20
-18.9807
 30
0.0
 10
-16.7057
 20
-18.9031
 30
0.0
 10
-16.7057
 20
-18.9031
 30
0.0
 10
-16.5961
 20
-18.8255
 30
0.0
 10
-16.541
 20
-18.73
 30
0.0
 10
-16.541
 20
-18.6162
 30
0.0
 10
-16.541
 20
-18.6162
 30
0.0
 10
-16.541
 20
-18.5019
 30
0.0
 10
-16.5965
 20
-18.4064
 30
0.0
 10
-16.7066
 20
-18.3288
 30
0.0
 10
-16.7066
 20
-18.3288
 30
0.0
 10
-16.8167
 20
-18.2512
 30
0.0
 10
-17.0373
 20
-18.2121
 30
0.0
 10
-17.3679
 20
-18.2121
 30
0.0
 10
-17.3679
 20
-18.2121
 30
0.0
 10
-17.7005
 20
-18.2121
 30
0.0
 10
-17.9216
 20
-18.2512
 30
0.0
 10
-18.0307
 20
-18.3288
 30
0.0
 10
-18.0307
 20
-18.3288
 30
0.0
 10
-18.1403
 20
-18.4064
 30
0.0
 10
-18.1948
 20
-18.5028
 30
0.0
 10
-18.1948
 20
-18.6185
 30
0.0
 10
-18.1948
 20
-18.6185
 30
0.0
 10
-18.1948
 20
-18.7328
 30
0.0
 10
-18.1464
 20
-18.8236
 30
0.0
 10
-18.05
 20
-18.8918
 30
0.0
 10
-18.05
 20
-18.8918
 30
0.0
 10
-17.9272
 20
-18.9769
 30
0.0
 10
-17.6995
 20
-19.0197
 30
0.0
 10
-17.3679
 20
-19.0197
 30
0.0
  0
SPLINE
  5
1CA
330
1F
100
AcDbEntity
  8
AXIS
 62
   250
100
AcDbSpline
210
0.0
220
0.0
230
1.0
 70
    24
 71
     3
 72
     8
 73
     4
 74
     0
 42
0.0000000001
 43
0.0000000001
 40
0.0
 40
0.0
 40
0.0
 40
0.0
 40
1.0
 40
1.0
 40
1.0
 40
1.0
 10
-15.9826
 20
-5.0985
 30
0.0
 10
-15.9826
 20
-5.0985
 30
0.0
 10
-15.9826
 20
-35.7556
 30
0.0
 10
-15.9826
 20
-35.7556
 30
0.0
  0
SPLINE
  5
1CB
330
1F
100
AcDbEntity
  8
AXIS
 62
   250
100
AcDbSpline
210
0.0
220
0.0
230
1.0
 70
    11
 71
     3
 72
    20
 73
    16
 74
     0
 42
0.0000000001
 43
0.0000000001
 40
0.0
 40
0.0
 40
0.0
 40
0.0
 40
0.2
 40
0.2
 40
0.2
 40
0.2
 40
0.4
 40
0.4
 40
0.4
 40
0.4
 40
0.6
 40
0.6
 40
0.6
 40
0.6
 40
1.0
 40
1.0
 40
1.0
 40
1.0
 10
-16.3029
 20
-6.6669
 30
0.0
 10
-16.3029
 20
-6.6669
 30
0.0
 10
-15.9716
 20
-4.3195
 30
0.0
 10
-15.9716
 20
-4.3195
 30
0.0
 10
-15.9716
 20
-4.3195
 30
0.0
 10
-15.9716
 20
-4.3195
 30
0.0
 10
-15.898
 20
-4.3195
 30
0.0
 10
-15.898
 20
-4.3195
 30
0.0
 10
-15.898
 20
-4.3195
 30
0.0
 10
-15.898
 20
-4.3195
 30
0.0
 10
-15.5447
 20
-6.6669
 30
0.0
 10
-15.5447
 20
-6.6669
 30
0.0
 10
-15.5447
 20
-6.6669
 30
0.0
 10
-15.5447
 20
-6.6669
 30
0.0
 10
-16.3029
 20
-6.6669
 30
0.0
 10
-16.3029
 20
-6.6669
 30
0.0
  0
SPLINE
  5
1CC
330
1F
100
AcDbEntity
  8
AXIS
 62
   250
100
AcDbSpline
210
0.0
220
0.0
230
1.0
 70
    11
 71
     3
 72
    20
 73
    16
 74
     0
 42
0.0000000001
 43
0.0000000001
 40
0.0
 40
0.0
 40
0.0
 40
0.0
 40
0.2
 40
0.2
 40
0.2
 40
0.2
 40
0.4
 40
0.4
 40
0.4
 40
0.4
 40
0.6
 40
0.6
 40
0.6
 40
0.6
 40
1.0
 40
1.0
 40
1.0
 40
1.0
 10
-15.5986
 20
-33.8865
 30
0.0
 10
-15.5986
 20
-33.8865
 30
0.0
 10
-15.9298
 20
-36.2339
 30
0.0
 10
-15.9298
 20
-36.2339
 30
0.0
 10
-15.9298
 20
-36.2339
 30
0.0
 10
-15.9298
 20
-36.2339
 30
0.0
 10
-16.0034
 20
-36.2339
 30
0.0
 10
-16.0034
 20
-36.2339
 30
0.0
 10
-16.0034
 20
-36.2339
 30
0.0
 10
-16.0034
 20
-36.2339
 30
0.0
 10
-16.3567
 20
-33.8865
 30
0.0
 10
-16.3567
 20
-33.8865
 30
0.0
 10
-16.3567
 20
-33.8865
 30
0.0
 10
-16.3567
 20
-33.8865
 30
0.0
 10
-15.5986
 20
-33.8865
 30
0.0
 10
-15.5986
 20
-33.8865
 30
0.0
  0
SPLINE
  5
1CD
330
1F
100
AcDbEntity
  8
AXIS
 62
   251
100
AcDbSpline
210
0.0
220
0.0
230
1.0
 70
    24
 71
     3
 72
     8
 73
     4
 74
     0
 42
0.0000000001
 43
0.0000000001
 40
0.0
 40
0.0
 40
0.0
 40
0.0
 40
1.0
 40
1.0
 40
1.0
 40
1.0
 10
-0.6422
 20
5.1882
 30
0.0
 10
-0.6422
 20
5.1882
 30
0.0
 10
7.9092
 20
5.1882
 30
0.0
 10
7.9092
 20
5.1882
 30
0.0
  0
SPLINE
  5
1CE
330
1F
100
AcDbEntity
  8
AXIS
 62
   251
100
AcDbSpline
210
0.0
220
0.0
230
1.0
 70
    24
 71
     3
 72
     8
 73
     4
 74
     0
 42
0.0000000001
 43
0.0000000001
 40
0.0
 40
0.0
 40
0.0
 40
0.0
 40
1.0
 40
1.0
 40
1.0
 40
1.0
 10
-0.6421
 20
5.1882
 30
0.0
 10
-0.6421
 20
5.1882
 30
0.0
 10
-1.7111
 20
6.2571
 30
0.0
 10
-1.7111
 20
6.2571
 30
0.0
  0
SPLINE
  5
1CF
330
1F
100
AcDbEntity
  8
AXIS
 62
   251
100
AcDbSpline
210
0.0
220
0.0
230
1.0
 70
    24
 71
     3
 72
     8
 73
     4
 74
     0
 42
0.0000000001
 43
0.0000000001
 40
0.0
 40
0.0
 40
0.0
 40
0.0
 40
1.0
 40
1.0
 40
1.0
 40
1.0
 10
-1.7111
 20
6.2571
 30
0.0
 10
-1.7111
 20
6.2571
 30
0.0
 10
8.9781
 20
6.2571
 30
0.0
 10
8.9781
 20
6.2571
 30
0.0
  0
SPLINE
  5
1D0
330
1F
100
AcDbEntity
  8
AXIS
 62
   251
100
AcDbSpline
210
0.0
220
0.0
230
1.0
 70
    24
 71
     3
 72
     8
 73
     4
 74
     0
 42
0.0000000001
 43
0.0000000001
 40
0.0
 40
0.0
 40
0.0
 40
0.0
 40
1.0
 40
1.0
 40
1.0
 40
1.0
 10
7.9092
 20
5.1882
 30
0.0
 10
7.9092
 20
5.1882
 30
0.0
 10
8.9781
 20
6.2571
 30
0.0
 10
8.9781
 20
6.2571
 30
0.0
  0
SPLINE
  5
1D1
330
1F
100
AcDbEntity
  8
AXIS
 62
   251
100
AcDbSpline
210
0.0
220
0.0
230
1.0
 70
    24
 71
     3
 72
     8
 73
     4
 74
     0
 42
0.0000000001
 43
0.0000000001
 40
0.0
 40
0.0
 40
0.0
 40
0.0
 40
1.0
 40
1.0
 40
1.0
 40
1.0
 10
-1.7111
 20
15.8774
 30
0.0
 10
-1.7111
 20
15.8774
 30
0.0
 10
-1.7111
 20
6.2571
 30
0.0
 10
-1.7111
 20
6.2571
 30
0.0
  0
SPLINE
  5
1D2
330
1F
100
AcDbEntity
  8
AXIS
 62
   251
100
AcDbSpline
210
0.0
220
0.0
230
1.0
 70
    24
 71
     3
 72
     8
 73
     4
 74
     0
 42
0.0000000001
 43
0.0000000001
 40
0.0
 40
0.0
 40
0.0
 40
0.0
 40
1.0
 40
1.0
 40
1.0
 40
1.0
 10
8.9781
 20
15.8774
 30
0.0
 10
8.9781
 20
15.8774
 30
0.0
 10
8.9781
 20
6.2571
 30
0.0
 10
8.9781
 20
6.2571
 30
0.0
  0
ENDSEC
  0
SECTION
  2
OBJECTS
  0
DICTIONARY
  5
C
330
0
100
AcDbDictionary
  3
ACAD_GROUP
350
D
  3
ACAD_LAYOUT
350
1A
  3
ACAD_MATERIAL
350
3B
  3
ACAD_MLEADERSTYLE
350
1F5
  3
ACAD_MLINESTYLE
350
17
  3
ACAD_PLOTSETTINGS
350
19
  3
ACAD_VISUALSTYLE
350
2A
  3
ACDBHEADERROUNDTRIPXREC
350
1D3
  3
ACDBVARIABLEDICTIONARY
350
1F3
  0
DICTIONARY
  5
D
102
{ACAD_REACTORS
330
C
102
}
330
C
100
AcDbDictionary
  0
DICTIONARY
  5
1A
102
{ACAD_REACTORS
330
C
102
}
330
C
100
AcDbDictionary
  0
DICTIONARY
  5
3B
102
{ACAD_REACTORS
330
C
102
}
330
C
100
AcDbDictionary
  3
BYBLOCK
350
3D
  3
BYLAYER
350
3C
  3
GLOBAL
350
3E
  0
DICTIONARY
  5
1F5
102
{ACAD_REACTORS
330
C
102
}
330
C
100
AcDbDictionary
  0
DICTIONARY
  5
17
102
{ACAD_REACTORS
330
C
102
}
330
C
100
AcDbDictionary
  3
STANDARD
350
18
  0
DICTIONARY
  5
19
102
{ACAD_REACTORS
330
C
102
}
330
C
100
AcDbDictionary
  0
DICTIONARY
  5
2A
102
{ACAD_REACTORS
330
C
102
}
330
C
100
AcDbDictionary
  3
2DWIREFRAME
350
2F
  3
3D_HIDDEN
350
31
  3
3DWIREFRAME
350
30
  3
BASIC
350
32
  3
BRIGHTEN
350
36
  3
COLORCHANGE
350
3A
  3
CONCEPTUAL
350
34
  3
DIM
350
35
  3
FACEPATTERN
350
39
  3
FLAT
350
2B
  3
FLATWITHEDGES
350
2C
  3
GOURAUD
350
2D
  3
GOURAUDWITHEDGES
350
2E
  3
LINEPATTERN
350
38
  3
REALISTIC
350
33
  3
THICKEN
350
37
  0
DICTIONARY
  5
1D3
102
{ACAD_REACTORS
330
C
102
}
330
C
100
AcDbDictionary
  3
CEPSNTYPE
350
1DC
  3
DIMSTYLEDATA
350
1F2
  3
FINGERPRINTGUID
350
1DD
  3
HYPERLINKBASE
350
1D6
  3
INSUNITS
350
1DB
  3
LAYOUTDICT
350
1D8
  3
LWETCUNION
350
1DA
  3
PLOTSETDICT
350
1D9
  3
PSVPSCALE
350
1DF
  3
PUCSBASE
350
1E2
  3
PUCSORGBACK
350
1E8
  3
PUCSORGBOTTOM
350
1E4
  3
PUCSORGFRONT
350
1E7
  3
PUCSORGLEFT
350
1E5
  3
PUCSORGRIGHT
350
1E6
  3
PUCSORGTOP
350
1E3
  3
PUCSORTHOREF
350
1E0
  3
PUCSORTHOVIEW
350
1E1
  3
STYLESHEET
350
1D7
  3
TSTACKALIGN
350
1D4
  3
TSTACKSIZE
350
1D5
  3
UCSBASE
350
1EB
  3
UCSORGBACK
350
1F1
  3
UCSORGBOTTOM
350
1ED
  3
UCSORGFRONT
350
1F0
  3
UCSORGLEFT
350
1EE
  3
UCSORGRIGHT
350
1EF
  3
UCSORGTOP
350
1EC
  3
UCSORTHOREF
350
1E9
  3
UCSORTHOVIEW
350
1EA
  3
VERSIONGUID
350
1DE
  0
DICTIONARY
  5
1F3
102
{ACAD_REACTORS
330
C
102
}
330
C
100
AcDbDictionary
  3
DIMASSOC
350
1F6
  3
HIDETEXT
350
1F7
  0
MATERIAL
  5
3D
102
{ACAD_REACTORS
330
3B
102
}
102
{ACAD_XDICTIONARY
360
1FA
102
}
330
3B
100
AcDbMaterial
  1
ByBlock
  0
MATERIAL
  5
3C
102
{ACAD_REACTORS
330
3B
102
}
102
{ACAD_XDICTIONARY
360
1F8
102
}
330
3B
100
AcDbMaterial
  1
ByLayer
  0
MATERIAL
  5
3E
102
{ACAD_REACTORS
330
3B
102
}
102
{ACAD_XDICTIONARY
360
1FC
102
}
330
3B
100
AcDbMaterial
  1
Global
  0
MLINESTYLE
  5
18
102
{ACAD_REACTORS
330
17
102
}
330
17
100
AcDbMlineStyle
  2
Standard
 70
     0
  3

 62
   256
 51
90.0
 52
90.0
 71
     2
 49
0.5
 62
   256
  6
BYLAYER
 49
-0.5
 62
   256
  6
BYLAYER
  0
ACAD_PROXY_OBJECT
  5
2F
102
{ACAD_REACTORS
330
2A
102
}
330
2A
100
AcDbProxyObject
 90
      499
 91
      501
 93
      436
310
42CC9915DA5C99599C985B595049028333333333333E3BF0000000000000FB0107901411070040501600405405064090741402480A0340
1001
ACAD
1000
AcDbSavedByObjectVersion
1070
     0
  0
ACAD_PROXY_OBJECT
  5
31
102
{ACAD_REACTORS
330
2A
102
}
330
2A
100
AcDbProxyObject
 90
      499
 91
      501
 93
      500
310
424CD108121A5919195B90640502408333333333333E3BF0000000000000FB01079024090700405020000000000001110200405405064090740C02480A0340
1001
ACAD
1000
AcDbSavedByObjectVersion
1070
     0
  0
ACAD_PROXY_OBJECT
  5
30
102
{ACAD_REACTORS
330
2A
102
}
330
2A
100
AcDbProxyObject
 90
      499
 91
      501
 93
      436
310
42CCD915DA5C99599C985B595059028333333333333E3BF0000000000000FB0107901411070040501600405405064090741402480A0340
1001
ACAD
1000
AcDbSavedByObjectVersion
1070
     0
  0
ACAD_PROXY_OBJECT
  5
32
102
{ACAD_REACTORS
330
2A
102
}
330
2A
100
AcDbProxyObject
 90
      499
 91
      501
 93
      388
310
4150985CDA58D07406404333333333333E3BF0000000000000FB0107A41107004050150841D405064090741402480A0350
1001
ACAD
1000
AcDbSavedByObjectVersion
1070
     0
  0
ACAD_PROXY_OBJECT
  5
36
102
{ACAD_REACTORS
330
2A
102
}
330
2A
100
AcDbProxyObject
 90
      499
 91
      501
 93
      428
310
42109C9A59DA1D195B90C409028333333333333E3BF0000000000000FB010790141107004050150841D405064090741402480A029950
1001
ACAD
1000
AcDbSavedByObjectVersion
1070
     0
  0
ACAD_PROXY_OBJECT
  5
3A
102
{ACAD_REACTORS
330
2A
102
}
330
2A
100
AcDbProxyObject
 90
      499
 91
      501
 93
      452
310
42D0DBDB1BDC90DA185B99D95104090240C333333333333E3BF0000000000000FB0108901411070040501508421405064090741402480A0350
1001
ACAD
1000
AcDbSavedByObjectVersion
1070
     0
  0
ACAD_PROXY_OBJECT
  5
34
102
{ACAD_REACTORS
330
2A
102
}
330
2A
100
AcDbProxyObject
 90
      499
 91
      501
 93
      500
310
4290DBDB98D95C1D1D585B10940D028333333333333E3BF0000000000000FB0107902409070040501000000000000111010841D405064090740C02480A0340
1001
ACAD
1000
AcDbSavedByObjectVersion
1070
     0
  0
ACAD_PROXY_OBJECT
  5
35
102
{ACAD_REACTORS
330
2A
102
}
330
2A
100
AcDbProxyObject
 90
      499
 91
      501
 93
      412
310
40D11A5B50B409028333333333333E3BF0000000000000FB010790141107004050150841D405064090741402480A02677FFFFFD0
1001
ACAD
1000
AcDbSavedByObjectVersion
1070
     0
  0
ACAD_PROXY_OBJECT
  5
39
102
{ACAD_REACTORS
330
2A
102
}
330
2A
100
AcDbProxyObject
 90
      499
 91
      501
 93
      444
310
42D19858D95C185D1D195C9B90F409028333333333333E3BF0000000000000FB010790141107004050150841D405064090741402480A0350
1001
ACAD
1000
AcDbSavedByObjectVersion
1070
     0
  0
ACAD_PROXY_OBJECT
  5
2B
102
{ACAD_REACTORS
330
2A
102
}
330
2A
100
AcDbProxyObject
 90
      499
 91
      501
 93
      388
310
41119B185D240901404333333333333E3BF0000000000000F9010740A41107004050150841D405064090741402480A1B50
1001
ACAD
1000
AcDbSavedByObjectVersion
1070
     0
  0
ACAD_PROXY_OBJECT
  5
2C
102
{ACAD_REACTORS
330
2A
102
}
330
2A
100
AcDbProxyObject
 90
      499
 91
      501
 93
      476
310
43519B185D15DA5D1A115919D95CD0140901404333333333333E3BF0000000000000F9010740901411070040501600405405064090741402480A1B50
1001
ACAD
1000
AcDbSavedByObjectVersion
1070
     0
  0
ACAD_PROXY_OBJECT
  5
2D
102
{ACAD_REACTORS
330
2A
102
}
330
2A
100
AcDbProxyObject
 90
      499
 91
      501
 93
      412
310
41D1DBDD5C985D5910240902404333333333333E3BF0000000000000F9010740A411070040501641D405064090741402480A1B50
1001
ACAD
1000
AcDbSavedByObjectVersion
1070
     0
  0
ACAD_PROXY_OBJECT
  5
2E
102
{ACAD_REACTORS
330
2A
102
}
330
2A
100
AcDbProxyObject
 90
      499
 91
      501
 93
      500
310
4411DBDD5C985D5915DA5D1A115919D95CD0340902404333333333333E3BF0000000000000F9010740901411070040501600405405064090741402480A1B50
1001
ACAD
1000
AcDbSavedByObjectVersion
1070
     0
  0
ACAD_PROXY_OBJECT
  5
38
102
{ACAD_REACTORS
330
2A
102
}
330
2A
100
AcDbProxyObject
 90
      499
 91
      501
 93
      444
310
42D31A5B995C185D1D195C9B90E409028333333333333E3BF0000000000000FB010790141107004050750841D405064090741402483A0350
1001
ACAD
1000
AcDbSavedByObjectVersion
1070
     0
  0
ACAD_PROXY_OBJECT
  5
33
102
{ACAD_REACTORS
330
2A
102
}
330
2A
100
AcDbProxyObject
 90
      499
 91
      501
 93
      420
310
425499585B1A5CDD1A58D08409028333333333333E3BF0000000000000FB01079019070040501508421405064090741402480A1B40
1001
ACAD
1000
AcDbSavedByObjectVersion
1070
     0
  0
ACAD_PROXY_OBJECT
  5
37
102
{ACAD_REACTORS
330
2A
102
}
330
2A
100
AcDbProxyObject
 90
      499
 91
      501
 93
      412
310
41D51A1A58DAD95B90D409028333333333333E3BF0000000000000FB010790141107004050150C41D405064090741402480A0350
1001
ACAD
1000
AcDbSavedByObjectVersion
1070
     0
  0
XRECORD
  5
1DC
102
{ACAD_REACTORS
330
1D3
102
}
330
1D3
100
AcDbXrecord
 90
        0
  0
XRECORD
  5
1F2
102
{ACAD_REACTORS
330
1D3
102
}
330
1D3
100
AcDbXrecord
1000
DSTYLE
1002
{
1070
   340
340
11
1002
}
  0
XRECORD
  5
1DD
102
{ACAD_REACTORS
330
1D3
102
}
330
1D3
100
AcDbXrecord
  1
{11E7FA1C-E1C3-4F80-9D5B-90E73616D437}
  0
XRECORD
  5
1D6
102
{ACAD_REACTORS
330
1D3
102
}
330
1D3
100
AcDbXrecord
  1

  0
XRECORD
  5
1DB
102
{ACAD_REACTORS
330
1D3
102
}
330
1D3
100
AcDbXrecord
 90
        4
  0
XRECORD
  5
1D8
102
{ACAD_REACTORS
330
1D3
102
}
330
1D3
100
AcDbXrecord
340
1A
  0
XRECORD
  5
1DA
102
{ACAD_REACTORS
330
1D3
102
}
330
1D3
100
AcDbXrecord
 90
    10781
  0
XRECORD
  5
1D9
102
{ACAD_REACTORS
330
1D3
102
}
330
1D3
100
AcDbXrecord
340
19
  0
XRECORD
  5
1DF
102
{ACAD_REACTORS
330
1D3
102
}
330
1D3
100
AcDbXrecord
 40
0.0
  0
XRECORD
  5
1E2
102
{ACAD_REACTORS
330
1D3
102
}
330
1D3
100
AcDbXrecord
340
0
  0
XRECORD
  5
1E8
102
{ACAD_REACTORS
330
1D3
102
}
330
1D3
100
AcDbXrecord
 10
0.0
 20
0.0
 30
0.0
  0
XRECORD
  5
1E4
102
{ACAD_REACTORS
330
1D3
102
}
330
1D3
100
AcDbXrecord
 10
0.0
 20
0.0
 30
0.0
  0
XRECORD
  5
1E7
102
{ACAD_REACTORS
330
1D3
102
}
330
1D3
100
AcDbXrecord
 10
0.0
 20
0.0
 30
0.0
  0
XRECORD
  5
1E5
102
{ACAD_REACTORS
330
1D3
102
}
330
1D3
100
AcDbXrecord
 10
0.0
 20
0.0
 30
0.0
  0
XRECORD
  5
1E6
102
{ACAD_REACTORS
330
1D3
102
}
330
1D3
100
AcDbXrecord
 10
0.0
 20
0.0
 30
0.0
  0
XRECORD
  5
1E3
102
{ACAD_REACTORS
330
1D3
102
}
330
1D3
100
AcDbXrecord
 10
0.0
 20
0.0
 30
0.0
  0
XRECORD
  5
1E0
102
{ACAD_REACTORS
330
1D3
102
}
330
1D3
100
AcDbXrecord
340
0
  0
XRECORD
  5
1E1
102
{ACAD_REACTORS
330
1D3
102
}
330
1D3
100
AcDbXrecord
 70
     0
  0
XRECORD
  5
1D7
102
{ACAD_REACTORS
330
1D3
102
}
330
1D3
100
AcDbXrecord
  1

  0
XRECORD
  5
1D4
102
{ACAD_REACTORS
330
1D3
102
}
330
1D3
100
AcDbXrecord
 90
        1
  0
XRECORD
  5
1D5
102
{ACAD_REACTORS
330
1D3
102
}
330
1D3
100
AcDbXrecord
 90
       70
  0
XRECORD
  5
1EB
102
{ACAD_REACTORS
330
1D3
102
}
330
1D3
100
AcDbXrecord
340
0
  0
XRECORD
  5
1F1
102
{ACAD_REACTORS
330
1D3
102
}
330
1D3
100
AcDbXrecord
 10
0.0
 20
0.0
 30
0.0
  0
XRECORD
  5
1ED
102
{ACAD_REACTORS
330
1D3
102
}
330
1D3
100
AcDbXrecord
 10
0.0
 20
0.0
 30
0.0
  0
XRECORD
  5
1F0
102
{ACAD_REACTORS
330
1D3
102
}
330
1D3
100
AcDbXrecord
 10
0.0
 20
0.0
 30
0.0
  0
XRECORD
  5
1EE
102
{ACAD_REACTORS
330
1D3
102
}
330
1D3
100
AcDbXrecord
 10
0.0
 20
0.0
 30
0.0
  0
XRECORD
  5
1EF
102
{ACAD_REACTORS
330
1D3
102
}
330
1D3
100
AcDbXrecord
 10
0.0
 20
0.0
 30
0.0
  0
XRECORD
  5
1EC
102
{ACAD_REACTORS
330
1D3
102
}
330
1D3
100
AcDbXrecord
 10
0.0
 20
0.0
 30
0.0
  0
XRECORD
  5
1E9
102
{ACAD_REACTORS
330
1D3
102
}
330
1D3
100
AcDbXrecord
340
0
  0
XRECORD
  5
1EA
102
{ACAD_REACTORS
330
1D3
102
}
330
1D3
100
AcDbXrecord
 70
     0
  0
XRECORD
  5
1DE
102
{ACAD_REACTORS
330
1D3
102
}
330
1D3
100
AcDbXrecord
  1
{FAEB1C32-E019-11D5-929B-00C0DF256EC4}
  0
DICTIONARYVAR
  5
1F6
102
{ACAD_REACTORS
330
1F3
102
}
330
1F3
100
DictionaryVariables
280
     0
  1
2
  0
DICTIONARYVAR
  5
1F7
102
{ACAD_REACTORS
330
1F3
102
}
330
1F3
100
DictionaryVariables
280
     0
  1
1
  0
DICTIONARY
  5
1FA
330
3D
100
AcDbDictionary
280
     1
  3
ACAD_XREC_ROUNDTRIP
360
1FB
  0
DICTIONARY
  5
1F8
330
3C
100
AcDbDictionary
280
     1
  3
ACAD_XREC_ROUNDTRIP
360
1F9
  0
DICTIONARY
  5
1FC
330
3E
100
AcDbDictionary
280
     1
  3
ACAD_XREC_ROUNDTRIP
360
1FD
  0
XRECORD
  5
1FB
102
{ACAD_REACTORS
330
1FA
102
}
330
1FA
100
AcDbXrecord
102
MATERIAL
148
0.0
149
0.0
149
0.0
 93
        0
 94
      127
282
     0
 72
     1
 77
     1
171
     1
175
     1
179
     1
273
     0
  0
XRECORD
  5
1F9
102
{ACAD_REACTORS
330
1F8
102
}
330
1F8
100
AcDbXrecord
102
MATERIAL
148
0.0
149
0.0
149
0.0
 93
        0
 94
      127
282
     0
 72
     1
 77
     1
171
     1
175
     1
179
     1
273
     0
  0
XRECORD
  5
1FD
102
{ACAD_REACTORS
330
1FC
102
}
330
1FC
100
AcDbXrecord
102
MATERIAL
148
0.0
149
0.0
149
0.0
 93
        0
 94
      127
282
     0
 72
     1
 77
     1
171
     1
175
     1
179
     1
273
     0
  0
ENDSEC
  0
EOF
