  0
SECTION
  2
HEADER
  9
$ACADVER
  1
AC1014
  9
$ACADMAINTVER
 70
     9
  9
$DWGCODEPAGE
  3
ANSI_1250
  9
$INSBASE
 10
0.0
 20
0.0
 30
0.0
  9
$EXTMIN
 10
-18.045
 20
-37.5726
 30
0.0
  9
$EXTMAX
 10
18.045
 20
37.7962
 30
0.0
  9
$LIMMIN
 10
0.0
 20
0.0
  9
$LIMMAX
 10
12.0
 20
9.0
  9
$ORTHOMODE
 70
     0
  9
$REGENMODE
 70
     1
  9
$FILLMODE
 70
     1
  9
$QTEXTMODE
 70
     0
  9
$MIRRTEXT
 70
     1
  9
$DRAGMODE
 70
     2
  9
$LTSCALE
 40
1.0
  9
$OSMODE
 70
    37
  9
$ATTMODE
 70
     1
  9
$TEXTSIZE
 40
0.2
  9
$TRACEWID
 40
0.05
  9
$TEXTSTYLE
  7
STANDARD
  9
$CLAYER
  8
0
  9
$CELTYPE
  6
BYLAYER
  9
$CECOLOR
 62
   256
  9
$CELTSCALE
 40
1.0
  9
$DELOBJ
 70
     1
  9
$DISPSILH
 70
     0
  9
$DIMSCALE
 40
1.0
  9
$DIMASZ
 40
0.18
  9
$DIMEXO
 40
0.0625
  9
$DIMDLI
 40
0.38
  9
$DIMRND
 40
0.0
  9
$DIMDLE
 40
0.0
  9
$DIMEXE
 40
0.18
  9
$DIMTP
 40
0.0
  9
$DIMTM
 40
0.0
  9
$DIMTXT
 40
0.18
  9
$DIMCEN
 40
0.09
  9
$DIMTSZ
 40
0.0
  9
$DIMTOL
 70
     0
  9
$DIMLIM
 70
     0
  9
$DIMTIH
 70
     1
  9
$DIMTOH
 70
     1
  9
$DIMSE1
 70
     0
  9
$DIMSE2
 70
     0
  9
$DIMTAD
 70
     0
  9
$DIMZIN
 70
     0
  9
$DIMBLK
  1

  9
$DIMASO
 70
     1
  9
$DIMSHO
 70
     1
  9
$DIMPOST
  1

  9
$DIMAPOST
  1

  9
$DIMALT
 70
     0
  9
$DIMALTD
 70
     2
  9
$DIMALTF
 40
25.4
  9
$DIMLFAC
 40
1.0
  9
$DIMTOFL
 70
     0
  9
$DIMTVP
 40
0.0
  9
$DIMTIX
 70
     0
  9
$DIMSOXD
 70
     0
  9
$DIMSAH
 70
     0
  9
$DIMBLK1
  1

  9
$DIMBLK2
  1

  9
$DIMSTYLE
  2
STANDARD
  9
$DIMCLRD
 70
     0
  9
$DIMCLRE
 70
     0
  9
$DIMCLRT
 70
     0
  9
$DIMTFAC
 40
1.0
  9
$DIMGAP
 40
0.09
  9
$DIMJUST
 70
     0
  9
$DIMSD1
 70
     0
  9
$DIMSD2
 70
     0
  9
$DIMTOLJ
 70
     1
  9
$DIMTZIN
 70
     0
  9
$DIMALTZ
 70
     0
  9
$DIMALTTZ
 70
     0
  9
$DIMFIT
 70
     3
  9
$DIMUPT
 70
     0
  9
$DIMUNIT
 70
     2
  9
$DIMDEC
 70
     4
  9
$DIMTDEC
 70
     4
  9
$DIMALTU
 70
     2
  9
$DIMALTTD
 70
     2
  9
$DIMTXSTY
  7
STANDARD
  9
$DIMAUNIT
 70
     0
  9
$LUNITS
 70
     2
  9
$LUPREC
 70
     4
  9
$SKETCHINC
 40
0.1
  9
$FILLETRAD
 40
0.5
  9
$AUNITS
 70
     0
  9
$AUPREC
 70
     0
  9
$MENU
  1
.
  9
$ELEVATION
 40
0.0
  9
$PELEVATION
 40
0.0
  9
$THICKNESS
 40
0.0
  9
$LIMCHECK
 70
     0
  9
$CHAMFERA
 40
0.5
  9
$CHAMFERB
 40
0.5
  9
$CHAMFERC
 40
1.0
  9
$CHAMFERD
 40
0.0
  9
$SKPOLY
 70
     0
  9
$TDCREATE
 40
2456232.482898692
  9
$TDUPDATE
 40
2456232.482898704
  9
$TDINDWG
 40
0.0000000116
  9
$TDUSRTIMER
 40
0.0000000116
  9
$USRTIMER
 70
     1
  9
$ANGBASE
 50
0.0
  9
$ANGDIR
 70
     0
  9
$PDMODE
 70
     0
  9
$PDSIZE
 40
0.0
  9
$PLINEWID
 40
0.0
  9
$COORDS
 70
     1
  9
$SPLFRAME
 70
     0
  9
$SPLINETYPE
 70
     6
  9
$SPLINESEGS
 70
     8
  9
$ATTDIA
 70
     0
  9
$ATTREQ
 70
     1
  9
$HANDLING
 70
     1
  9
$HANDSEED
  5
162
  9
$SURFTAB1
 70
     6
  9
$SURFTAB2
 70
     6
  9
$SURFTYPE
 70
     6
  9
$SURFU
 70
     6
  9
$SURFV
 70
     6
  9
$UCSNAME
  2

  9
$UCSORG
 10
0.0
 20
0.0
 30
0.0
  9
$UCSXDIR
 10
1.0
 20
0.0
 30
0.0
  9
$UCSYDIR
 10
0.0
 20
1.0
 30
0.0
  9
$PUCSNAME
  2

  9
$PUCSORG
 10
0.0
 20
0.0
 30
0.0
  9
$PUCSXDIR
 10
1.0
 20
0.0
 30
0.0
  9
$PUCSYDIR
 10
0.0
 20
1.0
 30
0.0
  9
$USERI1
 70
     0
  9
$USERI2
 70
     0
  9
$USERI3
 70
     0
  9
$USERI4
 70
     0
  9
$USERI5
 70
     0
  9
$USERR1
 40
0.0
  9
$USERR2
 40
0.0
  9
$USERR3
 40
0.0
  9
$USERR4
 40
0.0
  9
$USERR5
 40
0.0
  9
$WORLDVIEW
 70
     1
  9
$SHADEDGE
 70
     3
  9
$SHADEDIF
 70
    70
  9
$TILEMODE
 70
     1
  9
$MAXACTVP
 70
    64
  9
$PINSBASE
 10
0.0
 20
0.0
 30
0.0
  9
$PLIMCHECK
 70
     0
  9
$PEXTMIN
 10
1.000000000000000E+20
 20
1.000000000000000E+20
 30
1.000000000000000E+20
  9
$PEXTMAX
 10
-1.000000000000000E+20
 20
-1.000000000000000E+20
 30
-1.000000000000000E+20
  9
$PLIMMIN
 10
0.0
 20
0.0
  9
$PLIMMAX
 10
12.0
 20
9.0
  9
$UNITMODE
 70
     0
  9
$VISRETAIN
 70
     1
  9
$PLINEGEN
 70
     0
  9
$PSLTSCALE
 70
     1
  9
$TREEDEPTH
 70
  3020
  9
$PICKSTYLE
 70
     1
  9
$CMLSTYLE
  2
STANDARD
  9
$CMLJUST
 70
     0
  9
$CMLSCALE
 40
1.0
  9
$PROXYGRAPHICS
 70
     1
  9
$MEASUREMENT
 70
     0
  0
ENDSEC
  0
SECTION
  2
CLASSES
  0
CLASS
  1
ACDBDICTIONARYWDFLT
  2
AcDbDictionaryWithDefault
  3
ObjectDBX Classes
 90
        0
280
     0
281
     0
  0
CLASS
  1
VISUALSTYLE
  2
AcDbVisualStyle
  3
ObjectDBX Classes
 90
     4095
280
     0
281
     0
  0
CLASS
  1
MATERIAL
  2
AcDbMaterial
  3
ObjectDBX Classes
 90
     1153
280
     0
281
     0
  0
CLASS
  1
DICTIONARYVAR
  2
AcDbDictionaryVar
  3
ObjectDBX Classes
 90
        0
280
     0
281
     0
  0
CLASS
  1
XRECORD
  2
AcDbXrecord
  3
AutoCAD 2000
 90
        0
280
     0
281
     0
  0
CLASS
  1
LWPOLYLINE
  2
AcDbPolyline
  3
AutoCAD 2000
 90
        0
280
     0
281
     1
  0
CLASS
  1
HATCH
  2
AcDbHatch
  3
AutoCAD 2000
 90
        0
280
     0
281
     1
  0
CLASS
  1
ACDBPLACEHOLDER
  2
AcDbPlaceHolder
  3
ObjectDBX Classes
 90
        0
280
     0
281
     0
  0
CLASS
  1
LAYOUT
  2
AcDbLayout
  3
ObjectDBX Classes
 90
        0
280
     0
281
     0
  0
ENDSEC
  0
SECTION
  2
TABLES
  0
TABLE
  2
VPORT
  5
8
330
0
100
AcDbSymbolTable
 70
     1
  0
VPORT
  5
29
330
8
100
AcDbSymbolTableRecord
100
AcDbViewportTableRecord
  2
*ACTIVE
 70
     0
 10
0.0
 20
0.0
 11
1.0
 21
1.0
 12
10.42990654205607
 22
4.5
 13
0.0
 23
0.0
 14
0.5
 24
0.5
 15
0.5
 25
0.5
 16
0.0
 26
0.0
 36
1.0
 17
0.0
 27
0.0
 37
0.0
 40
9.0
 41
1.972972972850329
 42
50.0
 43
0.0
 44
0.0
 50
0.0
 51
0.0
 71
     0
 72
   100
 73
     1
 74
     3
 75
     0
 76
     0
 77
     0
 78
     0
  0
ENDTAB
  0
TABLE
  2
LTYPE
  5
5
330
0
100
AcDbSymbolTable
 70
     4
  0
LTYPE
  5
14
330
5
100
AcDbSymbolTableRecord
100
AcDbLinetypeTableRecord
  2
BYBLOCK
 70
     0
  3

 72
    65
 73
     0
 40
0.0
  0
LTYPE
  5
15
330
5
100
AcDbSymbolTableRecord
100
AcDbLinetypeTableRecord
  2
BYLAYER
 70
     0
  3

 72
    65
 73
     0
 40
0.0
  0
LTYPE
  5
16
330
5
100
AcDbSymbolTableRecord
100
AcDbLinetypeTableRecord
  2
CONTINUOUS
 70
     0
  3
Solid line
 72
    65
 73
     0
 40
0.0
  0
LTYPE
  5
D4
330
5
100
AcDbSymbolTableRecord
100
AcDbLinetypeTableRecord
  2
NEW_LINE1
 70
     0
  3

 72
    65
 73
     4
 40
1.2
 49
0.5
 74
     4
 75
     0
340
0
 46
1.0
 50
0.0
 44
0.0
 45
0.0
 49
-0.3
 74
     4
 75
     0
340
0
 46
1.0
 50
0.0
 44
0.0
 45
0.0
 49
0.1
 74
     4
 75
     0
340
0
 46
1.0
 50
0.0
 44
0.0
 45
0.0
 49
-0.3
 74
     4
 75
     0
340
0
 46
1.0
 50
0.0
 44
0.0
 45
0.0
  0
LTYPE
  5
10A
330
5
100
AcDbSymbolTableRecord
100
AcDbLinetypeTableRecord
  2
NEW_LINE2
 70
     0
  3

 72
    65
 73
     4
 40
1.2
 49
0.5
 74
     4
 75
     0
340
0
 46
1.0
 50
0.0
 44
0.0
 45
0.0
 49
-0.3
 74
     4
 75
     0
340
0
 46
1.0
 50
0.0
 44
0.0
 45
0.0
 49
0.1
 74
     4
 75
     0
340
0
 46
1.0
 50
0.0
 44
0.0
 45
0.0
 49
-0.3
 74
     4
 75
     0
340
0
 46
1.0
 50
0.0
 44
0.0
 45
0.0
  0
LTYPE
  5
10C
330
5
100
AcDbSymbolTableRecord
100
AcDbLinetypeTableRecord
  2
NEW_LINE3
 70
     0
  3

 72
    65
 73
     4
 40
1.2
 49
0.5
 74
     4
 75
     0
340
0
 46
1.0
 50
0.0
 44
0.0
 45
0.0
 49
-0.3
 74
     4
 75
     0
340
0
 46
1.0
 50
0.0
 44
0.0
 45
0.0
 49
0.1
 74
     4
 75
     0
340
0
 46
1.0
 50
0.0
 44
0.0
 45
0.0
 49
-0.3
 74
     4
 75
     0
340
0
 46
1.0
 50
0.0
 44
0.0
 45
0.0
  0
ENDTAB
  0
TABLE
  2
LAYER
  5
2
330
0
100
AcDbSymbolTable
 70
     2
  0
LAYER
  5
10
330
2
100
AcDbSymbolTableRecord
100
AcDbLayerTableRecord
  2
0
 70
     0
 62
     7
  6
CONTINUOUS
  0
LAYER
  5
40
330
2
100
AcDbSymbolTableRecord
100
AcDbLayerTableRecord
  2
DEFAULT_1
 70
     0
 62
     7
  6
CONTINUOUS
  0
ENDTAB
  0
TABLE
  2
STYLE
  5
3
330
0
100
AcDbSymbolTable
 70
     1
  0
STYLE
  5
11
330
3
100
AcDbSymbolTableRecord
100
AcDbTextStyleTableRecord
  2
STANDARD
 70
     0
 40
0.0
 41
1.0
 50
0.0
 71
     0
 42
0.2
  3
txt
  4

  0
ENDTAB
  0
TABLE
  2
VIEW
  5
6
330
0
100
AcDbSymbolTable
 70
     0
  0
ENDTAB
  0
TABLE
  2
UCS
  5
7
330
0
100
AcDbSymbolTable
 70
     0
  0
ENDTAB
  0
TABLE
  2
APPID
  5
9
330
0
100
AcDbSymbolTable
 70
     2
  0
APPID
  5
12
330
9
100
AcDbSymbolTableRecord
100
AcDbRegAppTableRecord
  2
ACAD
 70
     0
  0
APPID
  5
3F
330
9
100
AcDbSymbolTableRecord
100
AcDbRegAppTableRecord
  2
ODA
 70
     0
  0
ENDTAB
  0
TABLE
  2
DIMSTYLE
  5
A
330
0
100
AcDbSymbolTable
 70
     1
  0
DIMSTYLE
105
27
330
A
100
AcDbSymbolTableRecord
100
AcDbDimStyleTableRecord
  2
STANDARD
 70
     0
  3

  4

  5

  6

  7

 40
1.0
 41
0.18
 42
0.0625
 43
0.38
 44
0.18
 45
0.0
 46
0.0
 47
0.0
 48
0.0
140
0.18
141
0.09
142
0.0
143
25.4
144
1.0
145
0.0
146
1.0
147
0.09
 71
     0
 72
     0
 73
     1
 74
     1
 75
     0
 76
     0
 77
     0
 78
     0
170
     0
171
     2
172
     0
173
     0
174
     0
175
     0
176
     0
177
     0
178
     0
270
     2
271
     4
272
     4
273
     2
274
     2
340
11
275
     0
280
     0
281
     0
282
     0
283
     1
284
     0
285
     0
286
     0
287
     3
288
     0
  0
ENDTAB
  0
TABLE
  2
BLOCK_RECORD
  5
1
330
0
100
AcDbSymbolTable
 70
     1
  0
BLOCK_RECORD
  5
1F
330
1
100
AcDbSymbolTableRecord
100
AcDbBlockTableRecord
  2
*MODEL_SPACE
  0
BLOCK_RECORD
  5
1B
330
1
100
AcDbSymbolTableRecord
100
AcDbBlockTableRecord
  2
*PAPER_SPACE
  0
ENDTAB
  0
ENDSEC
  0
SECTION
  2
BLOCKS
  0
BLOCK
  5
20
330
1F
100
AcDbEntity
  8
0
100
AcDbBlockBegin
  2
*MODEL_SPACE
 70
     0
 10
0.0
 20
0.0
 30
0.0
  3
*MODEL_SPACE
  1

  0
ENDBLK
  5
21
330
1F
100
AcDbEntity
  8
0
100
AcDbBlockEnd
  0
BLOCK
  5
1C
330
1B
100
AcDbEntity
 67
     1
  8
0
100
AcDbBlockBegin
  2
*PAPER_SPACE
 70
     0
 10
0.0
 20
0.0
 30
0.0
  3
*PAPER_SPACE
  1

  0
ENDBLK
  5
1D
330
1B
100
AcDbEntity
 67
     1
  8
0
100
AcDbBlockEnd
  0
ENDSEC
  0
SECTION
  2
ENTITIES
  0
SPLINE
  5
41
330
1F
100
AcDbEntity
  8
DEFAULT_1
 62
   250
100
AcDbSpline
210
0.0
220
0.0
230
1.0
 70
    24
 71
     3
 72
     8
 73
     4
 74
     0
 42
0.0000000001
 43
0.0000000001
 40
0.0
 40
0.0
 40
0.0
 40
0.0
 40
1.0
 40
1.0
 40
1.0
 40
1.0
 10
-5.548
 20
0.3345
 30
0.0
 10
-5.548
 20
0.3345
 30
0.0
 10
-5.548
 20
-4.6871
 30
0.0
 10
-5.548
 20
-4.6871
 30
0.0
  0
SPLINE
  5
42
330
1F
100
AcDbEntity
  8
DEFAULT_1
 62
   250
100
AcDbSpline
210
0.0
220
0.0
230
1.0
 70
    24
 71
     3
 72
     8
 73
     4
 74
     0
 42
0.0000000001
 43
0.0000000001
 40
0.0
 40
0.0
 40
0.0
 40
0.0
 40
1.0
 40
1.0
 40
1.0
 40
1.0
 10
12.4661
 20
0.3345
 30
0.0
 10
12.4661
 20
0.3345
 30
0.0
 10
12.4661
 20
-4.6871
 30
0.0
 10
12.4661
 20
-4.6871
 30
0.0
  0
SPLINE
  5
43
330
1F
100
AcDbEntity
  8
DEFAULT_1
 62
   250
100
AcDbSpline
210
0.0
220
0.0
230
1.0
 70
    24
 71
     3
 72
     8
 73
     4
 74
     0
 42
0.0000000001
 43
0.0000000001
 40
0.0
 40
0.0
 40
0.0
 40
0.0
 40
1.0
 40
1.0
 40
1.0
 40
1.0
 10
-8.7414
 20
-36.4895
 30
0.0
 10
-8.7414
 20
-36.4895
 30
0.0
 10
-14.2499
 20
-36.4895
 30
0.0
 10
-14.2499
 20
-36.4895
 30
0.0
  0
SPLINE
  5
44
330
1F
100
AcDbEntity
  8
DEFAULT_1
 62
   250
100
AcDbSpline
210
0.0
220
0.0
230
1.0
 70
    24
 71
     3
 72
     8
 73
     4
 74
     0
 42
0.0000000001
 43
0.0000000001
 40
0.0
 40
0.0
 40
0.0
 40
0.0
 40
1.0
 40
1.0
 40
1.0
 40
1.0
 10
-8.7414
 20
-11.9248
 30
0.0
 10
-8.7414
 20
-11.9248
 30
0.0
 10
-14.2499
 20
-11.9248
 30
0.0
 10
-14.2499
 20
-11.9248
 30
0.0
  0
SPLINE
  5
45
330
1F
100
AcDbEntity
  8
DEFAULT_1
 62
   250
100
AcDbSpline
210
0.0
220
0.0
230
1.0
 70
    24
 71
     3
 72
     8
 73
     4
 74
     0
 42
0.0000000001
 43
0.0000000001
 40
0.0
 40
0.0
 40
0.0
 40
0.0
 40
1.0
 40
1.0
 40
1.0
 40
1.0
 10
-8.8233
 20
-12.0067
 30
0.0
 10
-8.8233
 20
-12.0067
 30
0.0
 10
-8.8233
 20
-8.9938
 30
0.0
 10
-8.8233
 20
-8.9938
 30
0.0
  0
SPLINE
  5
46
330
1F
100
AcDbEntity
  8
DEFAULT_1
 62
   250
100
AcDbSpline
210
0.0
220
0.0
230
1.0
 70
    24
 71
     3
 72
     8
 73
     4
 74
     0
 42
0.0000000001
 43
0.0000000001
 40
0.0
 40
0.0
 40
0.0
 40
0.0
 40
1.0
 40
1.0
 40
1.0
 40
1.0
 10
15.7414
 20
-12.0067
 30
0.0
 10
15.7414
 20
-12.0067
 30
0.0
 10
15.7414
 20
-8.9938
 30
0.0
 10
15.7414
 20
-8.9938
 30
0.0
  0
SPLINE
  5
47
330
1F
100
AcDbEntity
  8
DEFAULT_1
 62
   250
100
AcDbSpline
210
0.0
220
0.0
230
1.0
 70
    24
 71
     3
 72
     8
 73
     4
 74
     0
 42
0.0000000001
 43
0.0000000001
 40
0.0
 40
0.0
 40
0.0
 40
0.0
 40
1.0
 40
1.0
 40
1.0
 40
1.0
 10
13.749
 20
-9.1575
 30
0.0
 10
13.749
 20
-9.1575
 30
0.0
 10
-8.3832
 20
-9.1575
 30
0.0
 10
-8.3832
 20
-9.1575
 30
0.0
  0
SPLINE
  5
48
330
1F
100
AcDbEntity
  8
DEFAULT_1
 62
   250
100
AcDbSpline
210
0.0
220
0.0
230
1.0
 70
    24
 71
     3
 72
     8
 73
     4
 74
     0
 42
0.0000000001
 43
0.0000000001
 40
0.0
 40
0.0
 40
0.0
 40
0.0
 40
1.0
 40
1.0
 40
1.0
 40
1.0
 10
-8.6595
 20
30.4672
 30
0.0
 10
-8.6595
 20
30.4672
 30
0.0
 10
-8.6595
 20
28.9933
 30
0.0
 10
-8.6595
 20
28.9933
 30
0.0
  0
SPLINE
  5
49
330
1F
100
AcDbEntity
  8
DEFAULT_1
 62
   250
100
AcDbSpline
210
0.0
220
0.0
230
1.0
 70
    24
 71
     3
 72
     8
 73
     4
 74
     0
 42
0.0000000001
 43
0.0000000001
 40
0.0
 40
0.0
 40
0.0
 40
0.0
 40
1.0
 40
1.0
 40
1.0
 40
1.0
 10
-8.6595
 20
28.3382
 30
0.0
 10
-8.6595
 20
28.3382
 30
0.0
 10
-8.6595
 20
27.6832
 30
0.0
 10
-8.6595
 20
27.6832
 30
0.0
  0
SPLINE
  5
4A
330
1F
100
AcDbEntity
  8
DEFAULT_1
 62
   250
100
AcDbSpline
210
0.0
220
0.0
230
1.0
 70
    24
 71
     3
 72
     8
 73
     4
 74
     0
 42
0.0000000001
 43
0.0000000001
 40
0.0
 40
0.0
 40
0.0
 40
0.0
 40
1.0
 40
1.0
 40
1.0
 40
1.0
 10
-8.6595
 20
27.0281
 30
0.0
 10
-8.6595
 20
27.0281
 30
0.0
 10
-8.6595
 20
26.5368
 30
0.0
 10
-8.6595
 20
26.5368
 30
0.0
  0
SPLINE
  5
4B
330
1F
100
AcDbEntity
  8
DEFAULT_1
 62
   250
100
AcDbSpline
210
0.0
220
0.0
230
1.0
 70
    24
 71
     3
 72
     8
 73
     4
 74
     0
 42
0.0000000001
 43
0.0000000001
 40
0.0
 40
0.0
 40
0.0
 40
0.0
 40
1.0
 40
1.0
 40
1.0
 40
1.0
 10
-8.1682
 20
21.9514
 30
0.0
 10
-8.1682
 20
21.9514
 30
0.0
 10
-8.1682
 20
20.6413
 30
0.0
 10
-8.1682
 20
20.6413
 30
0.0
  0
SPLINE
  5
4C
330
1F
100
AcDbEntity
  8
DEFAULT_1
 62
   250
100
AcDbSpline
210
0.0
220
0.0
230
1.0
 70
    24
 71
     3
 72
     8
 73
     4
 74
     0
 42
0.0000000001
 43
0.0000000001
 40
0.0
 40
0.0
 40
0.0
 40
0.0
 40
1.0
 40
1.0
 40
1.0
 40
1.0
 10
-8.1682
 20
20.6413
 30
0.0
 10
-8.1682
 20
20.6413
 30
0.0
 10
15.0864
 20
20.6413
 30
0.0
 10
15.0864
 20
20.6413
 30
0.0
  0
SPLINE
  5
4D
330
1F
100
AcDbEntity
  8
DEFAULT_1
 62
   250
100
AcDbSpline
210
0.0
220
0.0
230
1.0
 70
    24
 71
     3
 72
     8
 73
     4
 74
     0
 42
0.0000000001
 43
0.0000000001
 40
0.0
 40
0.0
 40
0.0
 40
0.0
 40
1.0
 40
1.0
 40
1.0
 40
1.0
 10
15.0864
 20
21.9514
 30
0.0
 10
15.0864
 20
21.9514
 30
0.0
 10
15.0864
 20
20.6413
 30
0.0
 10
15.0864
 20
20.6413
 30
0.0
  0
SPLINE
  5
4E
330
1F
100
AcDbEntity
  8
DEFAULT_1
 62
   250
100
AcDbSpline
210
0.0
220
0.0
230
1.0
 70
    24
 71
     3
 72
     8
 73
     4
 74
     0
 42
0.0000000001
 43
0.0000000001
 40
0.0
 40
0.0
 40
0.0
 40
0.0
 40
1.0
 40
1.0
 40
1.0
 40
1.0
 10
15.5777
 20
30.4672
 30
0.0
 10
15.5777
 20
30.4672
 30
0.0
 10
15.5777
 20
28.9933
 30
0.0
 10
15.5777
 20
28.9933
 30
0.0
  0
SPLINE
  5
4F
330
1F
100
AcDbEntity
  8
DEFAULT_1
 62
   250
100
AcDbSpline
210
0.0
220
0.0
230
1.0
 70
    24
 71
     3
 72
     8
 73
     4
 74
     0
 42
0.0000000001
 43
0.0000000001
 40
0.0
 40
0.0
 40
0.0
 40
0.0
 40
1.0
 40
1.0
 40
1.0
 40
1.0
 10
15.5777
 20
28.3382
 30
0.0
 10
15.5777
 20
28.3382
 30
0.0
 10
15.5777
 20
27.6832
 30
0.0
 10
15.5777
 20
27.6832
 30
0.0
  0
SPLINE
  5
50
330
1F
100
AcDbEntity
  8
DEFAULT_1
 62
   250
100
AcDbSpline
210
0.0
220
0.0
230
1.0
 70
    24
 71
     3
 72
     8
 73
     4
 74
     0
 42
0.0000000001
 43
0.0000000001
 40
0.0
 40
0.0
 40
0.0
 40
0.0
 40
1.0
 40
1.0
 40
1.0
 40
1.0
 10
15.5777
 20
27.0281
 30
0.0
 10
15.5777
 20
27.0281
 30
0.0
 10
15.5777
 20
26.5368
 30
0.0
 10
15.5777
 20
26.5368
 30
0.0
  0
SPLINE
  5
51
330
1F
100
AcDbEntity
  8
DEFAULT_1
 62
   250
100
AcDbSpline
210
0.0
220
0.0
230
1.0
 70
    24
 71
     3
 72
     8
 73
     4
 74
     0
 42
0.0000000001
 43
0.0000000001
 40
0.0
 40
0.0
 40
0.0
 40
0.0
 40
1.0
 40
1.0
 40
1.0
 40
1.0
 10
-6.6288
 20
-14.7907
 30
0.0
 10
-6.6288
 20
-14.7907
 30
0.0
 10
-6.6288
 20
-19.1305
 30
0.0
 10
-6.6288
 20
-19.1305
 30
0.0
  0
SPLINE
  5
52
330
1F
100
AcDbEntity
  8
DEFAULT_1
 62
   250
100
AcDbSpline
210
0.0
220
0.0
230
1.0
 70
    24
 71
     3
 72
     8
 73
     4
 74
     0
 42
0.0000000001
 43
0.0000000001
 40
0.0
 40
0.0
 40
0.0
 40
0.0
 40
1.0
 40
1.0
 40
1.0
 40
1.0
 10
-6.6288
 20
-21.9963
 30
0.0
 10
-6.6288
 20
-21.9963
 30
0.0
 10
-6.6288
 20
-26.3361
 30
0.0
 10
-6.6288
 20
-26.3361
 30
0.0
  0
SPLINE
  5
53
330
1F
100
AcDbEntity
  8
DEFAULT_1
 62
   250
100
AcDbSpline
210
0.0
220
0.0
230
1.0
 70
    24
 71
     3
 72
     8
 73
     4
 74
     0
 42
0.0000000001
 43
0.0000000001
 40
0.0
 40
0.0
 40
0.0
 40
0.0
 40
1.0
 40
1.0
 40
1.0
 40
1.0
 10
-6.6288
 20
-29.202
 30
0.0
 10
-6.6288
 20
-29.202
 30
0.0
 10
-6.6288
 20
-33.5418
 30
0.0
 10
-6.6288
 20
-33.5418
 30
0.0
  0
SPLINE
  5
54
330
1F
100
AcDbEntity
  8
DEFAULT_1
 62
   250
100
AcDbSpline
210
0.0
220
0.0
230
1.0
 70
    24
 71
     3
 72
     8
 73
     4
 74
     0
 42
0.0000000001
 43
0.0000000001
 40
0.0
 40
0.0
 40
0.0
 40
0.0
 40
1.0
 40
1.0
 40
1.0
 40
1.0
 10
-5.5643
 20
-33.5418
 30
0.0
 10
-5.5643
 20
-33.5418
 30
0.0
 10
-5.5643
 20
-29.202
 30
0.0
 10
-5.5643
 20
-29.202
 30
0.0
  0
SPLINE
  5
55
330
1F
100
AcDbEntity
  8
DEFAULT_1
 62
   250
100
AcDbSpline
210
0.0
220
0.0
230
1.0
 70
    24
 71
     3
 72
     8
 73
     4
 74
     0
 42
0.0000000001
 43
0.0000000001
 40
0.0
 40
0.0
 40
0.0
 40
0.0
 40
1.0
 40
1.0
 40
1.0
 40
1.0
 10
-5.5643
 20
-26.3361
 30
0.0
 10
-5.5643
 20
-26.3361
 30
0.0
 10
-5.5643
 20
-21.9963
 30
0.0
 10
-5.5643
 20
-21.9963
 30
0.0
  0
SPLINE
  5
56
330
1F
100
AcDbEntity
  8
DEFAULT_1
 62
   250
100
AcDbSpline
210
0.0
220
0.0
230
1.0
 70
    24
 71
     3
 72
     8
 73
     4
 74
     0
 42
0.0000000001
 43
0.0000000001
 40
0.0
 40
0.0
 40
0.0
 40
0.0
 40
1.0
 40
1.0
 40
1.0
 40
1.0
 10
-5.5643
 20
-19.1305
 30
0.0
 10
-5.5643
 20
-19.1305
 30
0.0
 10
-5.5643
 20
-14.7907
 30
0.0
 10
-5.5643
 20
-14.7907
 30
0.0
  0
SPLINE
  5
57
330
1F
100
AcDbEntity
  8
DEFAULT_1
 62
   250
100
AcDbSpline
210
0.0
220
0.0
230
1.0
 70
    24
 71
     3
 72
     8
 73
     4
 74
     0
 42
0.0000000001
 43
0.0000000001
 40
0.0
 40
0.0
 40
0.0
 40
0.0
 40
1.0
 40
1.0
 40
1.0
 40
1.0
 10
-4.2215
 20
-14.7907
 30
0.0
 10
-4.2215
 20
-14.7907
 30
0.0
 10
-4.2215
 20
-19.1305
 30
0.0
 10
-4.2215
 20
-19.1305
 30
0.0
  0
SPLINE
  5
58
330
1F
100
AcDbEntity
  8
DEFAULT_1
 62
   250
100
AcDbSpline
210
0.0
220
0.0
230
1.0
 70
    24
 71
     3
 72
     8
 73
     4
 74
     0
 42
0.0000000001
 43
0.0000000001
 40
0.0
 40
0.0
 40
0.0
 40
0.0
 40
1.0
 40
1.0
 40
1.0
 40
1.0
 10
-4.2215
 20
-21.9963
 30
0.0
 10
-4.2215
 20
-21.9963
 30
0.0
 10
-4.2215
 20
-26.3361
 30
0.0
 10
-4.2215
 20
-26.3361
 30
0.0
  0
SPLINE
  5
59
330
1F
100
AcDbEntity
  8
DEFAULT_1
 62
   250
100
AcDbSpline
210
0.0
220
0.0
230
1.0
 70
    24
 71
     3
 72
     8
 73
     4
 74
     0
 42
0.0000000001
 43
0.0000000001
 40
0.0
 40
0.0
 40
0.0
 40
0.0
 40
1.0
 40
1.0
 40
1.0
 40
1.0
 10
-4.2215
 20
-29.202
 30
0.0
 10
-4.2215
 20
-29.202
 30
0.0
 10
-4.2215
 20
-33.5418
 30
0.0
 10
-4.2215
 20
-33.5418
 30
0.0
  0
SPLINE
  5
5A
330
1F
100
AcDbEntity
  8
DEFAULT_1
 62
   250
100
AcDbSpline
210
0.0
220
0.0
230
1.0
 70
    24
 71
     3
 72
     8
 73
     4
 74
     0
 42
0.0000000001
 43
0.0000000001
 40
0.0
 40
0.0
 40
0.0
 40
0.0
 40
1.0
 40
1.0
 40
1.0
 40
1.0
 10
-3.157
 20
-33.5418
 30
0.0
 10
-3.157
 20
-33.5418
 30
0.0
 10
-3.157
 20
-29.202
 30
0.0
 10
-3.157
 20
-29.202
 30
0.0
  0
SPLINE
  5
5B
330
1F
100
AcDbEntity
  8
DEFAULT_1
 62
   250
100
AcDbSpline
210
0.0
220
0.0
230
1.0
 70
    24
 71
     3
 72
     8
 73
     4
 74
     0
 42
0.0000000001
 43
0.0000000001
 40
0.0
 40
0.0
 40
0.0
 40
0.0
 40
1.0
 40
1.0
 40
1.0
 40
1.0
 10
-3.157
 20
-26.3361
 30
0.0
 10
-3.157
 20
-26.3361
 30
0.0
 10
-3.157
 20
-21.9963
 30
0.0
 10
-3.157
 20
-21.9963
 30
0.0
  0
SPLINE
  5
5C
330
1F
100
AcDbEntity
  8
DEFAULT_1
 62
   250
100
AcDbSpline
210
0.0
220
0.0
230
1.0
 70
    24
 71
     3
 72
     8
 73
     4
 74
     0
 42
0.0000000001
 43
0.0000000001
 40
0.0
 40
0.0
 40
0.0
 40
0.0
 40
1.0
 40
1.0
 40
1.0
 40
1.0
 10
-3.157
 20
-19.1305
 30
0.0
 10
-3.157
 20
-19.1305
 30
0.0
 10
-3.157
 20
-14.7907
 30
0.0
 10
-3.157
 20
-14.7907
 30
0.0
  0
SPLINE
  5
5D
330
1F
100
AcDbEntity
  8
DEFAULT_1
 62
   250
100
AcDbSpline
210
0.0
220
0.0
230
1.0
 70
    24
 71
     3
 72
     8
 73
     4
 74
     0
 42
0.0000000001
 43
0.0000000001
 40
0.0
 40
0.0
 40
0.0
 40
0.0
 40
1.0
 40
1.0
 40
1.0
 40
1.0
 10
-1.8141
 20
-14.7907
 30
0.0
 10
-1.8141
 20
-14.7907
 30
0.0
 10
-1.8141
 20
-19.1305
 30
0.0
 10
-1.8141
 20
-19.1305
 30
0.0
  0
SPLINE
  5
5E
330
1F
100
AcDbEntity
  8
DEFAULT_1
 62
   250
100
AcDbSpline
210
0.0
220
0.0
230
1.0
 70
    24
 71
     3
 72
     8
 73
     4
 74
     0
 42
0.0000000001
 43
0.0000000001
 40
0.0
 40
0.0
 40
0.0
 40
0.0
 40
1.0
 40
1.0
 40
1.0
 40
1.0
 10
-1.8141
 20
-21.9963
 30
0.0
 10
-1.8141
 20
-21.9963
 30
0.0
 10
-1.8141
 20
-26.3361
 30
0.0
 10
-1.8141
 20
-26.3361
 30
0.0
  0
SPLINE
  5
5F
330
1F
100
AcDbEntity
  8
DEFAULT_1
 62
   250
100
AcDbSpline
210
0.0
220
0.0
230
1.0
 70
    24
 71
     3
 72
     8
 73
     4
 74
     0
 42
0.0000000001
 43
0.0000000001
 40
0.0
 40
0.0
 40
0.0
 40
0.0
 40
1.0
 40
1.0
 40
1.0
 40
1.0
 10
-1.8141
 20
-29.202
 30
0.0
 10
-1.8141
 20
-29.202
 30
0.0
 10
-1.8141
 20
-33.5418
 30
0.0
 10
-1.8141
 20
-33.5418
 30
0.0
  0
SPLINE
  5
60
330
1F
100
AcDbEntity
  8
DEFAULT_1
 62
   250
100
AcDbSpline
210
0.0
220
0.0
230
1.0
 70
    24
 71
     3
 72
     8
 73
     4
 74
     0
 42
0.0000000001
 43
0.0000000001
 40
0.0
 40
0.0
 40
0.0
 40
0.0
 40
1.0
 40
1.0
 40
1.0
 40
1.0
 10
-0.7497
 20
-33.5418
 30
0.0
 10
-0.7497
 20
-33.5418
 30
0.0
 10
-0.7497
 20
-29.202
 30
0.0
 10
-0.7497
 20
-29.202
 30
0.0
  0
SPLINE
  5
61
330
1F
100
AcDbEntity
  8
DEFAULT_1
 62
   250
100
AcDbSpline
210
0.0
220
0.0
230
1.0
 70
    24
 71
     3
 72
     8
 73
     4
 74
     0
 42
0.0000000001
 43
0.0000000001
 40
0.0
 40
0.0
 40
0.0
 40
0.0
 40
1.0
 40
1.0
 40
1.0
 40
1.0
 10
-0.7497
 20
-26.3361
 30
0.0
 10
-0.7497
 20
-26.3361
 30
0.0
 10
-0.7497
 20
-21.9963
 30
0.0
 10
-0.7497
 20
-21.9963
 30
0.0
  0
SPLINE
  5
62
330
1F
100
AcDbEntity
  8
DEFAULT_1
 62
   250
100
AcDbSpline
210
0.0
220
0.0
230
1.0
 70
    24
 71
     3
 72
     8
 73
     4
 74
     0
 42
0.0000000001
 43
0.0000000001
 40
0.0
 40
0.0
 40
0.0
 40
0.0
 40
1.0
 40
1.0
 40
1.0
 40
1.0
 10
-0.7497
 20
-19.1305
 30
0.0
 10
-0.7497
 20
-19.1305
 30
0.0
 10
-0.7497
 20
-14.7907
 30
0.0
 10
-0.7497
 20
-14.7907
 30
0.0
  0
SPLINE
  5
63
330
1F
100
AcDbEntity
  8
DEFAULT_1
 62
   250
100
AcDbSpline
210
0.0
220
0.0
230
1.0
 70
    24
 71
     3
 72
     8
 73
     4
 74
     0
 42
0.0000000001
 43
0.0000000001
 40
0.0
 40
0.0
 40
0.0
 40
0.0
 40
1.0
 40
1.0
 40
1.0
 40
1.0
 10
0.5932
 20
-14.7907
 30
0.0
 10
0.5932
 20
-14.7907
 30
0.0
 10
0.5932
 20
-19.1305
 30
0.0
 10
0.5932
 20
-19.1305
 30
0.0
  0
SPLINE
  5
64
330
1F
100
AcDbEntity
  8
DEFAULT_1
 62
   250
100
AcDbSpline
210
0.0
220
0.0
230
1.0
 70
    24
 71
     3
 72
     8
 73
     4
 74
     0
 42
0.0000000001
 43
0.0000000001
 40
0.0
 40
0.0
 40
0.0
 40
0.0
 40
1.0
 40
1.0
 40
1.0
 40
1.0
 10
0.5932
 20
-21.9963
 30
0.0
 10
0.5932
 20
-21.9963
 30
0.0
 10
0.5932
 20
-26.3361
 30
0.0
 10
0.5932
 20
-26.3361
 30
0.0
  0
SPLINE
  5
65
330
1F
100
AcDbEntity
  8
DEFAULT_1
 62
   250
100
AcDbSpline
210
0.0
220
0.0
230
1.0
 70
    24
 71
     3
 72
     8
 73
     4
 74
     0
 42
0.0000000001
 43
0.0000000001
 40
0.0
 40
0.0
 40
0.0
 40
0.0
 40
1.0
 40
1.0
 40
1.0
 40
1.0
 10
0.5932
 20
-29.202
 30
0.0
 10
0.5932
 20
-29.202
 30
0.0
 10
0.5932
 20
-33.5418
 30
0.0
 10
0.5932
 20
-33.5418
 30
0.0
  0
SPLINE
  5
66
330
1F
100
AcDbEntity
  8
DEFAULT_1
 62
   250
100
AcDbSpline
210
0.0
220
0.0
230
1.0
 70
    24
 71
     3
 72
     8
 73
     4
 74
     0
 42
0.0000000001
 43
0.0000000001
 40
0.0
 40
0.0
 40
0.0
 40
0.0
 40
1.0
 40
1.0
 40
1.0
 40
1.0
 10
1.6577
 20
-33.5418
 30
0.0
 10
1.6577
 20
-33.5418
 30
0.0
 10
1.6577
 20
-29.202
 30
0.0
 10
1.6577
 20
-29.202
 30
0.0
  0
SPLINE
  5
67
330
1F
100
AcDbEntity
  8
DEFAULT_1
 62
   250
100
AcDbSpline
210
0.0
220
0.0
230
1.0
 70
    24
 71
     3
 72
     8
 73
     4
 74
     0
 42
0.0000000001
 43
0.0000000001
 40
0.0
 40
0.0
 40
0.0
 40
0.0
 40
1.0
 40
1.0
 40
1.0
 40
1.0
 10
1.6577
 20
-26.3361
 30
0.0
 10
1.6577
 20
-26.3361
 30
0.0
 10
1.6577
 20
-21.9963
 30
0.0
 10
1.6577
 20
-21.9963
 30
0.0
  0
SPLINE
  5
68
330
1F
100
AcDbEntity
  8
DEFAULT_1
 62
   250
100
AcDbSpline
210
0.0
220
0.0
230
1.0
 70
    24
 71
     3
 72
     8
 73
     4
 74
     0
 42
0.0000000001
 43
0.0000000001
 40
0.0
 40
0.0
 40
0.0
 40
0.0
 40
1.0
 40
1.0
 40
1.0
 40
1.0
 10
1.6577
 20
-19.1305
 30
0.0
 10
1.6577
 20
-19.1305
 30
0.0
 10
1.6577
 20
-14.7907
 30
0.0
 10
1.6577
 20
-14.7907
 30
0.0
  0
SPLINE
  5
69
330
1F
100
AcDbEntity
  8
DEFAULT_1
 62
   250
100
AcDbSpline
210
0.0
220
0.0
230
1.0
 70
    24
 71
     3
 72
     8
 73
     4
 74
     0
 42
0.0000000001
 43
0.0000000001
 40
0.0
 40
0.0
 40
0.0
 40
0.0
 40
1.0
 40
1.0
 40
1.0
 40
1.0
 10
3.0006
 20
-14.7907
 30
0.0
 10
3.0006
 20
-14.7907
 30
0.0
 10
3.0006
 20
-19.1305
 30
0.0
 10
3.0006
 20
-19.1305
 30
0.0
  0
SPLINE
  5
6A
330
1F
100
AcDbEntity
  8
DEFAULT_1
 62
   250
100
AcDbSpline
210
0.0
220
0.0
230
1.0
 70
    24
 71
     3
 72
     8
 73
     4
 74
     0
 42
0.0000000001
 43
0.0000000001
 40
0.0
 40
0.0
 40
0.0
 40
0.0
 40
1.0
 40
1.0
 40
1.0
 40
1.0
 10
3.0006
 20
-21.9963
 30
0.0
 10
3.0006
 20
-21.9963
 30
0.0
 10
3.0006
 20
-26.3361
 30
0.0
 10
3.0006
 20
-26.3361
 30
0.0
  0
SPLINE
  5
6B
330
1F
100
AcDbEntity
  8
DEFAULT_1
 62
   250
100
AcDbSpline
210
0.0
220
0.0
230
1.0
 70
    24
 71
     3
 72
     8
 73
     4
 74
     0
 42
0.0000000001
 43
0.0000000001
 40
0.0
 40
0.0
 40
0.0
 40
0.0
 40
1.0
 40
1.0
 40
1.0
 40
1.0
 10
3.0006
 20
-29.202
 30
0.0
 10
3.0006
 20
-29.202
 30
0.0
 10
3.0006
 20
-33.5418
 30
0.0
 10
3.0006
 20
-33.5418
 30
0.0
  0
SPLINE
  5
6C
330
1F
100
AcDbEntity
  8
DEFAULT_1
 62
   250
100
AcDbSpline
210
0.0
220
0.0
230
1.0
 70
    24
 71
     3
 72
     8
 73
     4
 74
     0
 42
0.0000000001
 43
0.0000000001
 40
0.0
 40
0.0
 40
0.0
 40
0.0
 40
1.0
 40
1.0
 40
1.0
 40
1.0
 10
4.065
 20
-33.5418
 30
0.0
 10
4.065
 20
-33.5418
 30
0.0
 10
4.065
 20
-29.202
 30
0.0
 10
4.065
 20
-29.202
 30
0.0
  0
SPLINE
  5
6D
330
1F
100
AcDbEntity
  8
DEFAULT_1
 62
   250
100
AcDbSpline
210
0.0
220
0.0
230
1.0
 70
    24
 71
     3
 72
     8
 73
     4
 74
     0
 42
0.0000000001
 43
0.0000000001
 40
0.0
 40
0.0
 40
0.0
 40
0.0
 40
1.0
 40
1.0
 40
1.0
 40
1.0
 10
4.065
 20
-26.3361
 30
0.0
 10
4.065
 20
-26.3361
 30
0.0
 10
4.065
 20
-21.9963
 30
0.0
 10
4.065
 20
-21.9963
 30
0.0
  0
SPLINE
  5
6E
330
1F
100
AcDbEntity
  8
DEFAULT_1
 62
   250
100
AcDbSpline
210
0.0
220
0.0
230
1.0
 70
    24
 71
     3
 72
     8
 73
     4
 74
     0
 42
0.0000000001
 43
0.0000000001
 40
0.0
 40
0.0
 40
0.0
 40
0.0
 40
1.0
 40
1.0
 40
1.0
 40
1.0
 10
4.065
 20
-19.1305
 30
0.0
 10
4.065
 20
-19.1305
 30
0.0
 10
4.065
 20
-14.7907
 30
0.0
 10
4.065
 20
-14.7907
 30
0.0
  0
SPLINE
  5
6F
330
1F
100
AcDbEntity
  8
DEFAULT_1
 62
   250
100
AcDbSpline
210
0.0
220
0.0
230
1.0
 70
    24
 71
     3
 72
     8
 73
     4
 74
     0
 42
0.0000000001
 43
0.0000000001
 40
0.0
 40
0.0
 40
0.0
 40
0.0
 40
1.0
 40
1.0
 40
1.0
 40
1.0
 10
5.4079
 20
-14.7907
 30
0.0
 10
5.4079
 20
-14.7907
 30
0.0
 10
5.4079
 20
-19.1305
 30
0.0
 10
5.4079
 20
-19.1305
 30
0.0
  0
SPLINE
  5
70
330
1F
100
AcDbEntity
  8
DEFAULT_1
 62
   250
100
AcDbSpline
210
0.0
220
0.0
230
1.0
 70
    24
 71
     3
 72
     8
 73
     4
 74
     0
 42
0.0000000001
 43
0.0000000001
 40
0.0
 40
0.0
 40
0.0
 40
0.0
 40
1.0
 40
1.0
 40
1.0
 40
1.0
 10
5.4079
 20
-21.9963
 30
0.0
 10
5.4079
 20
-21.9963
 30
0.0
 10
5.4079
 20
-26.3361
 30
0.0
 10
5.4079
 20
-26.3361
 30
0.0
  0
SPLINE
  5
71
330
1F
100
AcDbEntity
  8
DEFAULT_1
 62
   250
100
AcDbSpline
210
0.0
220
0.0
230
1.0
 70
    24
 71
     3
 72
     8
 73
     4
 74
     0
 42
0.0000000001
 43
0.0000000001
 40
0.0
 40
0.0
 40
0.0
 40
0.0
 40
1.0
 40
1.0
 40
1.0
 40
1.0
 10
5.4079
 20
-29.202
 30
0.0
 10
5.4079
 20
-29.202
 30
0.0
 10
5.4079
 20
-33.5418
 30
0.0
 10
5.4079
 20
-33.5418
 30
0.0
  0
SPLINE
  5
72
330
1F
100
AcDbEntity
  8
DEFAULT_1
 62
   250
100
AcDbSpline
210
0.0
220
0.0
230
1.0
 70
    24
 71
     3
 72
     8
 73
     4
 74
     0
 42
0.0000000001
 43
0.0000000001
 40
0.0
 40
0.0
 40
0.0
 40
0.0
 40
1.0
 40
1.0
 40
1.0
 40
1.0
 10
6.4724
 20
-33.5418
 30
0.0
 10
6.4724
 20
-33.5418
 30
0.0
 10
6.4724
 20
-29.202
 30
0.0
 10
6.4724
 20
-29.202
 30
0.0
  0
SPLINE
  5
73
330
1F
100
AcDbEntity
  8
DEFAULT_1
 62
   250
100
AcDbSpline
210
0.0
220
0.0
230
1.0
 70
    24
 71
     3
 72
     8
 73
     4
 74
     0
 42
0.0000000001
 43
0.0000000001
 40
0.0
 40
0.0
 40
0.0
 40
0.0
 40
1.0
 40
1.0
 40
1.0
 40
1.0
 10
6.4724
 20
-26.3361
 30
0.0
 10
6.4724
 20
-26.3361
 30
0.0
 10
6.4724
 20
-21.9963
 30
0.0
 10
6.4724
 20
-21.9963
 30
0.0
  0
SPLINE
  5
74
330
1F
100
AcDbEntity
  8
DEFAULT_1
 62
   250
100
AcDbSpline
210
0.0
220
0.0
230
1.0
 70
    24
 71
     3
 72
     8
 73
     4
 74
     0
 42
0.0000000001
 43
0.0000000001
 40
0.0
 40
0.0
 40
0.0
 40
0.0
 40
1.0
 40
1.0
 40
1.0
 40
1.0
 10
6.4724
 20
-19.1305
 30
0.0
 10
6.4724
 20
-19.1305
 30
0.0
 10
6.4724
 20
-14.7907
 30
0.0
 10
6.4724
 20
-14.7907
 30
0.0
  0
SPLINE
  5
75
330
1F
100
AcDbEntity
  8
DEFAULT_1
 62
   250
100
AcDbSpline
210
0.0
220
0.0
230
1.0
 70
    24
 71
     3
 72
     8
 73
     4
 74
     0
 42
0.0000000001
 43
0.0000000001
 40
0.0
 40
0.0
 40
0.0
 40
0.0
 40
1.0
 40
1.0
 40
1.0
 40
1.0
 10
7.8152
 20
-14.7907
 30
0.0
 10
7.8152
 20
-14.7907
 30
0.0
 10
7.8152
 20
-19.1305
 30
0.0
 10
7.8152
 20
-19.1305
 30
0.0
  0
SPLINE
  5
76
330
1F
100
AcDbEntity
  8
DEFAULT_1
 62
   250
100
AcDbSpline
210
0.0
220
0.0
230
1.0
 70
    24
 71
     3
 72
     8
 73
     4
 74
     0
 42
0.0000000001
 43
0.0000000001
 40
0.0
 40
0.0
 40
0.0
 40
0.0
 40
1.0
 40
1.0
 40
1.0
 40
1.0
 10
7.8152
 20
-21.9963
 30
0.0
 10
7.8152
 20
-21.9963
 30
0.0
 10
7.8152
 20
-26.3361
 30
0.0
 10
7.8152
 20
-26.3361
 30
0.0
  0
SPLINE
  5
77
330
1F
100
AcDbEntity
  8
DEFAULT_1
 62
   250
100
AcDbSpline
210
0.0
220
0.0
230
1.0
 70
    24
 71
     3
 72
     8
 73
     4
 74
     0
 42
0.0000000001
 43
0.0000000001
 40
0.0
 40
0.0
 40
0.0
 40
0.0
 40
1.0
 40
1.0
 40
1.0
 40
1.0
 10
7.8152
 20
-29.202
 30
0.0
 10
7.8152
 20
-29.202
 30
0.0
 10
7.8152
 20
-33.5418
 30
0.0
 10
7.8152
 20
-33.5418
 30
0.0
  0
SPLINE
  5
78
330
1F
100
AcDbEntity
  8
DEFAULT_1
 62
   250
100
AcDbSpline
210
0.0
220
0.0
230
1.0
 70
    24
 71
     3
 72
     8
 73
     4
 74
     0
 42
0.0000000001
 43
0.0000000001
 40
0.0
 40
0.0
 40
0.0
 40
0.0
 40
1.0
 40
1.0
 40
1.0
 40
1.0
 10
8.8797
 20
-33.5418
 30
0.0
 10
8.8797
 20
-33.5418
 30
0.0
 10
8.8797
 20
-29.202
 30
0.0
 10
8.8797
 20
-29.202
 30
0.0
  0
SPLINE
  5
79
330
1F
100
AcDbEntity
  8
DEFAULT_1
 62
   250
100
AcDbSpline
210
0.0
220
0.0
230
1.0
 70
    24
 71
     3
 72
     8
 73
     4
 74
     0
 42
0.0000000001
 43
0.0000000001
 40
0.0
 40
0.0
 40
0.0
 40
0.0
 40
1.0
 40
1.0
 40
1.0
 40
1.0
 10
8.8797
 20
-26.3361
 30
0.0
 10
8.8797
 20
-26.3361
 30
0.0
 10
8.8797
 20
-21.9963
 30
0.0
 10
8.8797
 20
-21.9963
 30
0.0
  0
SPLINE
  5
7A
330
1F
100
AcDbEntity
  8
DEFAULT_1
 62
   250
100
AcDbSpline
210
0.0
220
0.0
230
1.0
 70
    24
 71
     3
 72
     8
 73
     4
 74
     0
 42
0.0000000001
 43
0.0000000001
 40
0.0
 40
0.0
 40
0.0
 40
0.0
 40
1.0
 40
1.0
 40
1.0
 40
1.0
 10
8.8797
 20
-19.1305
 30
0.0
 10
8.8797
 20
-19.1305
 30
0.0
 10
8.8797
 20
-14.7907
 30
0.0
 10
8.8797
 20
-14.7907
 30
0.0
  0
SPLINE
  5
7B
330
1F
100
AcDbEntity
  8
DEFAULT_1
 62
   250
100
AcDbSpline
210
0.0
220
0.0
230
1.0
 70
    24
 71
     3
 72
     8
 73
     4
 74
     0
 42
0.0000000001
 43
0.0000000001
 40
0.0
 40
0.0
 40
0.0
 40
0.0
 40
1.0
 40
1.0
 40
1.0
 40
1.0
 10
10.2225
 20
-14.7907
 30
0.0
 10
10.2225
 20
-14.7907
 30
0.0
 10
10.2225
 20
-19.1305
 30
0.0
 10
10.2225
 20
-19.1305
 30
0.0
  0
SPLINE
  5
7C
330
1F
100
AcDbEntity
  8
DEFAULT_1
 62
   250
100
AcDbSpline
210
0.0
220
0.0
230
1.0
 70
    24
 71
     3
 72
     8
 73
     4
 74
     0
 42
0.0000000001
 43
0.0000000001
 40
0.0
 40
0.0
 40
0.0
 40
0.0
 40
1.0
 40
1.0
 40
1.0
 40
1.0
 10
10.2225
 20
-21.9963
 30
0.0
 10
10.2225
 20
-21.9963
 30
0.0
 10
10.2225
 20
-26.3361
 30
0.0
 10
10.2225
 20
-26.3361
 30
0.0
  0
SPLINE
  5
7D
330
1F
100
AcDbEntity
  8
DEFAULT_1
 62
   250
100
AcDbSpline
210
0.0
220
0.0
230
1.0
 70
    24
 71
     3
 72
     8
 73
     4
 74
     0
 42
0.0000000001
 43
0.0000000001
 40
0.0
 40
0.0
 40
0.0
 40
0.0
 40
1.0
 40
1.0
 40
1.0
 40
1.0
 10
10.2225
 20
-29.202
 30
0.0
 10
10.2225
 20
-29.202
 30
0.0
 10
10.2225
 20
-33.5418
 30
0.0
 10
10.2225
 20
-33.5418
 30
0.0
  0
SPLINE
  5
7E
330
1F
100
AcDbEntity
  8
DEFAULT_1
 62
   250
100
AcDbSpline
210
0.0
220
0.0
230
1.0
 70
    24
 71
     3
 72
     8
 73
     4
 74
     0
 42
0.0000000001
 43
0.0000000001
 40
0.0
 40
0.0
 40
0.0
 40
0.0
 40
1.0
 40
1.0
 40
1.0
 40
1.0
 10
11.287
 20
-33.5418
 30
0.0
 10
11.287
 20
-33.5418
 30
0.0
 10
11.287
 20
-29.202
 30
0.0
 10
11.287
 20
-29.202
 30
0.0
  0
SPLINE
  5
7F
330
1F
100
AcDbEntity
  8
DEFAULT_1
 62
   250
100
AcDbSpline
210
0.0
220
0.0
230
1.0
 70
    24
 71
     3
 72
     8
 73
     4
 74
     0
 42
0.0000000001
 43
0.0000000001
 40
0.0
 40
0.0
 40
0.0
 40
0.0
 40
1.0
 40
1.0
 40
1.0
 40
1.0
 10
11.287
 20
-26.3361
 30
0.0
 10
11.287
 20
-26.3361
 30
0.0
 10
11.287
 20
-21.9963
 30
0.0
 10
11.287
 20
-21.9963
 30
0.0
  0
SPLINE
  5
80
330
1F
100
AcDbEntity
  8
DEFAULT_1
 62
   250
100
AcDbSpline
210
0.0
220
0.0
230
1.0
 70
    24
 71
     3
 72
     8
 73
     4
 74
     0
 42
0.0000000001
 43
0.0000000001
 40
0.0
 40
0.0
 40
0.0
 40
0.0
 40
1.0
 40
1.0
 40
1.0
 40
1.0
 10
11.287
 20
-19.1305
 30
0.0
 10
11.287
 20
-19.1305
 30
0.0
 10
11.287
 20
-14.7907
 30
0.0
 10
11.287
 20
-14.7907
 30
0.0
  0
SPLINE
  5
81
330
1F
100
AcDbEntity
  8
DEFAULT_1
 62
   250
100
AcDbSpline
210
0.0
220
0.0
230
1.0
 70
    24
 71
     3
 72
     8
 73
     4
 74
     0
 42
0.0000000001
 43
0.0000000001
 40
0.0
 40
0.0
 40
0.0
 40
0.0
 40
1.0
 40
1.0
 40
1.0
 40
1.0
 10
12.6299
 20
-14.7907
 30
0.0
 10
12.6299
 20
-14.7907
 30
0.0
 10
12.6299
 20
-19.1305
 30
0.0
 10
12.6299
 20
-19.1305
 30
0.0
  0
SPLINE
  5
82
330
1F
100
AcDbEntity
  8
DEFAULT_1
 62
   250
100
AcDbSpline
210
0.0
220
0.0
230
1.0
 70
    24
 71
     3
 72
     8
 73
     4
 74
     0
 42
0.0000000001
 43
0.0000000001
 40
0.0
 40
0.0
 40
0.0
 40
0.0
 40
1.0
 40
1.0
 40
1.0
 40
1.0
 10
12.6299
 20
-21.9963
 30
0.0
 10
12.6299
 20
-21.9963
 30
0.0
 10
12.6299
 20
-26.3361
 30
0.0
 10
12.6299
 20
-26.3361
 30
0.0
  0
SPLINE
  5
83
330
1F
100
AcDbEntity
  8
DEFAULT_1
 62
   250
100
AcDbSpline
210
0.0
220
0.0
230
1.0
 70
    24
 71
     3
 72
     8
 73
     4
 74
     0
 42
0.0000000001
 43
0.0000000001
 40
0.0
 40
0.0
 40
0.0
 40
0.0
 40
1.0
 40
1.0
 40
1.0
 40
1.0
 10
12.6299
 20
-29.202
 30
0.0
 10
12.6299
 20
-29.202
 30
0.0
 10
12.6299
 20
-33.5418
 30
0.0
 10
12.6299
 20
-33.5418
 30
0.0
  0
SPLINE
  5
84
330
1F
100
AcDbEntity
  8
DEFAULT_1
 62
   250
100
AcDbSpline
210
0.0
220
0.0
230
1.0
 70
    24
 71
     3
 72
     8
 73
     4
 74
     0
 42
0.0000000001
 43
0.0000000001
 40
0.0
 40
0.0
 40
0.0
 40
0.0
 40
1.0
 40
1.0
 40
1.0
 40
1.0
 10
13.6944
 20
-33.5418
 30
0.0
 10
13.6944
 20
-33.5418
 30
0.0
 10
13.6944
 20
-29.202
 30
0.0
 10
13.6944
 20
-29.202
 30
0.0
  0
SPLINE
  5
85
330
1F
100
AcDbEntity
  8
DEFAULT_1
 62
   250
100
AcDbSpline
210
0.0
220
0.0
230
1.0
 70
    24
 71
     3
 72
     8
 73
     4
 74
     0
 42
0.0000000001
 43
0.0000000001
 40
0.0
 40
0.0
 40
0.0
 40
0.0
 40
1.0
 40
1.0
 40
1.0
 40
1.0
 10
13.6944
 20
-26.3361
 30
0.0
 10
13.6944
 20
-26.3361
 30
0.0
 10
13.6944
 20
-21.9963
 30
0.0
 10
13.6944
 20
-21.9963
 30
0.0
  0
SPLINE
  5
86
330
1F
100
AcDbEntity
  8
DEFAULT_1
 62
   250
100
AcDbSpline
210
0.0
220
0.0
230
1.0
 70
    24
 71
     3
 72
     8
 73
     4
 74
     0
 42
0.0000000001
 43
0.0000000001
 40
0.0
 40
0.0
 40
0.0
 40
0.0
 40
1.0
 40
1.0
 40
1.0
 40
1.0
 10
13.6944
 20
-19.1305
 30
0.0
 10
13.6944
 20
-19.1305
 30
0.0
 10
13.6944
 20
-14.7907
 30
0.0
 10
13.6944
 20
-14.7907
 30
0.0
  0
SPLINE
  5
87
330
1F
100
AcDbEntity
  8
DEFAULT_1
 62
   250
100
AcDbSpline
210
0.0
220
0.0
230
1.0
 70
     8
 71
     3
 72
    12
 73
     8
 74
     0
 42
0.0000000001
 43
0.0000000001
 40
0.0
 40
0.0
 40
0.0
 40
0.0
 40
0.3333333333333333
 40
0.3333333333333333
 40
0.3333333333333333
 40
0.3333333333333333
 40
1.0
 40
1.0
 40
1.0
 40
1.0
 10
-5.5643
 20
-29.202
 30
0.0
 10
-5.5643
 20
-28.908
 30
0.0
 10
-5.8026
 20
-28.6698
 30
0.0
 10
-6.0966
 20
-28.6698
 30
0.0
 10
-6.0966
 20
-28.6698
 30
0.0
 10
-6.3905
 20
-28.6698
 30
0.0
 10
-6.6288
 20
-28.908
 30
0.0
 10
-6.6288
 20
-29.202
 30
0.0
  0
SPLINE
  5
88
330
1F
100
AcDbEntity
  8
DEFAULT_1
 62
   250
100
AcDbSpline
210
0.0
220
0.0
230
1.0
 70
     8
 71
     3
 72
    12
 73
     8
 74
     0
 42
0.0000000001
 43
0.0000000001
 40
0.0
 40
0.0
 40
0.0
 40
0.0
 40
0.3333333333333333
 40
0.3333333333333333
 40
0.3333333333333333
 40
0.3333333333333333
 40
1.0
 40
1.0
 40
1.0
 40
1.0
 10
-4.2215
 20
-26.3361
 30
0.0
 10
-4.2215
 20
-26.6301
 30
0.0
 10
-3.9832
 20
-26.8683
 30
0.0
 10
-3.6892
 20
-26.8683
 30
0.0
 10
-3.6892
 20
-26.8683
 30
0.0
 10
-3.3953
 20
-26.8683
 30
0.0
 10
-3.157
 20
-26.6301
 30
0.0
 10
-3.157
 20
-26.3361
 30
0.0
  0
SPLINE
  5
89
330
1F
100
AcDbEntity
  8
DEFAULT_1
 62
   250
100
AcDbSpline
210
0.0
220
0.0
230
1.0
 70
     8
 71
     3
 72
    12
 73
     8
 74
     0
 42
0.0000000001
 43
0.0000000001
 40
0.0
 40
0.0
 40
0.0
 40
0.0
 40
0.3333333333333333
 40
0.3333333333333333
 40
0.3333333333333333
 40
0.3333333333333333
 40
1.0
 40
1.0
 40
1.0
 40
1.0
 10
-3.157
 20
-29.202
 30
0.0
 10
-3.157
 20
-28.908
 30
0.0
 10
-3.3953
 20
-28.6698
 30
0.0
 10
-3.6892
 20
-28.6698
 30
0.0
 10
-3.6892
 20
-28.6698
 30
0.0
 10
-3.9832
 20
-28.6698
 30
0.0
 10
-4.2215
 20
-28.908
 30
0.0
 10
-4.2215
 20
-29.202
 30
0.0
  0
SPLINE
  5
8A
330
1F
100
AcDbEntity
  8
DEFAULT_1
 62
   250
100
AcDbSpline
210
0.0
220
0.0
230
1.0
 70
     8
 71
     3
 72
    12
 73
     8
 74
     0
 42
0.0000000001
 43
0.0000000001
 40
0.0
 40
0.0
 40
0.0
 40
0.0
 40
0.3333333333333333
 40
0.3333333333333333
 40
0.3333333333333333
 40
0.3333333333333333
 40
1.0
 40
1.0
 40
1.0
 40
1.0
 10
-4.2215
 20
-33.5418
 30
0.0
 10
-4.2215
 20
-33.8357
 30
0.0
 10
-3.9832
 20
-34.074
 30
0.0
 10
-3.6892
 20
-34.074
 30
0.0
 10
-3.6892
 20
-34.074
 30
0.0
 10
-3.3953
 20
-34.074
 30
0.0
 10
-3.157
 20
-33.8357
 30
0.0
 10
-3.157
 20
-33.5418
 30
0.0
  0
SPLINE
  5
8B
330
1F
100
AcDbEntity
  8
DEFAULT_1
 62
   250
100
AcDbSpline
210
0.0
220
0.0
230
1.0
 70
     8
 71
     3
 72
    12
 73
     8
 74
     0
 42
0.0000000001
 43
0.0000000001
 40
0.0
 40
0.0
 40
0.0
 40
0.0
 40
0.3333333333333333
 40
0.3333333333333333
 40
0.3333333333333333
 40
0.3333333333333333
 40
1.0
 40
1.0
 40
1.0
 40
1.0
 10
0.5932
 20
-26.3361
 30
0.0
 10
0.5932
 20
-26.6301
 30
0.0
 10
0.8315
 20
-26.8683
 30
0.0
 10
1.1254
 20
-26.8683
 30
0.0
 10
1.1254
 20
-26.8683
 30
0.0
 10
1.4194
 20
-26.8683
 30
0.0
 10
1.6577
 20
-26.6301
 30
0.0
 10
1.6577
 20
-26.3361
 30
0.0
  0
SPLINE
  5
8C
330
1F
100
AcDbEntity
  8
DEFAULT_1
 62
   250
100
AcDbSpline
210
0.0
220
0.0
230
1.0
 70
     8
 71
     3
 72
    12
 73
     8
 74
     0
 42
0.0000000001
 43
0.0000000001
 40
0.0
 40
0.0
 40
0.0
 40
0.0
 40
0.3333333333333333
 40
0.3333333333333333
 40
0.3333333333333333
 40
0.3333333333333333
 40
1.0
 40
1.0
 40
1.0
 40
1.0
 10
-1.8141
 20
-26.3361
 30
0.0
 10
-1.8141
 20
-26.6301
 30
0.0
 10
-1.5759
 20
-26.8683
 30
0.0
 10
-1.2819
 20
-26.8683
 30
0.0
 10
-1.2819
 20
-26.8683
 30
0.0
 10
-0.9879
 20
-26.8683
 30
0.0
 10
-0.7497
 20
-26.6301
 30
0.0
 10
-0.7497
 20
-26.3361
 30
0.0
  0
SPLINE
  5
8D
330
1F
100
AcDbEntity
  8
DEFAULT_1
 62
   250
100
AcDbSpline
210
0.0
220
0.0
230
1.0
 70
     8
 71
     3
 72
    12
 73
     8
 74
     0
 42
0.0000000001
 43
0.0000000001
 40
0.0
 40
0.0
 40
0.0
 40
0.0
 40
0.3333333333333333
 40
0.3333333333333333
 40
0.3333333333333333
 40
0.3333333333333333
 40
1.0
 40
1.0
 40
1.0
 40
1.0
 10
1.6577
 20
-29.202
 30
0.0
 10
1.6577
 20
-28.908
 30
0.0
 10
1.4194
 20
-28.6698
 30
0.0
 10
1.1254
 20
-28.6698
 30
0.0
 10
1.1254
 20
-28.6698
 30
0.0
 10
0.8315
 20
-28.6698
 30
0.0
 10
0.5932
 20
-28.908
 30
0.0
 10
0.5932
 20
-29.202
 30
0.0
  0
SPLINE
  5
8E
330
1F
100
AcDbEntity
  8
DEFAULT_1
 62
   250
100
AcDbSpline
210
0.0
220
0.0
230
1.0
 70
     8
 71
     3
 72
    12
 73
     8
 74
     0
 42
0.0000000001
 43
0.0000000001
 40
0.0
 40
0.0
 40
0.0
 40
0.0
 40
0.3333333333333333
 40
0.3333333333333333
 40
0.3333333333333333
 40
0.3333333333333333
 40
1.0
 40
1.0
 40
1.0
 40
1.0
 10
0.5932
 20
-33.5418
 30
0.0
 10
0.5932
 20
-33.8357
 30
0.0
 10
0.8315
 20
-34.074
 30
0.0
 10
1.1254
 20
-34.074
 30
0.0
 10
1.1254
 20
-34.074
 30
0.0
 10
1.4194
 20
-34.074
 30
0.0
 10
1.6577
 20
-33.8357
 30
0.0
 10
1.6577
 20
-33.5418
 30
0.0
  0
SPLINE
  5
8F
330
1F
100
AcDbEntity
  8
DEFAULT_1
 62
   250
100
AcDbSpline
210
0.0
220
0.0
230
1.0
 70
     8
 71
     3
 72
    12
 73
     8
 74
     0
 42
0.0000000001
 43
0.0000000001
 40
0.0
 40
0.0
 40
0.0
 40
0.0
 40
0.3333333333333333
 40
0.3333333333333333
 40
0.3333333333333333
 40
0.3333333333333333
 40
1.0
 40
1.0
 40
1.0
 40
1.0
 10
-0.7497
 20
-29.202
 30
0.0
 10
-0.7497
 20
-28.908
 30
0.0
 10
-0.9879
 20
-28.6698
 30
0.0
 10
-1.2819
 20
-28.6698
 30
0.0
 10
-1.2819
 20
-28.6698
 30
0.0
 10
-1.5759
 20
-28.6698
 30
0.0
 10
-1.8141
 20
-28.908
 30
0.0
 10
-1.8141
 20
-29.202
 30
0.0
  0
SPLINE
  5
90
330
1F
100
AcDbEntity
  8
DEFAULT_1
 62
   250
100
AcDbSpline
210
0.0
220
0.0
230
1.0
 70
     8
 71
     3
 72
    12
 73
     8
 74
     0
 42
0.0000000001
 43
0.0000000001
 40
0.0
 40
0.0
 40
0.0
 40
0.0
 40
0.3333333333333333
 40
0.3333333333333333
 40
0.3333333333333333
 40
0.3333333333333333
 40
1.0
 40
1.0
 40
1.0
 40
1.0
 10
-1.8141
 20
-33.5418
 30
0.0
 10
-1.8141
 20
-33.8357
 30
0.0
 10
-1.5759
 20
-34.074
 30
0.0
 10
-1.2819
 20
-34.074
 30
0.0
 10
-1.2819
 20
-34.074
 30
0.0
 10
-0.9879
 20
-34.074
 30
0.0
 10
-0.7497
 20
-33.8357
 30
0.0
 10
-0.7497
 20
-33.5418
 30
0.0
  0
SPLINE
  5
91
330
1F
100
AcDbEntity
  8
DEFAULT_1
 62
   250
100
AcDbSpline
210
0.0
220
0.0
230
1.0
 70
     8
 71
     3
 72
    12
 73
     8
 74
     0
 42
0.0000000001
 43
0.0000000001
 40
0.0
 40
0.0
 40
0.0
 40
0.0
 40
0.3333333333333333
 40
0.3333333333333333
 40
0.3333333333333333
 40
0.3333333333333333
 40
1.0
 40
1.0
 40
1.0
 40
1.0
 10
-6.6288
 20
-26.3361
 30
0.0
 10
-6.6288
 20
-26.6301
 30
0.0
 10
-6.3905
 20
-26.8683
 30
0.0
 10
-6.0966
 20
-26.8683
 30
0.0
 10
-6.0966
 20
-26.8683
 30
0.0
 10
-5.8026
 20
-26.8683
 30
0.0
 10
-5.5643
 20
-26.6301
 30
0.0
 10
-5.5643
 20
-26.3361
 30
0.0
  0
SPLINE
  5
92
330
1F
100
AcDbEntity
  8
DEFAULT_1
 62
   250
100
AcDbSpline
210
0.0
220
0.0
230
1.0
 70
     8
 71
     3
 72
    12
 73
     8
 74
     0
 42
0.0000000001
 43
0.0000000001
 40
0.0
 40
0.0
 40
0.0
 40
0.0
 40
0.3333333333333333
 40
0.3333333333333333
 40
0.3333333333333333
 40
0.3333333333333333
 40
1.0
 40
1.0
 40
1.0
 40
1.0
 10
-6.6288
 20
-33.5418
 30
0.0
 10
-6.6288
 20
-33.8357
 30
0.0
 10
-6.3905
 20
-34.074
 30
0.0
 10
-6.0966
 20
-34.074
 30
0.0
 10
-6.0966
 20
-34.074
 30
0.0
 10
-5.8026
 20
-34.074
 30
0.0
 10
-5.5643
 20
-33.8357
 30
0.0
 10
-5.5643
 20
-33.5418
 30
0.0
  0
SPLINE
  5
93
330
1F
100
AcDbEntity
  8
DEFAULT_1
 62
   250
100
AcDbSpline
210
0.0
220
0.0
230
1.0
 70
     8
 71
     3
 72
     8
 73
     4
 74
     0
 42
0.0000000001
 43
0.0000000001
 40
0.0
 40
0.0
 40
0.0
 40
0.0
 40
1.0
 40
1.0
 40
1.0
 40
1.0
 10
-8.4139
 20
-35.7526
 30
0.0
 10
-8.4139
 20
-35.9335
 30
0.0
 10
-8.2672
 20
-36.0801
 30
0.0
 10
-8.0863
 20
-36.0801
 30
0.0
  0
SPLINE
  5
94
330
1F
100
AcDbEntity
  8
DEFAULT_1
 62
   250
100
AcDbSpline
210
0.0
220
0.0
230
1.0
 70
     8
 71
     3
 72
    12
 73
     8
 74
     0
 42
0.0000000001
 43
0.0000000001
 40
0.0
 40
0.0
 40
0.0
 40
0.0
 40
0.3333333333333333
 40
0.3333333333333333
 40
0.3333333333333333
 40
0.3333333333333333
 40
1.0
 40
1.0
 40
1.0
 40
1.0
 10
-5.5643
 20
-14.7907
 30
0.0
 10
-5.5643
 20
-14.4967
 30
0.0
 10
-5.8026
 20
-14.2585
 30
0.0
 10
-6.0966
 20
-14.2585
 30
0.0
 10
-6.0966
 20
-14.2585
 30
0.0
 10
-6.3905
 20
-14.2585
 30
0.0
 10
-6.6288
 20
-14.4967
 30
0.0
 10
-6.6288
 20
-14.7907
 30
0.0
  0
SPLINE
  5
95
330
1F
100
AcDbEntity
  8
DEFAULT_1
 62
   250
100
AcDbSpline
210
0.0
220
0.0
230
1.0
 70
     8
 71
     3
 72
    12
 73
     8
 74
     0
 42
0.0000000001
 43
0.0000000001
 40
0.0
 40
0.0
 40
0.0
 40
0.0
 40
0.3333333333333333
 40
0.3333333333333333
 40
0.3333333333333333
 40
0.3333333333333333
 40
1.0
 40
1.0
 40
1.0
 40
1.0
 10
-5.5643
 20
-21.9963
 30
0.0
 10
-5.5643
 20
-21.7024
 30
0.0
 10
-5.8026
 20
-21.4641
 30
0.0
 10
-6.0966
 20
-21.4641
 30
0.0
 10
-6.0966
 20
-21.4641
 30
0.0
 10
-6.3905
 20
-21.4641
 30
0.0
 10
-6.6288
 20
-21.7024
 30
0.0
 10
-6.6288
 20
-21.9963
 30
0.0
  0
SPLINE
  5
96
330
1F
100
AcDbEntity
  8
DEFAULT_1
 62
   250
100
AcDbSpline
210
0.0
220
0.0
230
1.0
 70
     8
 71
     3
 72
    12
 73
     8
 74
     0
 42
0.0000000001
 43
0.0000000001
 40
0.0
 40
0.0
 40
0.0
 40
0.0
 40
0.3333333333333333
 40
0.3333333333333333
 40
0.3333333333333333
 40
0.3333333333333333
 40
1.0
 40
1.0
 40
1.0
 40
1.0
 10
-3.157
 20
-14.7907
 30
0.0
 10
-3.157
 20
-14.4967
 30
0.0
 10
-3.3953
 20
-14.2585
 30
0.0
 10
-3.6892
 20
-14.2585
 30
0.0
 10
-3.6892
 20
-14.2585
 30
0.0
 10
-3.9832
 20
-14.2585
 30
0.0
 10
-4.2215
 20
-14.4967
 30
0.0
 10
-4.2215
 20
-14.7907
 30
0.0
  0
SPLINE
  5
97
330
1F
100
AcDbEntity
  8
DEFAULT_1
 62
   250
100
AcDbSpline
210
0.0
220
0.0
230
1.0
 70
     8
 71
     3
 72
    12
 73
     8
 74
     0
 42
0.0000000001
 43
0.0000000001
 40
0.0
 40
0.0
 40
0.0
 40
0.0
 40
0.3333333333333333
 40
0.3333333333333333
 40
0.3333333333333333
 40
0.3333333333333333
 40
1.0
 40
1.0
 40
1.0
 40
1.0
 10
-4.2215
 20
-19.1305
 30
0.0
 10
-4.2215
 20
-19.4244
 30
0.0
 10
-3.9832
 20
-19.6627
 30
0.0
 10
-3.6892
 20
-19.6627
 30
0.0
 10
-3.6892
 20
-19.6627
 30
0.0
 10
-3.3953
 20
-19.6627
 30
0.0
 10
-3.157
 20
-19.4244
 30
0.0
 10
-3.157
 20
-19.1305
 30
0.0
  0
SPLINE
  5
98
330
1F
100
AcDbEntity
  8
DEFAULT_1
 62
   250
100
AcDbSpline
210
0.0
220
0.0
230
1.0
 70
     8
 71
     3
 72
    12
 73
     8
 74
     0
 42
0.0000000001
 43
0.0000000001
 40
0.0
 40
0.0
 40
0.0
 40
0.0
 40
0.3333333333333333
 40
0.3333333333333333
 40
0.3333333333333333
 40
0.3333333333333333
 40
1.0
 40
1.0
 40
1.0
 40
1.0
 10
-3.157
 20
-21.9963
 30
0.0
 10
-3.157
 20
-21.7024
 30
0.0
 10
-3.3953
 20
-21.4641
 30
0.0
 10
-3.6892
 20
-21.4641
 30
0.0
 10
-3.6892
 20
-21.4641
 30
0.0
 10
-3.9832
 20
-21.4641
 30
0.0
 10
-4.2215
 20
-21.7024
 30
0.0
 10
-4.2215
 20
-21.9963
 30
0.0
  0
SPLINE
  5
99
330
1F
100
AcDbEntity
  8
DEFAULT_1
 62
   250
100
AcDbSpline
210
0.0
220
0.0
230
1.0
 70
     8
 71
     3
 72
    12
 73
     8
 74
     0
 42
0.0000000001
 43
0.0000000001
 40
0.0
 40
0.0
 40
0.0
 40
0.0
 40
0.3333333333333333
 40
0.3333333333333333
 40
0.3333333333333333
 40
0.3333333333333333
 40
1.0
 40
1.0
 40
1.0
 40
1.0
 10
1.6577
 20
-14.7907
 30
0.0
 10
1.6577
 20
-14.4967
 30
0.0
 10
1.4194
 20
-14.2585
 30
0.0
 10
1.1254
 20
-14.2585
 30
0.0
 10
1.1254
 20
-14.2585
 30
0.0
 10
0.8315
 20
-14.2585
 30
0.0
 10
0.5932
 20
-14.4967
 30
0.0
 10
0.5932
 20
-14.7907
 30
0.0
  0
SPLINE
  5
9A
330
1F
100
AcDbEntity
  8
DEFAULT_1
 62
   250
100
AcDbSpline
210
0.0
220
0.0
230
1.0
 70
     8
 71
     3
 72
    12
 73
     8
 74
     0
 42
0.0000000001
 43
0.0000000001
 40
0.0
 40
0.0
 40
0.0
 40
0.0
 40
0.3333333333333333
 40
0.3333333333333333
 40
0.3333333333333333
 40
0.3333333333333333
 40
1.0
 40
1.0
 40
1.0
 40
1.0
 10
0.5932
 20
-19.1305
 30
0.0
 10
0.5932
 20
-19.4244
 30
0.0
 10
0.8315
 20
-19.6627
 30
0.0
 10
1.1254
 20
-19.6627
 30
0.0
 10
1.1254
 20
-19.6627
 30
0.0
 10
1.4194
 20
-19.6627
 30
0.0
 10
1.6577
 20
-19.4244
 30
0.0
 10
1.6577
 20
-19.1305
 30
0.0
  0
SPLINE
  5
9B
330
1F
100
AcDbEntity
  8
DEFAULT_1
 62
   250
100
AcDbSpline
210
0.0
220
0.0
230
1.0
 70
     8
 71
     3
 72
    12
 73
     8
 74
     0
 42
0.0000000001
 43
0.0000000001
 40
0.0
 40
0.0
 40
0.0
 40
0.0
 40
0.3333333333333333
 40
0.3333333333333333
 40
0.3333333333333333
 40
0.3333333333333333
 40
1.0
 40
1.0
 40
1.0
 40
1.0
 10
-0.7497
 20
-14.7907
 30
0.0
 10
-0.7497
 20
-14.4967
 30
0.0
 10
-0.9879
 20
-14.2585
 30
0.0
 10
-1.2819
 20
-14.2585
 30
0.0
 10
-1.2819
 20
-14.2585
 30
0.0
 10
-1.5759
 20
-14.2585
 30
0.0
 10
-1.8141
 20
-14.4967
 30
0.0
 10
-1.8141
 20
-14.7907
 30
0.0
  0
SPLINE
  5
9C
330
1F
100
AcDbEntity
  8
DEFAULT_1
 62
   250
100
AcDbSpline
210
0.0
220
0.0
230
1.0
 70
     8
 71
     3
 72
    12
 73
     8
 74
     0
 42
0.0000000001
 43
0.0000000001
 40
0.0
 40
0.0
 40
0.0
 40
0.0
 40
0.3333333333333333
 40
0.3333333333333333
 40
0.3333333333333333
 40
0.3333333333333333
 40
1.0
 40
1.0
 40
1.0
 40
1.0
 10
-1.8141
 20
-19.1305
 30
0.0
 10
-1.8141
 20
-19.4244
 30
0.0
 10
-1.5759
 20
-19.6627
 30
0.0
 10
-1.2819
 20
-19.6627
 30
0.0
 10
-1.2819
 20
-19.6627
 30
0.0
 10
-0.9879
 20
-19.6627
 30
0.0
 10
-0.7497
 20
-19.4244
 30
0.0
 10
-0.7497
 20
-19.1305
 30
0.0
  0
SPLINE
  5
9D
330
1F
100
AcDbEntity
  8
DEFAULT_1
 62
   250
100
AcDbSpline
210
0.0
220
0.0
230
1.0
 70
     8
 71
     3
 72
    12
 73
     8
 74
     0
 42
0.0000000001
 43
0.0000000001
 40
0.0
 40
0.0
 40
0.0
 40
0.0
 40
0.3333333333333333
 40
0.3333333333333333
 40
0.3333333333333333
 40
0.3333333333333333
 40
1.0
 40
1.0
 40
1.0
 40
1.0
 10
1.6577
 20
-21.9963
 30
0.0
 10
1.6577
 20
-21.7024
 30
0.0
 10
1.4194
 20
-21.4641
 30
0.0
 10
1.1254
 20
-21.4641
 30
0.0
 10
1.1254
 20
-21.4641
 30
0.0
 10
0.8315
 20
-21.4641
 30
0.0
 10
0.5932
 20
-21.7024
 30
0.0
 10
0.5932
 20
-21.9963
 30
0.0
  0
SPLINE
  5
9E
330
1F
100
AcDbEntity
  8
DEFAULT_1
 62
   250
100
AcDbSpline
210
0.0
220
0.0
230
1.0
 70
     8
 71
     3
 72
    12
 73
     8
 74
     0
 42
0.0000000001
 43
0.0000000001
 40
0.0
 40
0.0
 40
0.0
 40
0.0
 40
0.3333333333333333
 40
0.3333333333333333
 40
0.3333333333333333
 40
0.3333333333333333
 40
1.0
 40
1.0
 40
1.0
 40
1.0
 10
-0.7497
 20
-21.9963
 30
0.0
 10
-0.7497
 20
-21.7024
 30
0.0
 10
-0.9879
 20
-21.4641
 30
0.0
 10
-1.2819
 20
-21.4641
 30
0.0
 10
-1.2819
 20
-21.4641
 30
0.0
 10
-1.5759
 20
-21.4641
 30
0.0
 10
-1.8141
 20
-21.7024
 30
0.0
 10
-1.8141
 20
-21.9963
 30
0.0
  0
SPLINE
  5
9F
330
1F
100
AcDbEntity
  8
DEFAULT_1
 62
   250
100
AcDbSpline
210
0.0
220
0.0
230
1.0
 70
     8
 71
     3
 72
    12
 73
     8
 74
     0
 42
0.0000000001
 43
0.0000000001
 40
0.0
 40
0.0
 40
0.0
 40
0.0
 40
0.3333333333333333
 40
0.3333333333333333
 40
0.3333333333333333
 40
0.3333333333333333
 40
1.0
 40
1.0
 40
1.0
 40
1.0
 10
-6.6288
 20
-19.1305
 30
0.0
 10
-6.6288
 20
-19.4244
 30
0.0
 10
-6.3905
 20
-19.6627
 30
0.0
 10
-6.0966
 20
-19.6627
 30
0.0
 10
-6.0966
 20
-19.6627
 30
0.0
 10
-5.8026
 20
-19.6627
 30
0.0
 10
-5.5643
 20
-19.4244
 30
0.0
 10
-5.5643
 20
-19.1305
 30
0.0
  0
SPLINE
  5
A0
330
1F
100
AcDbEntity
  8
DEFAULT_1
 62
   250
100
AcDbSpline
210
0.0
220
0.0
230
1.0
 70
     8
 71
     3
 72
     8
 73
     4
 74
     0
 42
0.0000000001
 43
0.0000000001
 40
0.0
 40
0.0
 40
0.0
 40
0.0
 40
1.0
 40
1.0
 40
1.0
 40
1.0
 10
-8.0863
 20
-12.3342
 30
0.0
 10
-8.2672
 20
-12.3342
 30
0.0
 10
-8.4139
 20
-12.4809
 30
0.0
 10
-8.4139
 20
-12.6617
 30
0.0
  0
SPLINE
  5
A1
330
1F
100
AcDbEntity
  8
DEFAULT_1
 62
   250
100
AcDbSpline
210
0.0
220
0.0
230
1.0
 70
     8
 71
     3
 72
    12
 73
     8
 74
     0
 42
0.0000000001
 43
0.0000000001
 40
0.0
 40
0.0
 40
0.0
 40
0.0
 40
0.3333333333333333
 40
0.3333333333333333
 40
0.3333333333333333
 40
0.3333333333333333
 40
1.0
 40
1.0
 40
1.0
 40
1.0
 10
12.6299
 20
-26.3361
 30
0.0
 10
12.6299
 20
-26.6301
 30
0.0
 10
12.8682
 20
-26.8683
 30
0.0
 10
13.1621
 20
-26.8683
 30
0.0
 10
13.1621
 20
-26.8683
 30
0.0
 10
13.4561
 20
-26.8683
 30
0.0
 10
13.6944
 20
-26.6301
 30
0.0
 10
13.6944
 20
-26.3361
 30
0.0
  0
SPLINE
  5
A2
330
1F
100
AcDbEntity
  8
DEFAULT_1
 62
   250
100
AcDbSpline
210
0.0
220
0.0
230
1.0
 70
     8
 71
     3
 72
    12
 73
     8
 74
     0
 42
0.0000000001
 43
0.0000000001
 40
0.0
 40
0.0
 40
0.0
 40
0.0
 40
0.3333333333333333
 40
0.3333333333333333
 40
0.3333333333333333
 40
0.3333333333333333
 40
1.0
 40
1.0
 40
1.0
 40
1.0
 10
7.8152
 20
-26.3361
 30
0.0
 10
7.8152
 20
-26.6301
 30
0.0
 10
8.0535
 20
-26.8683
 30
0.0
 10
8.3474
 20
-26.8683
 30
0.0
 10
8.3474
 20
-26.8683
 30
0.0
 10
8.6414
 20
-26.8683
 30
0.0
 10
8.8797
 20
-26.6301
 30
0.0
 10
8.8797
 20
-26.3361
 30
0.0
  0
SPLINE
  5
A3
330
1F
100
AcDbEntity
  8
DEFAULT_1
 62
   250
100
AcDbSpline
210
0.0
220
0.0
230
1.0
 70
     8
 71
     3
 72
    12
 73
     8
 74
     0
 42
0.0000000001
 43
0.0000000001
 40
0.0
 40
0.0
 40
0.0
 40
0.0
 40
0.3333333333333333
 40
0.3333333333333333
 40
0.3333333333333333
 40
0.3333333333333333
 40
1.0
 40
1.0
 40
1.0
 40
1.0
 10
5.4079
 20
-26.3361
 30
0.0
 10
5.4079
 20
-26.6301
 30
0.0
 10
5.6462
 20
-26.8683
 30
0.0
 10
5.9401
 20
-26.8683
 30
0.0
 10
5.9401
 20
-26.8683
 30
0.0
 10
6.2341
 20
-26.8683
 30
0.0
 10
6.4724
 20
-26.6301
 30
0.0
 10
6.4724
 20
-26.3361
 30
0.0
  0
SPLINE
  5
A4
330
1F
100
AcDbEntity
  8
DEFAULT_1
 62
   250
100
AcDbSpline
210
0.0
220
0.0
230
1.0
 70
     8
 71
     3
 72
    12
 73
     8
 74
     0
 42
0.0000000001
 43
0.0000000001
 40
0.0
 40
0.0
 40
0.0
 40
0.0
 40
0.3333333333333333
 40
0.3333333333333333
 40
0.3333333333333333
 40
0.3333333333333333
 40
1.0
 40
1.0
 40
1.0
 40
1.0
 10
3.0006
 20
-26.3361
 30
0.0
 10
3.0006
 20
-26.6301
 30
0.0
 10
3.2388
 20
-26.8683
 30
0.0
 10
3.5328
 20
-26.8683
 30
0.0
 10
3.5328
 20
-26.8683
 30
0.0
 10
3.8267
 20
-26.8683
 30
0.0
 10
4.065
 20
-26.6301
 30
0.0
 10
4.065
 20
-26.3361
 30
0.0
  0
SPLINE
  5
A5
330
1F
100
AcDbEntity
  8
DEFAULT_1
 62
   250
100
AcDbSpline
210
0.0
220
0.0
230
1.0
 70
     8
 71
     3
 72
    12
 73
     8
 74
     0
 42
0.0000000001
 43
0.0000000001
 40
0.0
 40
0.0
 40
0.0
 40
0.0
 40
0.3333333333333333
 40
0.3333333333333333
 40
0.3333333333333333
 40
0.3333333333333333
 40
1.0
 40
1.0
 40
1.0
 40
1.0
 10
13.6944
 20
-29.202
 30
0.0
 10
13.6944
 20
-28.908
 30
0.0
 10
13.4561
 20
-28.6698
 30
0.0
 10
13.1621
 20
-28.6698
 30
0.0
 10
13.1621
 20
-28.6698
 30
0.0
 10
12.8682
 20
-28.6698
 30
0.0
 10
12.6299
 20
-28.908
 30
0.0
 10
12.6299
 20
-29.202
 30
0.0
  0
SPLINE
  5
A6
330
1F
100
AcDbEntity
  8
DEFAULT_1
 62
   250
100
AcDbSpline
210
0.0
220
0.0
230
1.0
 70
     8
 71
     3
 72
    12
 73
     8
 74
     0
 42
0.0000000001
 43
0.0000000001
 40
0.0
 40
0.0
 40
0.0
 40
0.0
 40
0.3333333333333333
 40
0.3333333333333333
 40
0.3333333333333333
 40
0.3333333333333333
 40
1.0
 40
1.0
 40
1.0
 40
1.0
 10
12.6299
 20
-33.5418
 30
0.0
 10
12.6299
 20
-33.8357
 30
0.0
 10
12.8682
 20
-34.074
 30
0.0
 10
13.1621
 20
-34.074
 30
0.0
 10
13.1621
 20
-34.074
 30
0.0
 10
13.4561
 20
-34.074
 30
0.0
 10
13.6944
 20
-33.8357
 30
0.0
 10
13.6944
 20
-33.5418
 30
0.0
  0
SPLINE
  5
A7
330
1F
100
AcDbEntity
  8
DEFAULT_1
 62
   250
100
AcDbSpline
210
0.0
220
0.0
230
1.0
 70
     8
 71
     3
 72
    12
 73
     8
 74
     0
 42
0.0000000001
 43
0.0000000001
 40
0.0
 40
0.0
 40
0.0
 40
0.0
 40
0.3333333333333333
 40
0.3333333333333333
 40
0.3333333333333333
 40
0.3333333333333333
 40
1.0
 40
1.0
 40
1.0
 40
1.0
 10
8.8797
 20
-29.202
 30
0.0
 10
8.8797
 20
-28.908
 30
0.0
 10
8.6414
 20
-28.6698
 30
0.0
 10
8.3474
 20
-28.6698
 30
0.0
 10
8.3474
 20
-28.6698
 30
0.0
 10
8.0535
 20
-28.6698
 30
0.0
 10
7.8152
 20
-28.908
 30
0.0
 10
7.8152
 20
-29.202
 30
0.0
  0
SPLINE
  5
A8
330
1F
100
AcDbEntity
  8
DEFAULT_1
 62
   250
100
AcDbSpline
210
0.0
220
0.0
230
1.0
 70
     8
 71
     3
 72
    12
 73
     8
 74
     0
 42
0.0000000001
 43
0.0000000001
 40
0.0
 40
0.0
 40
0.0
 40
0.0
 40
0.3333333333333333
 40
0.3333333333333333
 40
0.3333333333333333
 40
0.3333333333333333
 40
1.0
 40
1.0
 40
1.0
 40
1.0
 10
7.8152
 20
-33.5418
 30
0.0
 10
7.8152
 20
-33.8357
 30
0.0
 10
8.0535
 20
-34.074
 30
0.0
 10
8.3474
 20
-34.074
 30
0.0
 10
8.3474
 20
-34.074
 30
0.0
 10
8.6414
 20
-34.074
 30
0.0
 10
8.8797
 20
-33.8357
 30
0.0
 10
8.8797
 20
-33.5418
 30
0.0
  0
SPLINE
  5
A9
330
1F
100
AcDbEntity
  8
DEFAULT_1
 62
   250
100
AcDbSpline
210
0.0
220
0.0
230
1.0
 70
     8
 71
     3
 72
    12
 73
     8
 74
     0
 42
0.0000000001
 43
0.0000000001
 40
0.0
 40
0.0
 40
0.0
 40
0.0
 40
0.3333333333333333
 40
0.3333333333333333
 40
0.3333333333333333
 40
0.3333333333333333
 40
1.0
 40
1.0
 40
1.0
 40
1.0
 10
6.4724
 20
-29.202
 30
0.0
 10
6.4724
 20
-28.908
 30
0.0
 10
6.2341
 20
-28.6698
 30
0.0
 10
5.9401
 20
-28.6698
 30
0.0
 10
5.9401
 20
-28.6698
 30
0.0
 10
5.6462
 20
-28.6698
 30
0.0
 10
5.4079
 20
-28.908
 30
0.0
 10
5.4079
 20
-29.202
 30
0.0
  0
SPLINE
  5
AA
330
1F
100
AcDbEntity
  8
DEFAULT_1
 62
   250
100
AcDbSpline
210
0.0
220
0.0
230
1.0
 70
     8
 71
     3
 72
    12
 73
     8
 74
     0
 42
0.0000000001
 43
0.0000000001
 40
0.0
 40
0.0
 40
0.0
 40
0.0
 40
0.3333333333333333
 40
0.3333333333333333
 40
0.3333333333333333
 40
0.3333333333333333
 40
1.0
 40
1.0
 40
1.0
 40
1.0
 10
5.4079
 20
-33.5418
 30
0.0
 10
5.4079
 20
-33.8357
 30
0.0
 10
5.6462
 20
-34.074
 30
0.0
 10
5.9401
 20
-34.074
 30
0.0
 10
5.9401
 20
-34.074
 30
0.0
 10
6.2341
 20
-34.074
 30
0.0
 10
6.4724
 20
-33.8357
 30
0.0
 10
6.4724
 20
-33.5418
 30
0.0
  0
SPLINE
  5
AB
330
1F
100
AcDbEntity
  8
DEFAULT_1
 62
   250
100
AcDbSpline
210
0.0
220
0.0
230
1.0
 70
     8
 71
     3
 72
    12
 73
     8
 74
     0
 42
0.0000000001
 43
0.0000000001
 40
0.0
 40
0.0
 40
0.0
 40
0.0
 40
0.3333333333333333
 40
0.3333333333333333
 40
0.3333333333333333
 40
0.3333333333333333
 40
1.0
 40
1.0
 40
1.0
 40
1.0
 10
4.065
 20
-29.202
 30
0.0
 10
4.065
 20
-28.908
 30
0.0
 10
3.8267
 20
-28.6698
 30
0.0
 10
3.5328
 20
-28.6698
 30
0.0
 10
3.5328
 20
-28.6698
 30
0.0
 10
3.2388
 20
-28.6698
 30
0.0
 10
3.0006
 20
-28.908
 30
0.0
 10
3.0006
 20
-29.202
 30
0.0
  0
SPLINE
  5
AC
330
1F
100
AcDbEntity
  8
DEFAULT_1
 62
   250
100
AcDbSpline
210
0.0
220
0.0
230
1.0
 70
     8
 71
     3
 72
    12
 73
     8
 74
     0
 42
0.0000000001
 43
0.0000000001
 40
0.0
 40
0.0
 40
0.0
 40
0.0
 40
0.3333333333333333
 40
0.3333333333333333
 40
0.3333333333333333
 40
0.3333333333333333
 40
1.0
 40
1.0
 40
1.0
 40
1.0
 10
3.0006
 20
-33.5418
 30
0.0
 10
3.0006
 20
-33.8357
 30
0.0
 10
3.2388
 20
-34.074
 30
0.0
 10
3.5328
 20
-34.074
 30
0.0
 10
3.5328
 20
-34.074
 30
0.0
 10
3.8267
 20
-34.074
 30
0.0
 10
4.065
 20
-33.8357
 30
0.0
 10
4.065
 20
-33.5418
 30
0.0
  0
SPLINE
  5
AD
330
1F
100
AcDbEntity
  8
DEFAULT_1
 62
   250
100
AcDbSpline
210
0.0
220
0.0
230
1.0
 70
     8
 71
     3
 72
    12
 73
     8
 74
     0
 42
0.0000000001
 43
0.0000000001
 40
0.0
 40
0.0
 40
0.0
 40
0.0
 40
0.3333333333333333
 40
0.3333333333333333
 40
0.3333333333333333
 40
0.3333333333333333
 40
1.0
 40
1.0
 40
1.0
 40
1.0
 10
10.2225
 20
-26.3361
 30
0.0
 10
10.2225
 20
-26.6301
 30
0.0
 10
10.4608
 20
-26.8683
 30
0.0
 10
10.7548
 20
-26.8683
 30
0.0
 10
10.7548
 20
-26.8683
 30
0.0
 10
11.0487
 20
-26.8683
 30
0.0
 10
11.287
 20
-26.6301
 30
0.0
 10
11.287
 20
-26.3361
 30
0.0
  0
SPLINE
  5
AE
330
1F
100
AcDbEntity
  8
DEFAULT_1
 62
   250
100
AcDbSpline
210
0.0
220
0.0
230
1.0
 70
     8
 71
     3
 72
    12
 73
     8
 74
     0
 42
0.0000000001
 43
0.0000000001
 40
0.0
 40
0.0
 40
0.0
 40
0.0
 40
0.3333333333333333
 40
0.3333333333333333
 40
0.3333333333333333
 40
0.3333333333333333
 40
1.0
 40
1.0
 40
1.0
 40
1.0
 10
11.287
 20
-29.202
 30
0.0
 10
11.287
 20
-28.908
 30
0.0
 10
11.0487
 20
-28.6698
 30
0.0
 10
10.7548
 20
-28.6698
 30
0.0
 10
10.7548
 20
-28.6698
 30
0.0
 10
10.4608
 20
-28.6698
 30
0.0
 10
10.2225
 20
-28.908
 30
0.0
 10
10.2225
 20
-29.202
 30
0.0
  0
SPLINE
  5
AF
330
1F
100
AcDbEntity
  8
DEFAULT_1
 62
   250
100
AcDbSpline
210
0.0
220
0.0
230
1.0
 70
     8
 71
     3
 72
    12
 73
     8
 74
     0
 42
0.0000000001
 43
0.0000000001
 40
0.0
 40
0.0
 40
0.0
 40
0.0
 40
0.3333333333333333
 40
0.3333333333333333
 40
0.3333333333333333
 40
0.3333333333333333
 40
1.0
 40
1.0
 40
1.0
 40
1.0
 10
10.2225
 20
-33.5418
 30
0.0
 10
10.2225
 20
-33.8357
 30
0.0
 10
10.4608
 20
-34.074
 30
0.0
 10
10.7548
 20
-34.074
 30
0.0
 10
10.7548
 20
-34.074
 30
0.0
 10
11.0487
 20
-34.074
 30
0.0
 10
11.287
 20
-33.8357
 30
0.0
 10
11.287
 20
-33.5418
 30
0.0
  0
SPLINE
  5
B0
330
1F
100
AcDbEntity
  8
DEFAULT_1
 62
   250
100
AcDbSpline
210
0.0
220
0.0
230
1.0
 70
     8
 71
     3
 72
     8
 73
     4
 74
     0
 42
0.0000000001
 43
0.0000000001
 40
0.0
 40
0.0
 40
0.0
 40
0.0
 40
1.0
 40
1.0
 40
1.0
 40
1.0
 10
15.0045
 20
-36.0801
 30
0.0
 10
15.1854
 20
-36.0801
 30
0.0
 10
15.332
 20
-35.9335
 30
0.0
 10
15.332
 20
-35.7526
 30
0.0
  0
SPLINE
  5
B1
330
1F
100
AcDbEntity
  8
DEFAULT_1
 62
   250
100
AcDbSpline
210
0.0
220
0.0
230
1.0
 70
     8
 71
     3
 72
     8
 73
     4
 74
     0
 42
0.0000000001
 43
0.0000000001
 40
0.0
 40
0.0
 40
0.0
 40
0.0
 40
1.0
 40
1.0
 40
1.0
 40
1.0
 10
13.6949
 20
-19.084
 30
0.0
 10
13.3919
 20
-18.4786
 30
0.0
 10
13.0358
 20
-17.9012
 30
0.0
 10
12.6307
 20
-17.3587
 30
0.0
  0
SPLINE
  5
B2
330
1F
100
AcDbEntity
  8
DEFAULT_1
 62
   250
100
AcDbSpline
210
0.0
220
0.0
230
1.0
 70
     8
 71
     3
 72
     8
 73
     4
 74
     0
 42
0.0000000001
 43
0.0000000001
 40
0.0
 40
0.0
 40
0.0
 40
0.0
 40
1.0
 40
1.0
 40
1.0
 40
1.0
 10
12.63
 20
-30.9832
 30
0.0
 10
13.0374
 20
-30.4319
 30
0.0
 10
13.3942
 20
-29.8449
 30
0.0
 10
13.6961
 20
-29.2294
 30
0.0
  0
SPLINE
  5
B3
330
1F
100
AcDbEntity
  8
DEFAULT_1
 62
   250
100
AcDbSpline
210
0.0
220
0.0
230
1.0
 70
     8
 71
     3
 72
     8
 73
     4
 74
     0
 42
0.0000000001
 43
0.0000000001
 40
0.0
 40
0.0
 40
0.0
 40
0.0
 40
1.0
 40
1.0
 40
1.0
 40
1.0
 10
10.2228
 20
-33.3872
 30
0.0
 10
10.5956
 20
-33.1125
 30
0.0
 10
10.9513
 20
-32.8153
 30
0.0
 10
11.288
 20
-32.4974
 30
0.0
  0
SPLINE
  5
B4
330
1F
100
AcDbEntity
  8
DEFAULT_1
 62
   250
100
AcDbSpline
210
0.0
220
0.0
230
1.0
 70
     8
 71
     3
 72
     8
 73
     4
 74
     0
 42
0.0000000001
 43
0.0000000001
 40
0.0
 40
0.0
 40
0.0
 40
0.0
 40
1.0
 40
1.0
 40
1.0
 40
1.0
 10
-4.2231
 20
-32.6335
 30
0.0
 10
-3.8858
 20
-32.9411
 30
0.0
 10
-3.5303
 20
-33.2281
 30
0.0
 10
-3.1584
 20
-33.4931
 30
0.0
  0
SPLINE
  5
B5
330
1F
100
AcDbEntity
  8
DEFAULT_1
 62
   250
100
AcDbSpline
210
0.0
220
0.0
230
1.0
 70
     8
 71
     3
 72
     8
 73
     4
 74
     0
 42
0.0000000001
 43
0.0000000001
 40
0.0
 40
0.0
 40
0.0
 40
0.0
 40
1.0
 40
1.0
 40
1.0
 40
1.0
 10
-6.631
 20
-29.5185
 30
0.0
 10
-6.3246
 20
-30.1006
 30
0.0
 10
-5.9684
 20
-30.6551
 30
0.0
 10
-5.5664
 20
-31.1758
 30
0.0
  0
SPLINE
  5
B6
330
1F
100
AcDbEntity
  8
DEFAULT_1
 62
   250
100
AcDbSpline
210
0.0
220
0.0
230
1.0
 70
     8
 71
     3
 72
     8
 73
     4
 74
     0
 42
0.0000000001
 43
0.0000000001
 40
0.0
 40
0.0
 40
0.0
 40
0.0
 40
1.0
 40
1.0
 40
1.0
 40
1.0
 10
-5.5664
 20
-17.2385
 30
0.0
 10
-5.9684
 20
-17.7593
 30
0.0
 10
-6.3246
 20
-18.3137
 30
0.0
 10
-6.631
 20
-18.8958
 30
0.0
  0
SPLINE
  5
B7
330
1F
100
AcDbEntity
  8
DEFAULT_1
 62
   250
100
AcDbSpline
210
0.0
220
0.0
230
1.0
 70
     8
 71
     3
 72
     8
 73
     4
 74
     0
 42
0.0000000001
 43
0.0000000001
 40
0.0
 40
0.0
 40
0.0
 40
0.0
 40
1.0
 40
1.0
 40
1.0
 40
1.0
 10
-3.1584
 20
-14.9212
 30
0.0
 10
-3.5303
 20
-15.1862
 30
0.0
 10
-3.8858
 20
-15.4732
 30
0.0
 10
-4.2231
 20
-15.7808
 30
0.0
  0
SPLINE
  5
B8
330
1F
100
AcDbEntity
  8
DEFAULT_1
 62
   250
100
AcDbSpline
210
0.0
220
0.0
230
1.0
 70
     8
 71
     3
 72
     8
 73
     4
 74
     0
 42
0.0000000001
 43
0.0000000001
 40
0.0
 40
0.0
 40
0.0
 40
0.0
 40
1.0
 40
1.0
 40
1.0
 40
1.0
 10
11.288
 20
-15.9169
 30
0.0
 10
10.9513
 20
-15.599
 30
0.0
 10
10.5956
 20
-15.3019
 30
0.0
 10
10.2228
 20
-15.0272
 30
0.0
  0
SPLINE
  5
B9
330
1F
100
AcDbEntity
  8
DEFAULT_1
 62
   250
100
AcDbSpline
210
0.0
220
0.0
230
1.0
 70
     8
 71
     3
 72
    12
 73
     8
 74
     0
 42
0.0000000001
 43
0.0000000001
 40
0.0
 40
0.0
 40
0.0
 40
0.0
 40
0.3333333333333333
 40
0.3333333333333333
 40
0.3333333333333333
 40
0.3333333333333333
 40
1.0
 40
1.0
 40
1.0
 40
1.0
 10
4.065
 20
-21.9963
 30
0.0
 10
4.065
 20
-21.7024
 30
0.0
 10
3.8267
 20
-21.4641
 30
0.0
 10
3.5328
 20
-21.4641
 30
0.0
 10
3.5328
 20
-21.4641
 30
0.0
 10
3.2388
 20
-21.4641
 30
0.0
 10
3.0006
 20
-21.7024
 30
0.0
 10
3.0006
 20
-21.9963
 30
0.0
  0
SPLINE
  5
BA
330
1F
100
AcDbEntity
  8
DEFAULT_1
 62
   250
100
AcDbSpline
210
0.0
220
0.0
230
1.0
 70
     8
 71
     3
 72
    12
 73
     8
 74
     0
 42
0.0000000001
 43
0.0000000001
 40
0.0
 40
0.0
 40
0.0
 40
0.0
 40
0.3333333333333333
 40
0.3333333333333333
 40
0.3333333333333333
 40
0.3333333333333333
 40
1.0
 40
1.0
 40
1.0
 40
1.0
 10
3.0006
 20
-19.1305
 30
0.0
 10
3.0006
 20
-19.4244
 30
0.0
 10
3.2388
 20
-19.6627
 30
0.0
 10
3.5328
 20
-19.6627
 30
0.0
 10
3.5328
 20
-19.6627
 30
0.0
 10
3.8267
 20
-19.6627
 30
0.0
 10
4.065
 20
-19.4244
 30
0.0
 10
4.065
 20
-19.1305
 30
0.0
  0
SPLINE
  5
BB
330
1F
100
AcDbEntity
  8
DEFAULT_1
 62
   250
100
AcDbSpline
210
0.0
220
0.0
230
1.0
 70
     8
 71
     3
 72
    12
 73
     8
 74
     0
 42
0.0000000001
 43
0.0000000001
 40
0.0
 40
0.0
 40
0.0
 40
0.0
 40
0.3333333333333333
 40
0.3333333333333333
 40
0.3333333333333333
 40
0.3333333333333333
 40
1.0
 40
1.0
 40
1.0
 40
1.0
 10
8.8797
 20
-21.9963
 30
0.0
 10
8.8797
 20
-21.7024
 30
0.0
 10
8.6414
 20
-21.4641
 30
0.0
 10
8.3474
 20
-21.4641
 30
0.0
 10
8.3474
 20
-21.4641
 30
0.0
 10
8.0535
 20
-21.4641
 30
0.0
 10
7.8152
 20
-21.7024
 30
0.0
 10
7.8152
 20
-21.9963
 30
0.0
  0
SPLINE
  5
BC
330
1F
100
AcDbEntity
  8
DEFAULT_1
 62
   250
100
AcDbSpline
210
0.0
220
0.0
230
1.0
 70
     8
 71
     3
 72
    12
 73
     8
 74
     0
 42
0.0000000001
 43
0.0000000001
 40
0.0
 40
0.0
 40
0.0
 40
0.0
 40
0.3333333333333333
 40
0.3333333333333333
 40
0.3333333333333333
 40
0.3333333333333333
 40
1.0
 40
1.0
 40
1.0
 40
1.0
 10
6.4724
 20
-21.9963
 30
0.0
 10
6.4724
 20
-21.7024
 30
0.0
 10
6.2341
 20
-21.4641
 30
0.0
 10
5.9401
 20
-21.4641
 30
0.0
 10
5.9401
 20
-21.4641
 30
0.0
 10
5.6462
 20
-21.4641
 30
0.0
 10
5.4079
 20
-21.7024
 30
0.0
 10
5.4079
 20
-21.9963
 30
0.0
  0
SPLINE
  5
BD
330
1F
100
AcDbEntity
  8
DEFAULT_1
 62
   250
100
AcDbSpline
210
0.0
220
0.0
230
1.0
 70
     8
 71
     3
 72
    12
 73
     8
 74
     0
 42
0.0000000001
 43
0.0000000001
 40
0.0
 40
0.0
 40
0.0
 40
0.0
 40
0.3333333333333333
 40
0.3333333333333333
 40
0.3333333333333333
 40
0.3333333333333333
 40
1.0
 40
1.0
 40
1.0
 40
1.0
 10
7.8152
 20
-19.1305
 30
0.0
 10
7.8152
 20
-19.4244
 30
0.0
 10
8.0535
 20
-19.6627
 30
0.0
 10
8.3474
 20
-19.6627
 30
0.0
 10
8.3474
 20
-19.6627
 30
0.0
 10
8.6414
 20
-19.6627
 30
0.0
 10
8.8797
 20
-19.4244
 30
0.0
 10
8.8797
 20
-19.1305
 30
0.0
  0
SPLINE
  5
BE
330
1F
100
AcDbEntity
  8
DEFAULT_1
 62
   250
100
AcDbSpline
210
0.0
220
0.0
230
1.0
 70
     8
 71
     3
 72
    12
 73
     8
 74
     0
 42
0.0000000001
 43
0.0000000001
 40
0.0
 40
0.0
 40
0.0
 40
0.0
 40
0.3333333333333333
 40
0.3333333333333333
 40
0.3333333333333333
 40
0.3333333333333333
 40
1.0
 40
1.0
 40
1.0
 40
1.0
 10
5.4079
 20
-19.1305
 30
0.0
 10
5.4079
 20
-19.4244
 30
0.0
 10
5.6462
 20
-19.6627
 30
0.0
 10
5.9401
 20
-19.6627
 30
0.0
 10
5.9401
 20
-19.6627
 30
0.0
 10
6.2341
 20
-19.6627
 30
0.0
 10
6.4724
 20
-19.4244
 30
0.0
 10
6.4724
 20
-19.1305
 30
0.0
  0
SPLINE
  5
BF
330
1F
100
AcDbEntity
  8
DEFAULT_1
 62
   250
100
AcDbSpline
210
0.0
220
0.0
230
1.0
 70
     8
 71
     3
 72
    12
 73
     8
 74
     0
 42
0.0000000001
 43
0.0000000001
 40
0.0
 40
0.0
 40
0.0
 40
0.0
 40
0.3333333333333333
 40
0.3333333333333333
 40
0.3333333333333333
 40
0.3333333333333333
 40
1.0
 40
1.0
 40
1.0
 40
1.0
 10
8.8797
 20
-14.7907
 30
0.0
 10
8.8797
 20
-14.4967
 30
0.0
 10
8.6414
 20
-14.2585
 30
0.0
 10
8.3474
 20
-14.2585
 30
0.0
 10
8.3474
 20
-14.2585
 30
0.0
 10
8.0535
 20
-14.2585
 30
0.0
 10
7.8152
 20
-14.4967
 30
0.0
 10
7.8152
 20
-14.7907
 30
0.0
  0
SPLINE
  5
C0
330
1F
100
AcDbEntity
  8
DEFAULT_1
 62
   250
100
AcDbSpline
210
0.0
220
0.0
230
1.0
 70
     8
 71
     3
 72
    12
 73
     8
 74
     0
 42
0.0000000001
 43
0.0000000001
 40
0.0
 40
0.0
 40
0.0
 40
0.0
 40
0.3333333333333333
 40
0.3333333333333333
 40
0.3333333333333333
 40
0.3333333333333333
 40
1.0
 40
1.0
 40
1.0
 40
1.0
 10
6.4724
 20
-14.7907
 30
0.0
 10
6.4724
 20
-14.4967
 30
0.0
 10
6.2341
 20
-14.2585
 30
0.0
 10
5.9401
 20
-14.2585
 30
0.0
 10
5.9401
 20
-14.2585
 30
0.0
 10
5.6462
 20
-14.2585
 30
0.0
 10
5.4079
 20
-14.4967
 30
0.0
 10
5.4079
 20
-14.7907
 30
0.0
  0
SPLINE
  5
C1
330
1F
100
AcDbEntity
  8
DEFAULT_1
 62
   250
100
AcDbSpline
210
0.0
220
0.0
230
1.0
 70
     8
 71
     3
 72
    12
 73
     8
 74
     0
 42
0.0000000001
 43
0.0000000001
 40
0.0
 40
0.0
 40
0.0
 40
0.0
 40
0.3333333333333333
 40
0.3333333333333333
 40
0.3333333333333333
 40
0.3333333333333333
 40
1.0
 40
1.0
 40
1.0
 40
1.0
 10
4.065
 20
-14.7907
 30
0.0
 10
4.065
 20
-14.4967
 30
0.0
 10
3.8267
 20
-14.2585
 30
0.0
 10
3.5328
 20
-14.2585
 30
0.0
 10
3.5328
 20
-14.2585
 30
0.0
 10
3.2388
 20
-14.2585
 30
0.0
 10
3.0006
 20
-14.4967
 30
0.0
 10
3.0006
 20
-14.7907
 30
0.0
  0
SPLINE
  5
C2
330
1F
100
AcDbEntity
  8
DEFAULT_1
 62
   250
100
AcDbSpline
210
0.0
220
0.0
230
1.0
 70
     8
 71
     3
 72
    12
 73
     8
 74
     0
 42
0.0000000001
 43
0.0000000001
 40
0.0
 40
0.0
 40
0.0
 40
0.0
 40
0.3333333333333333
 40
0.3333333333333333
 40
0.3333333333333333
 40
0.3333333333333333
 40
1.0
 40
1.0
 40
1.0
 40
1.0
 10
12.6299
 20
-19.1305
 30
0.0
 10
12.6299
 20
-19.4244
 30
0.0
 10
12.8682
 20
-19.6627
 30
0.0
 10
13.1621
 20
-19.6627
 30
0.0
 10
13.1621
 20
-19.6627
 30
0.0
 10
13.4561
 20
-19.6627
 30
0.0
 10
13.6944
 20
-19.4244
 30
0.0
 10
13.6944
 20
-19.1305
 30
0.0
  0
SPLINE
  5
C3
330
1F
100
AcDbEntity
  8
DEFAULT_1
 62
   250
100
AcDbSpline
210
0.0
220
0.0
230
1.0
 70
     8
 71
     3
 72
    12
 73
     8
 74
     0
 42
0.0000000001
 43
0.0000000001
 40
0.0
 40
0.0
 40
0.0
 40
0.0
 40
0.3333333333333333
 40
0.3333333333333333
 40
0.3333333333333333
 40
0.3333333333333333
 40
1.0
 40
1.0
 40
1.0
 40
1.0
 10
13.6944
 20
-21.9963
 30
0.0
 10
13.6944
 20
-21.7024
 30
0.0
 10
13.4561
 20
-21.4641
 30
0.0
 10
13.1621
 20
-21.4641
 30
0.0
 10
13.1621
 20
-21.4641
 30
0.0
 10
12.8682
 20
-21.4641
 30
0.0
 10
12.6299
 20
-21.7024
 30
0.0
 10
12.6299
 20
-21.9963
 30
0.0
  0
SPLINE
  5
C4
330
1F
100
AcDbEntity
  8
DEFAULT_1
 62
   250
100
AcDbSpline
210
0.0
220
0.0
230
1.0
 70
     8
 71
     3
 72
    12
 73
     8
 74
     0
 42
0.0000000001
 43
0.0000000001
 40
0.0
 40
0.0
 40
0.0
 40
0.0
 40
0.3333333333333333
 40
0.3333333333333333
 40
0.3333333333333333
 40
0.3333333333333333
 40
1.0
 40
1.0
 40
1.0
 40
1.0
 10
10.2225
 20
-19.1305
 30
0.0
 10
10.2225
 20
-19.4244
 30
0.0
 10
10.4608
 20
-19.6627
 30
0.0
 10
10.7548
 20
-19.6627
 30
0.0
 10
10.7548
 20
-19.6627
 30
0.0
 10
11.0487
 20
-19.6627
 30
0.0
 10
11.287
 20
-19.4244
 30
0.0
 10
11.287
 20
-19.1305
 30
0.0
  0
SPLINE
  5
C5
330
1F
100
AcDbEntity
  8
DEFAULT_1
 62
   250
100
AcDbSpline
210
0.0
220
0.0
230
1.0
 70
     8
 71
     3
 72
    12
 73
     8
 74
     0
 42
0.0000000001
 43
0.0000000001
 40
0.0
 40
0.0
 40
0.0
 40
0.0
 40
0.3333333333333333
 40
0.3333333333333333
 40
0.3333333333333333
 40
0.3333333333333333
 40
1.0
 40
1.0
 40
1.0
 40
1.0
 10
11.287
 20
-21.9963
 30
0.0
 10
11.287
 20
-21.7024
 30
0.0
 10
11.0487
 20
-21.4641
 30
0.0
 10
10.7548
 20
-21.4641
 30
0.0
 10
10.7548
 20
-21.4641
 30
0.0
 10
10.4608
 20
-21.4641
 30
0.0
 10
10.2225
 20
-21.7024
 30
0.0
 10
10.2225
 20
-21.9963
 30
0.0
  0
SPLINE
  5
C6
330
1F
100
AcDbEntity
  8
DEFAULT_1
 62
   250
100
AcDbSpline
210
0.0
220
0.0
230
1.0
 70
     8
 71
     3
 72
    12
 73
     8
 74
     0
 42
0.0000000001
 43
0.0000000001
 40
0.0
 40
0.0
 40
0.0
 40
0.0
 40
0.3333333333333333
 40
0.3333333333333333
 40
0.3333333333333333
 40
0.3333333333333333
 40
1.0
 40
1.0
 40
1.0
 40
1.0
 10
13.6944
 20
-14.7907
 30
0.0
 10
13.6944
 20
-14.4967
 30
0.0
 10
13.4561
 20
-14.2585
 30
0.0
 10
13.1621
 20
-14.2585
 30
0.0
 10
13.1621
 20
-14.2585
 30
0.0
 10
12.8682
 20
-14.2585
 30
0.0
 10
12.6299
 20
-14.4967
 30
0.0
 10
12.6299
 20
-14.7907
 30
0.0
  0
SPLINE
  5
C7
330
1F
100
AcDbEntity
  8
DEFAULT_1
 62
   250
100
AcDbSpline
210
0.0
220
0.0
230
1.0
 70
     8
 71
     3
 72
    12
 73
     8
 74
     0
 42
0.0000000001
 43
0.0000000001
 40
0.0
 40
0.0
 40
0.0
 40
0.0
 40
0.3333333333333333
 40
0.3333333333333333
 40
0.3333333333333333
 40
0.3333333333333333
 40
1.0
 40
1.0
 40
1.0
 40
1.0
 10
11.287
 20
-14.7907
 30
0.0
 10
11.287
 20
-14.4967
 30
0.0
 10
11.0487
 20
-14.2585
 30
0.0
 10
10.7548
 20
-14.2585
 30
0.0
 10
10.7548
 20
-14.2585
 30
0.0
 10
10.4608
 20
-14.2585
 30
0.0
 10
10.2225
 20
-14.4967
 30
0.0
 10
10.2225
 20
-14.7907
 30
0.0
  0
SPLINE
  5
C8
330
1F
100
AcDbEntity
  8
DEFAULT_1
 62
   250
100
AcDbSpline
210
0.0
220
0.0
230
1.0
 70
     8
 71
     3
 72
     8
 73
     4
 74
     0
 42
0.0000000001
 43
0.0000000001
 40
0.0
 40
0.0
 40
0.0
 40
0.0
 40
1.0
 40
1.0
 40
1.0
 40
1.0
 10
15.332
 20
-12.6617
 30
0.0
 10
15.332
 20
-12.4809
 30
0.0
 10
15.1854
 20
-12.3342
 30
0.0
 10
15.0045
 20
-12.3342
 30
0.0
  0
SPLINE
  5
C9
330
1F
100
AcDbEntity
  8
DEFAULT_1
 62
   250
100
AcDbSpline
210
0.0
220
0.0
230
1.0
 70
    24
 71
     3
 72
     8
 73
     4
 74
     0
 42
0.0000000001
 43
0.0000000001
 40
0.0
 40
0.0
 40
0.0
 40
0.0
 40
1.0
 40
1.0
 40
1.0
 40
1.0
 10
-5.1969
 20
-0.9756
 30
0.0
 10
-5.1969
 20
-0.9756
 30
0.0
 10
12.1151
 20
-0.9756
 30
0.0
 10
12.1151
 20
-0.9756
 30
0.0
  0
SPLINE
  5
CA
330
1F
100
AcDbEntity
  8
DEFAULT_1
 62
   250
100
AcDbSpline
210
0.0
220
0.0
230
1.0
 70
    24
 71
     3
 72
     8
 73
     4
 74
     0
 42
0.0000000001
 43
0.0000000001
 40
0.0
 40
0.0
 40
0.0
 40
0.0
 40
1.0
 40
1.0
 40
1.0
 40
1.0
 10
-8.332
 20
28.6658
 30
0.0
 10
-8.332
 20
28.6658
 30
0.0
 10
-8.6595
 20
28.3382
 30
0.0
 10
-8.6595
 20
28.3382
 30
0.0
  0
SPLINE
  5
CB
330
1F
100
AcDbEntity
  8
DEFAULT_1
 62
   250
100
AcDbSpline
210
0.0
220
0.0
230
1.0
 70
    24
 71
     3
 72
     8
 73
     4
 74
     0
 42
0.0000000001
 43
0.0000000001
 40
0.0
 40
0.0
 40
0.0
 40
0.0
 40
1.0
 40
1.0
 40
1.0
 40
1.0
 10
-8.332
 20
27.3556
 30
0.0
 10
-8.332
 20
27.3556
 30
0.0
 10
-8.6595
 20
27.0281
 30
0.0
 10
-8.6595
 20
27.0281
 30
0.0
  0
SPLINE
  5
CC
330
1F
100
AcDbEntity
  8
DEFAULT_1
 62
   250
100
AcDbSpline
210
0.0
220
0.0
230
1.0
 70
    24
 71
     3
 72
     8
 73
     4
 74
     0
 42
0.0000000001
 43
0.0000000001
 40
0.0
 40
0.0
 40
0.0
 40
0.0
 40
1.0
 40
1.0
 40
1.0
 40
1.0
 10
-5.548
 20
0.3345
 30
0.0
 10
-5.548
 20
0.3345
 30
0.0
 10
12.4661
 20
0.3345
 30
0.0
 10
12.4661
 20
0.3345
 30
0.0
  0
SPLINE
  5
CD
330
1F
100
AcDbEntity
  8
DEFAULT_1
 62
   250
100
AcDbSpline
210
0.0
220
0.0
230
1.0
 70
    24
 71
     3
 72
     8
 73
     4
 74
     0
 42
0.0000000001
 43
0.0000000001
 40
0.0
 40
0.0
 40
0.0
 40
0.0
 40
1.0
 40
1.0
 40
1.0
 40
1.0
 10
-5.548
 20
0.3345
 30
0.0
 10
-5.548
 20
0.3345
 30
0.0
 10
-5.1969
 20
-0.9756
 30
0.0
 10
-5.1969
 20
-0.9756
 30
0.0
  0
SPLINE
  5
CE
330
1F
100
AcDbEntity
  8
DEFAULT_1
 62
   250
100
AcDbSpline
210
0.0
220
0.0
230
1.0
 70
    24
 71
     3
 72
     8
 73
     4
 74
     0
 42
0.0000000001
 43
0.0000000001
 40
0.0
 40
0.0
 40
0.0
 40
0.0
 40
1.0
 40
1.0
 40
1.0
 40
1.0
 10
-9.3146
 20
21.9514
 30
0.0
 10
-9.3146
 20
21.9514
 30
0.0
 10
-9.3146
 20
26.5368
 30
0.0
 10
-9.3146
 20
26.5368
 30
0.0
  0
SPLINE
  5
CF
330
1F
100
AcDbEntity
  8
DEFAULT_1
 62
   250
100
AcDbSpline
210
0.0
220
0.0
230
1.0
 70
    24
 71
     3
 72
     8
 73
     4
 74
     0
 42
0.0000000001
 43
0.0000000001
 40
0.0
 40
0.0
 40
0.0
 40
0.0
 40
1.0
 40
1.0
 40
1.0
 40
1.0
 10
-8.332
 20
28.9933
 30
0.0
 10
-8.332
 20
28.9933
 30
0.0
 10
-8.332
 20
28.6658
 30
0.0
 10
-8.332
 20
28.6658
 30
0.0
  0
SPLINE
  5
D0
330
1F
100
AcDbEntity
  8
DEFAULT_1
 62
   250
100
AcDbSpline
210
0.0
220
0.0
230
1.0
 70
    24
 71
     3
 72
     8
 73
     4
 74
     0
 42
0.0000000001
 43
0.0000000001
 40
0.0
 40
0.0
 40
0.0
 40
0.0
 40
1.0
 40
1.0
 40
1.0
 40
1.0
 10
-8.332
 20
27.6832
 30
0.0
 10
-8.332
 20
27.6832
 30
0.0
 10
-8.332
 20
27.3556
 30
0.0
 10
-8.332
 20
27.3556
 30
0.0
  0
SPLINE
  5
D1
330
1F
100
AcDbEntity
  8
DEFAULT_1
 62
   250
100
AcDbSpline
210
0.0
220
0.0
230
1.0
 70
    24
 71
     3
 72
     8
 73
     4
 74
     0
 42
0.0000000001
 43
0.0000000001
 40
0.0
 40
0.0
 40
0.0
 40
0.0
 40
1.0
 40
1.0
 40
1.0
 40
1.0
 10
-7.1062
 20
8.0171
 30
0.0
 10
-7.1062
 20
8.0171
 30
0.0
 10
-7.3265
 20
20.6413
 30
0.0
 10
-7.3265
 20
20.6413
 30
0.0
  0
SPLINE
  5
D2
330
1F
100
AcDbEntity
  8
DEFAULT_1
 62
   250
100
AcDbSpline
210
0.0
220
0.0
230
1.0
 70
    24
 71
     3
 72
     8
 73
     4
 74
     0
 42
0.0000000001
 43
0.0000000001
 40
0.0
 40
0.0
 40
0.0
 40
0.0
 40
1.0
 40
1.0
 40
1.0
 40
1.0
 10
-5.548
 20
7.2126
 30
0.0
 10
-5.548
 20
7.2126
 30
0.0
 10
-5.548
 20
0.3345
 30
0.0
 10
-5.548
 20
0.3345
 30
0.0
  0
SPLINE
  5
D3
330
1F
100
AcDbEntity
  8
DEFAULT_1
  6
NEW_LINE1
 62
   250
100
AcDbSpline
210
0.0
220
0.0
230
1.0
 70
    24
 71
     3
 72
     8
 73
     4
 74
     0
 42
0.0000000001
 43
0.0000000001
 40
0.0
 40
0.0
 40
0.0
 40
0.0
 40
1.0
 40
1.0
 40
1.0
 40
1.0
 10
3.6218
 20
-1.3032
 30
0.0
 10
3.6218
 20
-1.3032
 30
0.0
 10
3.6218
 20
35.0242
 30
0.0
 10
3.6218
 20
35.0242
 30
0.0
  0
SPLINE
  5
D5
330
1F
100
AcDbEntity
  8
DEFAULT_1
 62
   250
100
AcDbSpline
210
0.0
220
0.0
230
1.0
 70
    24
 71
     3
 72
     8
 73
     4
 74
     0
 42
0.0000000001
 43
0.0000000001
 40
0.0
 40
0.0
 40
0.0
 40
0.0
 40
1.0
 40
1.0
 40
1.0
 40
1.0
 10
16.2327
 20
21.9514
 30
0.0
 10
16.2327
 20
21.9514
 30
0.0
 10
-9.3146
 20
21.9514
 30
0.0
 10
-9.3146
 20
21.9514
 30
0.0
  0
SPLINE
  5
D6
330
1F
100
AcDbEntity
  8
DEFAULT_1
 62
   250
100
AcDbSpline
210
0.0
220
0.0
230
1.0
 70
    24
 71
     3
 72
     8
 73
     4
 74
     0
 42
0.0000000001
 43
0.0000000001
 40
0.0
 40
0.0
 40
0.0
 40
0.0
 40
1.0
 40
1.0
 40
1.0
 40
1.0
 10
12.4661
 20
7.2126
 30
0.0
 10
12.4661
 20
7.2126
 30
0.0
 10
12.4661
 20
0.3345
 30
0.0
 10
12.4661
 20
0.3345
 30
0.0
  0
SPLINE
  5
D7
330
1F
100
AcDbEntity
  8
DEFAULT_1
 62
   250
100
AcDbSpline
210
0.0
220
0.0
230
1.0
 70
    24
 71
     3
 72
     8
 73
     4
 74
     0
 42
0.0000000001
 43
0.0000000001
 40
0.0
 40
0.0
 40
0.0
 40
0.0
 40
1.0
 40
1.0
 40
1.0
 40
1.0
 10
16.2327
 20
26.5368
 30
0.0
 10
16.2327
 20
26.5368
 30
0.0
 10
-9.3146
 20
26.5368
 30
0.0
 10
-9.3146
 20
26.5368
 30
0.0
  0
SPLINE
  5
D8
330
1F
100
AcDbEntity
  8
DEFAULT_1
 62
   250
100
AcDbSpline
210
0.0
220
0.0
230
1.0
 70
    24
 71
     3
 72
     8
 73
     4
 74
     0
 42
0.0000000001
 43
0.0000000001
 40
0.0
 40
0.0
 40
0.0
 40
0.0
 40
1.0
 40
1.0
 40
1.0
 40
1.0
 10
14.0243
 20
8.0171
 30
0.0
 10
14.0243
 20
8.0171
 30
0.0
 10
14.2447
 20
20.6413
 30
0.0
 10
14.2447
 20
20.6413
 30
0.0
  0
SPLINE
  5
D9
330
1F
100
AcDbEntity
  8
DEFAULT_1
 62
   250
100
AcDbSpline
210
0.0
220
0.0
230
1.0
 70
    24
 71
     3
 72
     8
 73
     4
 74
     0
 42
0.0000000001
 43
0.0000000001
 40
0.0
 40
0.0
 40
0.0
 40
0.0
 40
1.0
 40
1.0
 40
1.0
 40
1.0
 10
15.2501
 20
27.3556
 30
0.0
 10
15.2501
 20
27.3556
 30
0.0
 10
-8.332
 20
27.3556
 30
0.0
 10
-8.332
 20
27.3556
 30
0.0
  0
SPLINE
  5
DA
330
1F
100
AcDbEntity
  8
DEFAULT_1
 62
   250
100
AcDbSpline
210
0.0
220
0.0
230
1.0
 70
    24
 71
     3
 72
     8
 73
     4
 74
     0
 42
0.0000000001
 43
0.0000000001
 40
0.0
 40
0.0
 40
0.0
 40
0.0
 40
1.0
 40
1.0
 40
1.0
 40
1.0
 10
15.5777
 20
27.6832
 30
0.0
 10
15.5777
 20
27.6832
 30
0.0
 10
-8.6595
 20
27.6832
 30
0.0
 10
-8.6595
 20
27.6832
 30
0.0
  0
SPLINE
  5
DB
330
1F
100
AcDbEntity
  8
DEFAULT_1
 62
   250
100
AcDbSpline
210
0.0
220
0.0
230
1.0
 70
    24
 71
     3
 72
     8
 73
     4
 74
     0
 42
0.0000000001
 43
0.0000000001
 40
0.0
 40
0.0
 40
0.0
 40
0.0
 40
1.0
 40
1.0
 40
1.0
 40
1.0
 10
15.2501
 20
28.9933
 30
0.0
 10
15.2501
 20
28.9933
 30
0.0
 10
15.2501
 20
28.6658
 30
0.0
 10
15.2501
 20
28.6658
 30
0.0
  0
SPLINE
  5
DC
330
1F
100
AcDbEntity
  8
DEFAULT_1
 62
   250
100
AcDbSpline
210
0.0
220
0.0
230
1.0
 70
    24
 71
     3
 72
     8
 73
     4
 74
     0
 42
0.0000000001
 43
0.0000000001
 40
0.0
 40
0.0
 40
0.0
 40
0.0
 40
1.0
 40
1.0
 40
1.0
 40
1.0
 10
15.2501
 20
27.6832
 30
0.0
 10
15.2501
 20
27.6832
 30
0.0
 10
15.2501
 20
27.3556
 30
0.0
 10
15.2501
 20
27.3556
 30
0.0
  0
SPLINE
  5
DD
330
1F
100
AcDbEntity
  8
DEFAULT_1
 62
   250
100
AcDbSpline
210
0.0
220
0.0
230
1.0
 70
    24
 71
     3
 72
     8
 73
     4
 74
     0
 42
0.0000000001
 43
0.0000000001
 40
0.0
 40
0.0
 40
0.0
 40
0.0
 40
1.0
 40
1.0
 40
1.0
 40
1.0
 10
16.2327
 20
21.9514
 30
0.0
 10
16.2327
 20
21.9514
 30
0.0
 10
16.2327
 20
26.5368
 30
0.0
 10
16.2327
 20
26.5368
 30
0.0
  0
SPLINE
  5
DE
330
1F
100
AcDbEntity
  8
DEFAULT_1
 62
   250
100
AcDbSpline
210
0.0
220
0.0
230
1.0
 70
    24
 71
     3
 72
     8
 73
     4
 74
     0
 42
0.0000000001
 43
0.0000000001
 40
0.0
 40
0.0
 40
0.0
 40
0.0
 40
1.0
 40
1.0
 40
1.0
 40
1.0
 10
12.4661
 20
0.3345
 30
0.0
 10
12.4661
 20
0.3345
 30
0.0
 10
12.1151
 20
-0.9756
 30
0.0
 10
12.1151
 20
-0.9756
 30
0.0
  0
SPLINE
  5
DF
330
1F
100
AcDbEntity
  8
DEFAULT_1
 62
   250
100
AcDbSpline
210
0.0
220
0.0
230
1.0
 70
    24
 71
     3
 72
     8
 73
     4
 74
     0
 42
0.0000000001
 43
0.0000000001
 40
0.0
 40
0.0
 40
0.0
 40
0.0
 40
1.0
 40
1.0
 40
1.0
 40
1.0
 10
15.2501
 20
28.6658
 30
0.0
 10
15.2501
 20
28.6658
 30
0.0
 10
-8.332
 20
28.6658
 30
0.0
 10
-8.332
 20
28.6658
 30
0.0
  0
SPLINE
  5
E0
330
1F
100
AcDbEntity
  8
DEFAULT_1
 62
   250
100
AcDbSpline
210
0.0
220
0.0
230
1.0
 70
    24
 71
     3
 72
     8
 73
     4
 74
     0
 42
0.0000000001
 43
0.0000000001
 40
0.0
 40
0.0
 40
0.0
 40
0.0
 40
1.0
 40
1.0
 40
1.0
 40
1.0
 10
15.5777
 20
28.9933
 30
0.0
 10
15.5777
 20
28.9933
 30
0.0
 10
-8.6595
 20
28.9933
 30
0.0
 10
-8.6595
 20
28.9933
 30
0.0
  0
SPLINE
  5
E1
330
1F
100
AcDbEntity
  8
DEFAULT_1
 62
   250
100
AcDbSpline
210
0.0
220
0.0
230
1.0
 70
    24
 71
     3
 72
     8
 73
     4
 74
     0
 42
0.0000000001
 43
0.0000000001
 40
0.0
 40
0.0
 40
0.0
 40
0.0
 40
1.0
 40
1.0
 40
1.0
 40
1.0
 10
15.2501
 20
27.3556
 30
0.0
 10
15.2501
 20
27.3556
 30
0.0
 10
15.5777
 20
27.0281
 30
0.0
 10
15.5777
 20
27.0281
 30
0.0
  0
SPLINE
  5
E2
330
1F
100
AcDbEntity
  8
DEFAULT_1
 62
   250
100
AcDbSpline
210
0.0
220
0.0
230
1.0
 70
    24
 71
     3
 72
     8
 73
     4
 74
     0
 42
0.0000000001
 43
0.0000000001
 40
0.0
 40
0.0
 40
0.0
 40
0.0
 40
1.0
 40
1.0
 40
1.0
 40
1.0
 10
15.2501
 20
28.6658
 30
0.0
 10
15.2501
 20
28.6658
 30
0.0
 10
15.5777
 20
28.3382
 30
0.0
 10
15.5777
 20
28.3382
 30
0.0
  0
SPLINE
  5
E3
330
1F
100
AcDbEntity
  8
DEFAULT_1
 62
   250
100
AcDbSpline
210
0.0
220
0.0
230
1.0
 70
     8
 71
     3
 72
     8
 73
     4
 74
     0
 42
0.0000000001
 43
0.0000000001
 40
0.0
 40
0.0
 40
0.0
 40
0.0
 40
1.0
 40
1.0
 40
1.0
 40
1.0
 10
6.9063
 20
-11.9074
 30
0.0
 10
4.6516
 20
-11.2755
 30
0.0
 10
2.2666
 20
-11.2755
 30
0.0
 10
0.0118
 20
-11.9074
 30
0.0
  0
SPLINE
  5
E4
330
1F
100
AcDbEntity
  8
DEFAULT_1
 62
   250
100
AcDbSpline
210
0.0
220
0.0
230
1.0
 70
     8
 71
     3
 72
     8
 73
     4
 74
     0
 42
0.0000000001
 43
0.0000000001
 40
0.0
 40
0.0
 40
0.0
 40
0.0
 40
1.0
 40
1.0
 40
1.0
 40
1.0
 10
15.7587
 20
-27.6544
 30
0.0
 10
16.3907
 20
-25.3997
 30
0.0
 10
16.3907
 20
-23.0146
 30
0.0
 10
15.7587
 20
-20.7599
 30
0.0
  0
SPLINE
  5
E5
330
1F
100
AcDbEntity
  8
DEFAULT_1
 62
   250
100
AcDbSpline
210
0.0
220
0.0
230
1.0
 70
     8
 71
     3
 72
     8
 73
     4
 74
     0
 42
0.0000000001
 43
0.0000000001
 40
0.0
 40
0.0
 40
0.0
 40
0.0
 40
1.0
 40
1.0
 40
1.0
 40
1.0
 10
0.0118
 20
-36.5069
 30
0.0
 10
2.2666
 20
-37.1388
 30
0.0
 10
4.6516
 20
-37.1388
 30
0.0
 10
6.9063
 20
-36.5069
 30
0.0
  0
SPLINE
  5
E6
330
1F
100
AcDbEntity
  8
DEFAULT_1
 62
   250
100
AcDbSpline
210
0.0
220
0.0
230
1.0
 70
     8
 71
     3
 72
     8
 73
     4
 74
     0
 42
0.0000000001
 43
0.0000000001
 40
0.0
 40
0.0
 40
0.0
 40
0.0
 40
1.0
 40
1.0
 40
1.0
 40
1.0
 10
-8.8406
 20
-20.7599
 30
0.0
 10
-9.4726
 20
-23.0146
 30
0.0
 10
-9.4726
 20
-25.3997
 30
0.0
 10
-8.8406
 20
-27.6544
 30
0.0
  0
SPLINE
  5
E7
330
1F
100
AcDbEntity
  8
DEFAULT_1
 62
   250
100
AcDbSpline
210
0.0
220
0.0
230
1.0
 70
    24
 71
     3
 72
     8
 73
     4
 74
     0
 42
0.0000000001
 43
0.0000000001
 40
0.0
 40
0.0
 40
0.0
 40
0.0
 40
1.0
 40
1.0
 40
1.0
 40
1.0
 10
-8.8233
 20
34.07
 30
0.0
 10
-8.8233
 20
34.07
 30
0.0
 10
-8.8233
 20
30.4672
 30
0.0
 10
-8.8233
 20
30.4672
 30
0.0
  0
SPLINE
  5
E8
330
1F
100
AcDbEntity
  8
DEFAULT_1
 62
   250
100
AcDbSpline
210
0.0
220
0.0
230
1.0
 70
    24
 71
     3
 72
     8
 73
     4
 74
     0
 42
0.0000000001
 43
0.0000000001
 40
0.0
 40
0.0
 40
0.0
 40
0.0
 40
1.0
 40
1.0
 40
1.0
 40
1.0
 10
13.2056
 20
7.2126
 30
0.0
 10
13.2056
 20
7.2126
 30
0.0
 10
-6.2875
 20
7.2126
 30
0.0
 10
-6.2875
 20
7.2126
 30
0.0
  0
SPLINE
  5
E9
330
1F
100
AcDbEntity
  8
DEFAULT_1
 62
   250
100
AcDbSpline
210
0.0
220
0.0
230
1.0
 70
    24
 71
     3
 72
     8
 73
     4
 74
     0
 42
0.0000000001
 43
0.0000000001
 40
0.0
 40
0.0
 40
0.0
 40
0.0
 40
1.0
 40
1.0
 40
1.0
 40
1.0
 10
15.7414
 20
34.07
 30
0.0
 10
15.7414
 20
34.07
 30
0.0
 10
15.7414
 20
30.4672
 30
0.0
 10
15.7414
 20
30.4672
 30
0.0
  0
SPLINE
  5
EA
330
1F
100
AcDbEntity
  8
DEFAULT_1
 62
   250
100
AcDbSpline
210
0.0
220
0.0
230
1.0
 70
    24
 71
     3
 72
     8
 73
     4
 74
     0
 42
0.0000000001
 43
0.0000000001
 40
0.0
 40
0.0
 40
0.0
 40
0.0
 40
1.0
 40
1.0
 40
1.0
 40
1.0
 10
-8.8233
 20
30.4672
 30
0.0
 10
-8.8233
 20
30.4672
 30
0.0
 10
15.7414
 20
30.4672
 30
0.0
 10
15.7414
 20
30.4672
 30
0.0
  0
SPLINE
  5
EB
330
1F
100
AcDbEntity
  8
DEFAULT_1
 62
   250
100
AcDbSpline
210
0.0
220
0.0
230
1.0
 70
    24
 71
     3
 72
     8
 73
     4
 74
     0
 42
0.0000000001
 43
0.0000000001
 40
0.0
 40
0.0
 40
0.0
 40
0.0
 40
1.0
 40
1.0
 40
1.0
 40
1.0
 10
-8.8233
 20
34.07
 30
0.0
 10
-8.8233
 20
34.07
 30
0.0
 10
15.7414
 20
34.07
 30
0.0
 10
15.7414
 20
34.07
 30
0.0
  0
SPLINE
  5
EC
330
1F
100
AcDbEntity
  8
DEFAULT_1
 62
   250
100
AcDbSpline
210
0.0
220
0.0
230
1.0
 70
    24
 71
     3
 72
     8
 73
     4
 74
     0
 42
0.0000000001
 43
0.0000000001
 40
0.0
 40
0.0
 40
0.0
 40
0.0
 40
1.0
 40
1.0
 40
1.0
 40
1.0
 10
-8.8233
 20
-12.0067
 30
0.0
 10
-8.8233
 20
-12.0067
 30
0.0
 10
-8.8233
 20
-36.4076
 30
0.0
 10
-8.8233
 20
-36.4076
 30
0.0
  0
SPLINE
  5
ED
330
1F
100
AcDbEntity
  8
DEFAULT_1
 62
   250
100
AcDbSpline
210
0.0
220
0.0
230
1.0
 70
    24
 71
     3
 72
     8
 73
     4
 74
     0
 42
0.0000000001
 43
0.0000000001
 40
0.0
 40
0.0
 40
0.0
 40
0.0
 40
1.0
 40
1.0
 40
1.0
 40
1.0
 10
-8.7414
 20
-36.4895
 30
0.0
 10
-8.7414
 20
-36.4895
 30
0.0
 10
15.6595
 20
-36.4895
 30
0.0
 10
15.6595
 20
-36.4895
 30
0.0
  0
SPLINE
  5
EE
330
1F
100
AcDbEntity
  8
DEFAULT_1
 62
   250
100
AcDbSpline
210
0.0
220
0.0
230
1.0
 70
    24
 71
     3
 72
     8
 73
     4
 74
     0
 42
0.0000000001
 43
0.0000000001
 40
0.0
 40
0.0
 40
0.0
 40
0.0
 40
1.0
 40
1.0
 40
1.0
 40
1.0
 10
-8.4139
 20
-12.6617
 30
0.0
 10
-8.4139
 20
-12.6617
 30
0.0
 10
-8.4139
 20
-35.7526
 30
0.0
 10
-8.4139
 20
-35.7526
 30
0.0
  0
SPLINE
  5
EF
330
1F
100
AcDbEntity
  8
DEFAULT_1
 62
   250
100
AcDbSpline
210
0.0
220
0.0
230
1.0
 70
    24
 71
     3
 72
     8
 73
     4
 74
     0
 42
0.0000000001
 43
0.0000000001
 40
0.0
 40
0.0
 40
0.0
 40
0.0
 40
1.0
 40
1.0
 40
1.0
 40
1.0
 10
-8.0863
 20
-36.0801
 30
0.0
 10
-8.0863
 20
-36.0801
 30
0.0
 10
15.0045
 20
-36.0801
 30
0.0
 10
15.0045
 20
-36.0801
 30
0.0
  0
SPLINE
  5
F0
330
1F
100
AcDbEntity
  8
DEFAULT_1
 62
   250
100
AcDbSpline
210
0.0
220
0.0
230
1.0
 70
    24
 71
     3
 72
     8
 73
     4
 74
     0
 42
0.0000000001
 43
0.0000000001
 40
0.0
 40
0.0
 40
0.0
 40
0.0
 40
1.0
 40
1.0
 40
1.0
 40
1.0
 10
15.332
 20
-35.7526
 30
0.0
 10
15.332
 20
-35.7526
 30
0.0
 10
15.332
 20
-12.6617
 30
0.0
 10
15.332
 20
-12.6617
 30
0.0
  0
SPLINE
  5
F1
330
1F
100
AcDbEntity
  8
DEFAULT_1
 62
   250
100
AcDbSpline
210
0.0
220
0.0
230
1.0
 70
    24
 71
     3
 72
     8
 73
     4
 74
     0
 42
0.0000000001
 43
0.0000000001
 40
0.0
 40
0.0
 40
0.0
 40
0.0
 40
1.0
 40
1.0
 40
1.0
 40
1.0
 10
15.0045
 20
-12.3342
 30
0.0
 10
15.0045
 20
-12.3342
 30
0.0
 10
-8.0863
 20
-12.3342
 30
0.0
 10
-8.0863
 20
-12.3342
 30
0.0
  0
SPLINE
  5
F2
330
1F
100
AcDbEntity
  8
DEFAULT_1
 62
   250
100
AcDbSpline
210
0.0
220
0.0
230
1.0
 70
    24
 71
     3
 72
     8
 73
     4
 74
     0
 42
0.0000000001
 43
0.0000000001
 40
0.0
 40
0.0
 40
0.0
 40
0.0
 40
1.0
 40
1.0
 40
1.0
 40
1.0
 10
15.7414
 20
-36.4076
 30
0.0
 10
15.7414
 20
-36.4076
 30
0.0
 10
15.7414
 20
-12.0067
 30
0.0
 10
15.7414
 20
-12.0067
 30
0.0
  0
SPLINE
  5
F3
330
1F
100
AcDbEntity
  8
DEFAULT_1
 62
   250
100
AcDbSpline
210
0.0
220
0.0
230
1.0
 70
    24
 71
     3
 72
     8
 73
     4
 74
     0
 42
0.0000000001
 43
0.0000000001
 40
0.0
 40
0.0
 40
0.0
 40
0.0
 40
1.0
 40
1.0
 40
1.0
 40
1.0
 10
15.6595
 20
-11.9248
 30
0.0
 10
15.6595
 20
-11.9248
 30
0.0
 10
-8.7414
 20
-11.9248
 30
0.0
 10
-8.7414
 20
-11.9248
 30
0.0
  0
SPLINE
  5
F4
330
1F
100
AcDbEntity
  8
DEFAULT_1
 62
   250
100
AcDbSpline
210
0.0
220
0.0
230
1.0
 70
     8
 71
     3
 72
     8
 73
     4
 74
     0
 42
0.0000000001
 43
0.0000000001
 40
0.0
 40
0.0
 40
0.0
 40
0.0
 40
1.0
 40
1.0
 40
1.0
 40
1.0
 10
-7.1062
 20
8.0171
 30
0.0
 10
-7.0984
 20
7.5705
 30
0.0
 10
-6.7341
 20
7.2126
 30
0.0
 10
-6.2875
 20
7.2126
 30
0.0
  0
SPLINE
  5
F5
330
1F
100
AcDbEntity
  8
DEFAULT_1
 62
   250
100
AcDbSpline
210
0.0
220
0.0
230
1.0
 70
     8
 71
     3
 72
     8
 73
     4
 74
     0
 42
0.0000000001
 43
0.0000000001
 40
0.0
 40
0.0
 40
0.0
 40
0.0
 40
1.0
 40
1.0
 40
1.0
 40
1.0
 10
13.2056
 20
7.2126
 30
0.0
 10
13.6523
 20
7.2126
 30
0.0
 10
14.0165
 20
7.5705
 30
0.0
 10
14.0243
 20
8.0171
 30
0.0
  0
SPLINE
  5
F6
330
1F
100
AcDbEntity
  8
DEFAULT_1
 62
   250
100
AcDbSpline
210
0.0
220
0.0
230
1.0
 70
     8
 71
     3
 72
     8
 73
     4
 74
     0
 42
0.0000000001
 43
0.0000000001
 40
0.0
 40
0.0
 40
0.0
 40
0.0
 40
1.0
 40
1.0
 40
1.0
 40
1.0
 10
-8.8233
 20
-36.4076
 30
0.0
 10
-8.8233
 20
-36.4529
 30
0.0
 10
-8.7866
 20
-36.4895
 30
0.0
 10
-8.7414
 20
-36.4895
 30
0.0
  0
SPLINE
  5
F7
330
1F
100
AcDbEntity
  8
DEFAULT_1
 62
   250
100
AcDbSpline
210
0.0
220
0.0
230
1.0
 70
     8
 71
     3
 72
     8
 73
     4
 74
     0
 42
0.0000000001
 43
0.0000000001
 40
0.0
 40
0.0
 40
0.0
 40
0.0
 40
1.0
 40
1.0
 40
1.0
 40
1.0
 10
-8.7414
 20
-11.9248
 30
0.0
 10
-8.7866
 20
-11.9248
 30
0.0
 10
-8.8233
 20
-11.9615
 30
0.0
 10
-8.8233
 20
-12.0067
 30
0.0
  0
SPLINE
  5
F8
330
1F
100
AcDbEntity
  8
DEFAULT_1
 62
   250
100
AcDbSpline
210
0.0
220
0.0
230
1.0
 70
     8
 71
     3
 72
     8
 73
     4
 74
     0
 42
0.0000000001
 43
0.0000000001
 40
0.0
 40
0.0
 40
0.0
 40
0.0
 40
1.0
 40
1.0
 40
1.0
 40
1.0
 10
15.6595
 20
-36.4895
 30
0.0
 10
15.7048
 20
-36.4895
 30
0.0
 10
15.7414
 20
-36.4529
 30
0.0
 10
15.7414
 20
-36.4076
 30
0.0
  0
SPLINE
  5
F9
330
1F
100
AcDbEntity
  8
DEFAULT_1
 62
   250
100
AcDbSpline
210
0.0
220
0.0
230
1.0
 70
     8
 71
     3
 72
     8
 73
     4
 74
     0
 42
0.0000000001
 43
0.0000000001
 40
0.0
 40
0.0
 40
0.0
 40
0.0
 40
1.0
 40
1.0
 40
1.0
 40
1.0
 10
11.3071
 20
-18.4395
 30
0.0
 10
10.9852
 20
-18.0016
 30
0.0
 10
10.6273
 20
-17.5914
 30
0.0
 10
10.237
 20
-17.2131
 30
0.0
  0
SPLINE
  5
FA
330
1F
100
AcDbEntity
  8
DEFAULT_1
 62
   250
100
AcDbSpline
210
0.0
220
0.0
230
1.0
 70
     8
 71
     3
 72
     8
 73
     4
 74
     0
 42
0.0000000001
 43
0.0000000001
 40
0.0
 40
0.0
 40
0.0
 40
0.0
 40
1.0
 40
1.0
 40
1.0
 40
1.0
 10
8.8826
 20
-16.1175
 30
0.0
 10
8.5425
 20
-15.8895
 30
0.0
 10
8.1883
 20
-15.6831
 30
0.0
 10
7.8222
 20
-15.4997
 30
0.0
  0
SPLINE
  5
FB
330
1F
100
AcDbEntity
  8
DEFAULT_1
 62
   250
100
AcDbSpline
210
0.0
220
0.0
230
1.0
 70
     8
 71
     3
 72
     8
 73
     4
 74
     0
 42
0.0000000001
 43
0.0000000001
 40
0.0
 40
0.0
 40
0.0
 40
0.0
 40
1.0
 40
1.0
 40
1.0
 40
1.0
 10
6.4767
 20
-14.947
 30
0.0
 10
6.1307
 20
-14.8342
 30
0.0
 10
5.7786
 20
-14.7409
 30
0.0
 10
5.4222
 20
-14.6676
 30
0.0
  0
SPLINE
  5
FC
330
1F
100
AcDbEntity
  8
DEFAULT_1
 62
   250
100
AcDbSpline
210
0.0
220
0.0
230
1.0
 70
     8
 71
     3
 72
     8
 73
     4
 74
     0
 42
0.0000000001
 43
0.0000000001
 40
0.0
 40
0.0
 40
0.0
 40
0.0
 40
1.0
 40
1.0
 40
1.0
 40
1.0
 10
3.9835
 20
-14.4818
 30
0.0
 10
3.686
 20
-14.4658
 30
0.0
 10
3.3881
 20
-14.4634
 30
0.0
 10
3.0905
 20
-14.4747
 30
0.0
  0
SPLINE
  5
FD
330
1F
100
AcDbEntity
  8
DEFAULT_1
 62
   250
100
AcDbSpline
210
0.0
220
0.0
230
1.0
 70
     8
 71
     3
 72
     8
 73
     4
 74
     0
 42
0.0000000001
 43
0.0000000001
 40
0.0
 40
0.0
 40
0.0
 40
0.0
 40
1.0
 40
1.0
 40
1.0
 40
1.0
 10
1.637
 20
-14.6397
 30
0.0
 10
1.2841
 20
-14.7069
 30
0.0
 10
0.9351
 20
-14.7936
 30
0.0
 10
0.5918
 20
-14.8993
 30
0.0
  0
SPLINE
  5
FE
330
1F
100
AcDbEntity
  8
DEFAULT_1
 62
   250
100
AcDbSpline
210
0.0
220
0.0
230
1.0
 70
     8
 71
     3
 72
     8
 73
     4
 74
     0
 42
0.0000000001
 43
0.0000000001
 40
0.0
 40
0.0
 40
0.0
 40
0.0
 40
1.0
 40
1.0
 40
1.0
 40
1.0
 10
-0.7525
 20
-15.4254
 30
0.0
 10
-1.1197
 20
-15.6015
 30
0.0
 10
-1.4756
 20
-15.8005
 30
0.0
 10
-1.818
 20
-16.0212
 30
0.0
  0
SPLINE
  5
FF
330
1F
100
AcDbEntity
  8
DEFAULT_1
 62
   250
100
AcDbSpline
210
0.0
220
0.0
230
1.0
 70
     8
 71
     3
 72
     8
 73
     4
 74
     0
 42
0.0000000001
 43
0.0000000001
 40
0.0
 40
0.0
 40
0.0
 40
0.0
 40
1.0
 40
1.0
 40
1.0
 40
1.0
 10
-3.1651
 20
-17.0673
 30
0.0
 10
-3.5535
 20
-17.4277
 30
0.0
 10
-3.9118
 20
-17.8191
 30
0.0
 10
-4.2366
 20
-18.2377
 30
0.0
  0
SPLINE
  5
100
330
1F
100
AcDbEntity
  8
DEFAULT_1
 62
   250
100
AcDbSpline
210
0.0
220
0.0
230
1.0
 70
     8
 71
     3
 72
     8
 73
     4
 74
     0
 42
0.0000000001
 43
0.0000000001
 40
0.0
 40
0.0
 40
0.0
 40
0.0
 40
1.0
 40
1.0
 40
1.0
 40
1.0
 10
-5.8991
 20
-21.5089
 30
0.0
 10
-6.4004
 20
-23.2475
 30
0.0
 10
-6.4075
 20
-25.0914
 30
0.0
 10
-5.9195
 20
-26.8338
 30
0.0
  0
SPLINE
  5
101
330
1F
100
AcDbEntity
  8
DEFAULT_1
 62
   250
100
AcDbSpline
210
0.0
220
0.0
230
1.0
 70
     8
 71
     3
 72
     8
 73
     4
 74
     0
 42
0.0000000001
 43
0.0000000001
 40
0.0
 40
0.0
 40
0.0
 40
0.0
 40
1.0
 40
1.0
 40
1.0
 40
1.0
 10
-4.2366
 20
-30.1765
 30
0.0
 10
-3.9119
 20
-30.5952
 30
0.0
 10
-3.5535
 20
-30.9866
 30
0.0
 10
-3.1651
 20
-31.347
 30
0.0
  0
SPLINE
  5
102
330
1F
100
AcDbEntity
  8
DEFAULT_1
 62
   250
100
AcDbSpline
210
0.0
220
0.0
230
1.0
 70
     8
 71
     3
 72
     8
 73
     4
 74
     0
 42
0.0000000001
 43
0.0000000001
 40
0.0
 40
0.0
 40
0.0
 40
0.0
 40
1.0
 40
1.0
 40
1.0
 40
1.0
 10
-1.8179
 20
-32.3931
 30
0.0
 10
-1.4756
 20
-32.6138
 30
0.0
 10
-1.1198
 20
-32.8128
 30
0.0
 10
-0.7525
 20
-32.9889
 30
0.0
  0
SPLINE
  5
103
330
1F
100
AcDbEntity
  8
DEFAULT_1
 62
   250
100
AcDbSpline
210
0.0
220
0.0
230
1.0
 70
     8
 71
     3
 72
     8
 73
     4
 74
     0
 42
0.0000000001
 43
0.0000000001
 40
0.0
 40
0.0
 40
0.0
 40
0.0
 40
1.0
 40
1.0
 40
1.0
 40
1.0
 10
0.5917
 20
-33.515
 30
0.0
 10
0.9268
 20
-33.6182
 30
0.0
 10
1.2671
 20
-33.7032
 30
0.0
 10
1.6114
 20
-33.7698
 30
0.0
  0
SPLINE
  5
104
330
1F
100
AcDbEntity
  8
DEFAULT_1
 62
   250
100
AcDbSpline
210
0.0
220
0.0
230
1.0
 70
     8
 71
     3
 72
     8
 73
     4
 74
     0
 42
0.0000000001
 43
0.0000000001
 40
0.0
 40
0.0
 40
0.0
 40
0.0
 40
1.0
 40
1.0
 40
1.0
 40
1.0
 10
5.4435
 20
-33.7423
 30
0.0
 10
5.7927
 20
-33.6697
 30
0.0
 10
6.1376
 20
-33.5779
 30
0.0
 10
6.4767
 20
-33.4674
 30
0.0
  0
SPLINE
  5
105
330
1F
100
AcDbEntity
  8
DEFAULT_1
 62
   250
100
AcDbSpline
210
0.0
220
0.0
230
1.0
 70
     8
 71
     3
 72
     8
 73
     4
 74
     0
 42
0.0000000001
 43
0.0000000001
 40
0.0
 40
0.0
 40
0.0
 40
0.0
 40
1.0
 40
1.0
 40
1.0
 40
1.0
 10
7.8222
 20
-32.9146
 30
0.0
 10
8.1883
 20
-32.7312
 30
0.0
 10
8.5424
 20
-32.5249
 30
0.0
 10
8.8825
 20
-32.2969
 30
0.0
  0
SPLINE
  5
106
330
1F
100
AcDbEntity
  8
DEFAULT_1
 62
   250
100
AcDbSpline
210
0.0
220
0.0
230
1.0
 70
     8
 71
     3
 72
     8
 73
     4
 74
     0
 42
0.0000000001
 43
0.0000000001
 40
0.0
 40
0.0
 40
0.0
 40
0.0
 40
1.0
 40
1.0
 40
1.0
 40
1.0
 10
10.237
 20
-31.2012
 30
0.0
 10
10.6273
 20
-30.823
 30
0.0
 10
10.9852
 20
-30.4128
 30
0.0
 10
11.3071
 20
-29.9748
 30
0.0
  0
SPLINE
  5
107
330
1F
100
AcDbEntity
  8
DEFAULT_1
 62
   250
100
AcDbSpline
210
0.0
220
0.0
230
1.0
 70
     8
 71
     3
 72
     8
 73
     4
 74
     0
 42
0.0000000001
 43
0.0000000001
 40
0.0
 40
0.0
 40
0.0
 40
0.0
 40
1.0
 40
1.0
 40
1.0
 40
1.0
 10
12.856
 20
-26.7673
 30
0.0
 10
13.3187
 20
-25.0691
 30
0.0
 10
13.3125
 20
-23.2773
 30
0.0
 10
12.8382
 20
-21.5824
 30
0.0
  0
SPLINE
  5
108
330
1F
100
AcDbEntity
  8
DEFAULT_1
 62
   250
100
AcDbSpline
210
0.0
220
0.0
230
1.0
 70
     8
 71
     3
 72
     8
 73
     4
 74
     0
 42
0.0000000001
 43
0.0000000001
 40
0.0
 40
0.0
 40
0.0
 40
0.0
 40
1.0
 40
1.0
 40
1.0
 40
1.0
 10
15.7414
 20
-12.0067
 30
0.0
 10
15.7414
 20
-11.9615
 30
0.0
 10
15.7048
 20
-11.9248
 30
0.0
 10
15.6595
 20
-11.9248
 30
0.0
  0
SPLINE
  5
109
330
1F
100
AcDbEntity
  8
DEFAULT_1
  6
NEW_LINE2
 62
   250
100
AcDbSpline
210
0.0
220
0.0
230
1.0
 70
    24
 71
     3
 72
     8
 73
     4
 74
     0
 42
0.0000000001
 43
0.0000000001
 40
0.0
 40
0.0
 40
0.0
 40
0.0
 40
1.0
 40
1.0
 40
1.0
 40
1.0
 10
3.4591
 20
-10.9048
 30
0.0
 10
3.4591
 20
-10.9048
 30
0.0
 10
3.4591
 20
-37.7964
 30
0.0
 10
3.4591
 20
-37.7964
 30
0.0
  0
SPLINE
  5
10B
330
1F
100
AcDbEntity
  8
DEFAULT_1
  6
NEW_LINE3
 62
   250
100
AcDbSpline
210
0.0
220
0.0
230
1.0
 70
    24
 71
     3
 72
     8
 73
     4
 74
     0
 42
0.0000000001
 43
0.0000000001
 40
0.0
 40
0.0
 40
0.0
 40
0.0
 40
1.0
 40
1.0
 40
1.0
 40
1.0
 10
18.045
 20
-24.2072
 30
0.0
 10
18.045
 20
-24.2072
 30
0.0
 10
-10.298
 20
-24.2072
 30
0.0
 10
-10.298
 20
-24.2072
 30
0.0
  0
SPLINE
  5
10D
330
1F
100
AcDbEntity
  8
DEFAULT_1
 62
   250
100
AcDbSpline
210
0.0
220
0.0
230
1.0
 70
    24
 71
     3
 72
     8
 73
     4
 74
     0
 42
0.0000000001
 43
0.0000000001
 40
0.0
 40
0.0
 40
0.0
 40
0.0
 40
1.0
 40
1.0
 40
1.0
 40
1.0
 10
-13.9375
 20
-13.206
 30
0.0
 10
-13.9375
 20
-13.206
 30
0.0
 10
-13.9375
 20
-35.7264
 30
0.0
 10
-13.9375
 20
-35.7264
 30
0.0
  0
SPLINE
  5
10E
330
1F
100
AcDbEntity
  8
DEFAULT_1
 62
   250
100
AcDbSpline
210
0.0
220
0.0
230
1.0
 70
    24
 71
     3
 72
     8
 73
     4
 74
     0
 42
0.0000000001
 43
0.0000000001
 40
0.0
 40
0.0
 40
0.0
 40
0.0
 40
1.0
 40
1.0
 40
1.0
 40
1.0
 10
11.8014
 20
-4.5398
 30
0.0
 10
11.8014
 20
-4.5398
 30
0.0
 10
-4.7873
 20
-4.5398
 30
0.0
 10
-4.7873
 20
-4.5398
 30
0.0
  0
SPLINE
  5
10F
330
1F
100
AcDbEntity
  8
DEFAULT_1
 62
   250
100
AcDbSpline
210
0.0
220
0.0
230
1.0
 70
    24
 71
     3
 72
     8
 73
     4
 74
     0
 42
0.0000000001
 43
0.0000000001
 40
0.0
 40
0.0
 40
0.0
 40
0.0
 40
1.0
 40
1.0
 40
1.0
 40
1.0
 10
-6.0431
 20
-0.9757
 30
0.0
 10
-6.0431
 20
-0.9757
 30
0.0
 10
-15.53
 20
-0.9757
 30
0.0
 10
-15.53
 20
-0.9757
 30
0.0
  0
SPLINE
  5
110
330
1F
100
AcDbEntity
  8
DEFAULT_1
 62
   250
100
AcDbSpline
210
0.0
220
0.0
230
1.0
 70
    24
 71
     3
 72
     8
 73
     4
 74
     0
 42
0.0000000001
 43
0.0000000001
 40
0.0
 40
0.0
 40
0.0
 40
0.0
 40
1.0
 40
1.0
 40
1.0
 40
1.0
 10
-9.8316
 20
26.5555
 30
0.0
 10
-9.8316
 20
26.5555
 30
0.0
 10
-15.3972
 20
26.5555
 30
0.0
 10
-15.3972
 20
26.5555
 30
0.0
  0
SPLINE
  5
111
330
1F
100
AcDbEntity
  8
DEFAULT_1
 62
   250
100
AcDbSpline
210
0.0
220
0.0
230
1.0
 70
    24
 71
     3
 72
     8
 73
     4
 74
     0
 42
0.0000000001
 43
0.0000000001
 40
0.0
 40
0.0
 40
0.0
 40
0.0
 40
1.0
 40
1.0
 40
1.0
 40
1.0
 10
-15.2662
 20
25.4967
 30
0.0
 10
-15.2662
 20
25.4967
 30
0.0
 10
-15.2662
 20
-0.1269
 30
0.0
 10
-15.2662
 20
-0.1269
 30
0.0
  0
SPLINE
  5
112
330
1F
100
AcDbEntity
  8
DEFAULT_1
 62
   250
100
AcDbSpline
210
0.0
220
0.0
230
1.0
 70
    24
 71
     3
 72
     8
 73
     4
 74
     0
 42
0.0000000001
 43
0.0000000001
 40
0.0
 40
0.0
 40
0.0
 40
0.0
 40
1.0
 40
1.0
 40
1.0
 40
1.0
 10
-9.2733
 20
34.0161
 30
0.0
 10
-9.2733
 20
34.0161
 30
0.0
 10
-15.4149
 20
34.0161
 30
0.0
 10
-15.4149
 20
34.0161
 30
0.0
  0
SPLINE
  5
113
330
1F
100
AcDbEntity
  8
DEFAULT_1
 62
   250
100
AcDbSpline
210
0.0
220
0.0
230
1.0
 70
    24
 71
     3
 72
     8
 73
     4
 74
     0
 42
0.0000000001
 43
0.0000000001
 40
0.0
 40
0.0
 40
0.0
 40
0.0
 40
1.0
 40
1.0
 40
1.0
 40
1.0
 10
-15.244
 20
37.7962
 30
0.0
 10
-15.244
 20
37.7962
 30
0.0
 10
-15.244
 20
26.2605
 30
0.0
 10
-15.244
 20
26.2605
 30
0.0
  0
SPLINE
  5
114
330
1F
100
AcDbEntity
  8
DEFAULT_1
 62
   250
100
AcDbSpline
210
0.0
220
0.0
230
1.0
 70
    11
 71
     3
 72
    40
 73
    36
 74
     0
 42
0.0000000001
 43
0.0000000001
 40
0.0
 40
0.0
 40
0.0
 40
0.0
 40
0.1
 40
0.1
 40
0.1
 40
0.1
 40
0.2
 40
0.2
 40
0.2
 40
0.2
 40
0.3
 40
0.3
 40
0.3
 40
0.3
 40
0.4
 40
0.4
 40
0.4
 40
0.4
 40
0.5
 40
0.5
 40
0.5
 40
0.5
 40
0.6
 40
0.6
 40
0.6
 40
0.6
 40
0.7
 40
0.7
 40
0.7
 40
0.7
 40
0.8
 40
0.8
 40
0.8
 40
0.8
 40
1.0
 40
1.0
 40
1.0
 40
1.0
 10
2.1644
 20
-8.7399
 30
0.0
 10
2.1644
 20
-8.7399
 30
0.0
 10
1.9165
 20
-8.7399
 30
0.0
 10
1.9165
 20
-8.7399
 30
0.0
 10
1.9165
 20
-8.7399
 30
0.0
 10
1.9165
 20
-8.7399
 30
0.0
 10
1.9165
 20
-7.1595
 30
0.0
 10
1.9165
 20
-7.1595
 30
0.0
 10
1.9165
 20
-7.1595
 30
0.0
 10
1.8567
 20
-7.2164
 30
0.0
 10
1.7787
 20
-7.2733
 30
0.0
 10
1.6818
 20
-7.3302
 30
0.0
 10
1.6818
 20
-7.3302
 30
0.0
 10
1.5844
 20
-7.3871
 30
0.0
 10
1.4974
 20
-7.4299
 30
0.0
 10
1.4202
 20
-7.4582
 30
0.0
 10
1.4202
 20
-7.4582
 30
0.0
 10
1.4202
 20
-7.4582
 30
0.0
 10
1.4202
 20
-7.2187
 30
0.0
 10
1.4202
 20
-7.2187
 30
0.0
 10
1.4202
 20
-7.2187
 30
0.0
 10
1.559
 20
-7.1534
 30
0.0
 10
1.6804
 20
-7.0743
 30
0.0
 10
1.7843
 20
-6.9817
 30
0.0
 10
1.7843
 20
-6.9817
 30
0.0
 10
1.8878
 20
-6.8885
 30
0.0
 10
1.9616
 20
-6.7987
 30
0.0
 10
2.0049
 20
-6.7112
 30
0.0
 10
2.0049
 20
-6.7112
 30
0.0
 10
2.0049
 20
-6.7112
 30
0.0
 10
2.1644
 20
-6.7112
 30
0.0
 10
2.1644
 20
-6.7112
 30
0.0
 10
2.1644
 20
-6.7112
 30
0.0
 10
2.1644
 20
-6.7112
 30
0.0
 10
2.1644
 20
-8.7399
 30
0.0
 10
2.1644
 20
-8.7399
 30
0.0
  0
SPLINE
  5
115
330
1F
100
AcDbEntity
  8
DEFAULT_1
 62
   250
100
AcDbSpline
210
0.0
220
0.0
230
1.0
 70
    11
 71
     3
 72
    92
 73
    88
 74
     0
 42
0.0000000001
 43
0.0000000001
 40
0.0
 40
0.0
 40
0.0
 40
0.0
 40
0.0434782608695652
 40
0.0434782608695652
 40
0.0434782608695652
 40
0.0434782608695652
 40
0.0869565217391304
 40
0.0869565217391304
 40
0.0869565217391304
 40
0.0869565217391304
 40
0.1304347826086956
 40
0.1304347826086956
 40
0.1304347826086956
 40
0.1304347826086956
 40
0.1739130434782609
 40
0.1739130434782609
 40
0.1739130434782609
 40
0.1739130434782609
 40
0.2173913043478261
 40
0.2173913043478261
 40
0.2173913043478261
 40
0.2173913043478261
 40
0.2608695652173913
 40
0.2608695652173913
 40
0.2608695652173913
 40
0.2608695652173913
 40
0.3043478260869565
 40
0.3043478260869565
 40
0.3043478260869565
 40
0.3043478260869565
 40
0.3478260869565217
 40
0.3478260869565217
 40
0.3478260869565217
 40
0.3478260869565217
 40
0.391304347826087
 40
0.391304347826087
 40
0.391304347826087
 40
0.391304347826087
 40
0.4347826086956522
 40
0.4347826086956522
 40
0.4347826086956522
 40
0.4347826086956522
 40
0.4782608695652174
 40
0.4782608695652174
 40
0.4782608695652174
 40
0.4782608695652174
 40
0.5217391304347826
 40
0.5217391304347826
 40
0.5217391304347826
 40
0.5217391304347826
 40
0.5652173913043478
 40
0.5652173913043478
 40
0.5652173913043478
 40
0.5652173913043478
 40
0.6086956521739131
 40
0.6086956521739131
 40
0.6086956521739131
 40
0.6086956521739131
 40
0.6521739130434783
 40
0.6521739130434783
 40
0.6521739130434783
 40
0.6521739130434783
 40
0.6956521739130435
 40
0.6956521739130435
 40
0.6956521739130435
 40
0.6956521739130435
 40
0.7391304347826086
 40
0.7391304347826086
 40
0.7391304347826086
 40
0.7391304347826086
 40
0.782608695652174
 40
0.782608695652174
 40
0.782608695652174
 40
0.782608695652174
 40
0.8260869565217391
 40
0.8260869565217391
 40
0.8260869565217391
 40
0.8260869565217391
 40
0.8695652173913043
 40
0.8695652173913043
 40
0.8695652173913043
 40
0.8695652173913043
 40
0.9130434782608695
 40
0.9130434782608695
 40
0.9130434782608695
 40
0.9130434782608695
 40
1.0
 40
1.0
 40
1.0
 40
1.0
 10
2.7998
 20
-8.2107
 30
0.0
 10
2.7998
 20
-8.2107
 30
0.0
 10
3.0604
 20
-8.1886
 30
0.0
 10
3.0604
 20
-8.1886
 30
0.0
 10
3.0604
 20
-8.1886
 30
0.0
 10
3.0797
 20
-8.3156
 30
0.0
 10
3.1244
 20
-8.4106
 30
0.0
 10
3.1945
 20
-8.4746
 30
0.0
 10
3.1945
 20
-8.4746
 30
0.0
 10
3.265
 20
-8.5386
 30
0.0
 10
3.3497
 20
-8.5706
 30
0.0
 10
3.4489
 20
-8.5706
 30
0.0
 10
3.4489
 20
-8.5706
 30
0.0
 10
3.5684
 20
-8.5706
 30
0.0
 10
3.6695
 20
-8.5254
 30
0.0
 10
3.7518
 20
-8.4356
 30
0.0
 10
3.7518
 20
-8.4356
 30
0.0
 10
3.8346
 20
-8.3453
 30
0.0
 10
3.876
 20
-8.2258
 30
0.0
 10
3.876
 20
-8.0772
 30
0.0
 10
3.876
 20
-8.0772
 30
0.0
 10
3.876
 20
-7.9356
 30
0.0
 10
3.8365
 20
-7.8241
 30
0.0
 10
3.757
 20
-7.7423
 30
0.0
 10
3.757
 20
-7.7423
 30
0.0
 10
3.6775
 20
-7.6604
 30
0.0
 10
3.5736
 20
-7.6195
 30
0.0
 10
3.4447
 20
-7.6195
 30
0.0
 10
3.4447
 20
-7.6195
 30
0.0
 10
3.3647
 20
-7.6195
 30
0.0
 10
3.2928
 20
-7.6378
 30
0.0
 10
3.2283
 20
-7.674
 30
0.0
 10
3.2283
 20
-7.674
 30
0.0
 10
3.1639
 20
-7.7103
 30
0.0
 10
3.1136
 20
-7.7573
 30
0.0
 10
3.0769
 20
-7.8152
 30
0.0
 10
3.0769
 20
-7.8152
 30
0.0
 10
3.0769
 20
-7.8152
 30
0.0
 10
2.844
 20
-7.7851
 30
0.0
 10
2.844
 20
-7.7851
 30
0.0
 10
2.844
 20
-7.7851
 30
0.0
 10
2.844
 20
-7.7851
 30
0.0
 10
3.0397
 20
-6.7474
 30
0.0
 10
3.0397
 20
-6.7474
 30
0.0
 10
3.0397
 20
-6.7474
 30
0.0
 10
3.0397
 20
-6.7474
 30
0.0
 10
4.0444
 20
-6.7474
 30
0.0
 10
4.0444
 20
-6.7474
 30
0.0
 10
4.0444
 20
-6.7474
 30
0.0
 10
4.0444
 20
-6.7474
 30
0.0
 10
4.0444
 20
-6.9845
 30
0.0
 10
4.0444
 20
-6.9845
 30
0.0
 10
4.0444
 20
-6.9845
 30
0.0
 10
4.0444
 20
-6.9845
 30
0.0
 10
3.2382
 20
-6.9845
 30
0.0
 10
3.2382
 20
-6.9845
 30
0.0
 10
3.2382
 20
-6.9845
 30
0.0
 10
3.2382
 20
-6.9845
 30
0.0
 10
3.1291
 20
-7.5273
 30
0.0
 10
3.1291
 20
-7.5273
 30
0.0
 10
3.1291
 20
-7.5273
 30
0.0
 10
3.2504
 20
-7.4426
 30
0.0
 10
3.3779
 20
-7.4003
 30
0.0
 10
3.511
 20
-7.4003
 30
0.0
 10
3.511
 20
-7.4003
 30
0.0
 10
3.6874
 20
-7.4003
 30
0.0
 10
3.836
 20
-7.4614
 30
0.0
 10
3.9574
 20
-7.5837
 30
0.0
 10
3.9574
 20
-7.5837
 30
0.0
 10
4.0787
 20
-7.706
 30
0.0
 10
4.1394
 20
-7.8631
 30
0.0
 10
4.1394
 20
-8.055
 30
0.0
 10
4.1394
 20
-8.055
 30
0.0
 10
4.1394
 20
-8.238
 30
0.0
 10
4.0858
 20
-8.3961
 30
0.0
 10
3.9795
 20
-8.5292
 30
0.0
 10
3.9795
 20
-8.5292
 30
0.0
 10
3.8497
 20
-8.6924
 30
0.0
 10
3.6728
 20
-8.7742
 30
0.0
 10
3.4489
 20
-8.7742
 30
0.0
 10
3.4489
 20
-8.7742
 30
0.0
 10
3.265
 20
-8.7742
 30
0.0
 10
3.115
 20
-8.723
 30
0.0
 10
2.9988
 20
-8.62
 30
0.0
 10
2.9988
 20
-8.62
 30
0.0
 10
2.8826
 20
-8.5169
 30
0.0
 10
2.8163
 20
-8.3805
 30
0.0
 10
2.7998
 20
-8.2107
 30
0.0
  0
SPLINE
  5
116
330
1F
100
AcDbEntity
  8
DEFAULT_1
 62
   250
100
AcDbSpline
210
0.0
220
0.0
230
1.0
 70
    11
 71
     3
 72
    52
 73
    48
 74
     0
 42
0.0000000001
 43
0.0000000001
 40
0.0
 40
0.0
 40
0.0
 40
0.0
 40
0.0769230769230769
 40
0.0769230769230769
 40
0.0769230769230769
 40
0.0769230769230769
 40
0.1538461538461539
 40
0.1538461538461539
 40
0.1538461538461539
 40
0.1538461538461539
 40
0.2307692307692308
 40
0.2307692307692308
 40
0.2307692307692308
 40
0.2307692307692308
 40
0.3076923076923077
 40
0.3076923076923077
 40
0.3076923076923077
 40
0.3076923076923077
 40
0.3846153846153846
 40
0.3846153846153846
 40
0.3846153846153846
 40
0.3846153846153846
 40
0.4615384615384616
 40
0.4615384615384616
 40
0.4615384615384616
 40
0.4615384615384616
 40
0.5384615384615384
 40
0.5384615384615384
 40
0.5384615384615384
 40
0.5384615384615384
 40
0.6153846153846154
 40
0.6153846153846154
 40
0.6153846153846154
 40
0.6153846153846154
 40
0.6923076923076923
 40
0.6923076923076923
 40
0.6923076923076923
 40
0.6923076923076923
 40
0.7692307692307693
 40
0.7692307692307693
 40
0.7692307692307693
 40
0.7692307692307693
 40
0.8461538461538461
 40
0.8461538461538461
 40
0.8461538461538461
 40
0.8461538461538461
 40
1.0
 40
1.0
 40
1.0
 40
1.0
 10
4.3694
 20
-7.7437
 30
0.0
 10
4.3694
 20
-7.5047
 30
0.0
 10
4.3939
 20
-7.3123
 30
0.0
 10
4.4433
 20
-7.167
 30
0.0
 10
4.4433
 20
-7.167
 30
0.0
 10
4.4922
 20
-7.0212
 30
0.0
 10
4.5656
 20
-6.9088
 30
0.0
 10
4.6625
 20
-6.8297
 30
0.0
 10
4.6625
 20
-6.8297
 30
0.0
 10
4.7594
 20
-6.7507
 30
0.0
 10
4.8812
 20
-6.7112
 30
0.0
 10
5.0279
 20
-6.7112
 30
0.0
 10
5.0279
 20
-6.7112
 30
0.0
 10
5.1366
 20
-6.7112
 30
0.0
 10
5.2316
 20
-6.7333
 30
0.0
 10
5.3134
 20
-6.7771
 30
0.0
 10
5.3134
 20
-6.7771
 30
0.0
 10
5.3953
 20
-6.8203
 30
0.0
 10
5.4626
 20
-6.8834
 30
0.0
 10
5.5162
 20
-6.9657
 30
0.0
 10
5.5162
 20
-6.9657
 30
0.0
 10
5.5693
 20
-7.048
 30
0.0
 10
5.6112
 20
-7.1482
 30
0.0
 10
5.6413
 20
-7.2662
 30
0.0
 10
5.6413
 20
-7.2662
 30
0.0
 10
5.6719
 20
-7.3843
 30
0.0
 10
5.6869
 20
-7.5433
 30
0.0
 10
5.6869
 20
-7.7437
 30
0.0
 10
5.6869
 20
-7.7437
 30
0.0
 10
5.6869
 20
-7.9807
 30
0.0
 10
5.6625
 20
-8.1717
 30
0.0
 10
5.614
 20
-8.3175
 30
0.0
 10
5.614
 20
-8.3175
 30
0.0
 10
5.5651
 20
-8.4633
 30
0.0
 10
5.4922
 20
-8.5757
 30
0.0
 10
5.3953
 20
-8.6552
 30
0.0
 10
5.3953
 20
-8.6552
 30
0.0
 10
5.2984
 20
-8.7347
 30
0.0
 10
5.1761
 20
-8.7742
 30
0.0
 10
5.0279
 20
-8.7742
 30
0.0
 10
5.0279
 20
-8.7742
 30
0.0
 10
4.8332
 20
-8.7742
 30
0.0
 10
4.6803
 20
-8.7046
 30
0.0
 10
4.5693
 20
-8.5649
 30
0.0
 10
4.5693
 20
-8.5649
 30
0.0
 10
4.4362
 20
-8.397
 30
0.0
 10
4.3694
 20
-8.1228
 30
0.0
 10
4.3694
 20
-7.7437
 30
0.0
  0
SPLINE
  5
117
330
1F
100
AcDbEntity
  8
DEFAULT_1
 62
   250
100
AcDbSpline
210
0.0
220
0.0
230
1.0
 70
    11
 71
     3
 72
    36
 73
    32
 74
     0
 42
0.0000000001
 43
0.0000000001
 40
0.0
 40
0.0
 40
0.0
 40
0.0
 40
0.1111111111111111
 40
0.1111111111111111
 40
0.1111111111111111
 40
0.1111111111111111
 40
0.2222222222222222
 40
0.2222222222222222
 40
0.2222222222222222
 40
0.2222222222222222
 40
0.3333333333333333
 40
0.3333333333333333
 40
0.3333333333333333
 40
0.3333333333333333
 40
0.4444444444444444
 40
0.4444444444444444
 40
0.4444444444444444
 40
0.4444444444444444
 40
0.5555555555555556
 40
0.5555555555555556
 40
0.5555555555555556
 40
0.5555555555555556
 40
0.6666666666666666
 40
0.6666666666666666
 40
0.6666666666666666
 40
0.6666666666666666
 40
0.7777777777777778
 40
0.7777777777777778
 40
0.7777777777777778
 40
0.7777777777777778
 40
1.0
 40
1.0
 40
1.0
 40
1.0
 10
4.6244
 20
-7.7437
 30
0.0
 10
4.6244
 20
-8.0753
 30
0.0
 10
4.6634
 20
-8.2959
 30
0.0
 10
4.741
 20
-8.4059
 30
0.0
 10
4.741
 20
-8.4059
 30
0.0
 10
4.8186
 20
-8.5155
 30
0.0
 10
4.9141
 20
-8.5706
 30
0.0
 10
5.0279
 20
-8.5706
 30
0.0
 10
5.0279
 20
-8.5706
 30
0.0
 10
5.1422
 20
-8.5706
 30
0.0
 10
5.2377
 20
-8.5151
 30
0.0
 10
5.3153
 20
-8.405
 30
0.0
 10
5.3153
 20
-8.405
 30
0.0
 10
5.3929
 20
-8.2949
 30
0.0
 10
5.432
 20
-8.0743
 30
0.0
 10
5.432
 20
-7.7437
 30
0.0
 10
5.432
 20
-7.7437
 30
0.0
 10
5.432
 20
-7.4111
 30
0.0
 10
5.3929
 20
-7.19
 30
0.0
 10
5.3153
 20
-7.0809
 30
0.0
 10
5.3153
 20
-7.0809
 30
0.0
 10
5.2377
 20
-6.9713
 30
0.0
 10
5.1413
 20
-6.9168
 30
0.0
 10
5.0256
 20
-6.9168
 30
0.0
 10
5.0256
 20
-6.9168
 30
0.0
 10
4.9113
 20
-6.9168
 30
0.0
 10
4.8205
 20
-6.9652
 30
0.0
 10
4.7523
 20
-7.0616
 30
0.0
 10
4.7523
 20
-7.0616
 30
0.0
 10
4.6672
 20
-7.1844
 30
0.0
 10
4.6244
 20
-7.4121
 30
0.0
 10
4.6244
 20
-7.7437
 30
0.0
  0
SPLINE
  5
118
330
1F
100
AcDbEntity
  8
DEFAULT_1
 62
   250
100
AcDbSpline
210
0.0
220
0.0
230
1.0
 70
    11
 71
     3
 72
    40
 73
    36
 74
     0
 42
0.0000000001
 43
0.0000000001
 40
0.0
 40
0.0
 40
0.0
 40
0.0
 40
0.1
 40
0.1
 40
0.1
 40
0.1
 40
0.2
 40
0.2
 40
0.2
 40
0.2
 40
0.3
 40
0.3
 40
0.3
 40
0.3
 40
0.4
 40
0.4
 40
0.4
 40
0.4
 40
0.5
 40
0.5
 40
0.5
 40
0.5
 40
0.6
 40
0.6
 40
0.6
 40
0.6
 40
0.7
 40
0.7
 40
0.7
 40
0.7
 40
0.8
 40
0.8
 40
0.8
 40
0.8
 40
1.0
 40
1.0
 40
1.0
 40
1.0
 10
-15.8135
 20
13.4348
 30
0.0
 10
-15.8135
 20
13.4348
 30
0.0
 10
-15.8135
 20
13.1869
 30
0.0
 10
-15.8135
 20
13.1869
 30
0.0
 10
-15.8135
 20
13.1869
 30
0.0
 10
-15.8135
 20
13.1869
 30
0.0
 10
-17.3939
 20
13.1869
 30
0.0
 10
-17.3939
 20
13.1869
 30
0.0
 10
-17.3939
 20
13.1869
 30
0.0
 10
-17.337
 20
13.1271
 30
0.0
 10
-17.2801
 20
13.0491
 30
0.0
 10
-17.2232
 20
12.9522
 30
0.0
 10
-17.2232
 20
12.9522
 30
0.0
 10
-17.1663
 20
12.8548
 30
0.0
 10
-17.1235
 20
12.7678
 30
0.0
 10
-17.0952
 20
12.6906
 30
0.0
 10
-17.0952
 20
12.6906
 30
0.0
 10
-17.0952
 20
12.6906
 30
0.0
 10
-17.3347
 20
12.6906
 30
0.0
 10
-17.3347
 20
12.6906
 30
0.0
 10
-17.3347
 20
12.6906
 30
0.0
 10
-17.4
 20
12.8294
 30
0.0
 10
-17.4791
 20
12.9508
 30
0.0
 10
-17.5717
 20
13.0547
 30
0.0
 10
-17.5717
 20
13.0547
 30
0.0
 10
-17.6649
 20
13.1582
 30
0.0
 10
-17.7547
 20
13.232
 30
0.0
 10
-17.8422
 20
13.2753
 30
0.0
 10
-17.8422
 20
13.2753
 30
0.0
 10
-17.8422
 20
13.2753
 30
0.0
 10
-17.8422
 20
13.4348
 30
0.0
 10
-17.8422
 20
13.4348
 30
0.0
 10
-17.8422
 20
13.4348
 30
0.0
 10
-17.8422
 20
13.4348
 30
0.0
 10
-15.8135
 20
13.4348
 30
0.0
 10
-15.8135
 20
13.4348
 30
0.0
  0
SPLINE
  5
119
330
1F
100
AcDbEntity
  8
DEFAULT_1
 62
   250
100
AcDbSpline
210
0.0
220
0.0
230
1.0
 70
    11
 71
     3
 72
    48
 73
    44
 74
     0
 42
0.0000000001
 43
0.0000000001
 40
0.0
 40
0.0
 40
0.0
 40
0.0
 40
0.0833333333333333
 40
0.0833333333333333
 40
0.0833333333333333
 40
0.0833333333333333
 40
0.1666666666666667
 40
0.1666666666666667
 40
0.1666666666666667
 40
0.1666666666666667
 40
0.25
 40
0.25
 40
0.25
 40
0.25
 40
0.3333333333333333
 40
0.3333333333333333
 40
0.3333333333333333
 40
0.3333333333333333
 40
0.4166666666666667
 40
0.4166666666666667
 40
0.4166666666666667
 40
0.4166666666666667
 40
0.5
 40
0.5
 40
0.5
 40
0.5
 40
0.5833333333333334
 40
0.5833333333333334
 40
0.5833333333333334
 40
0.5833333333333334
 40
0.6666666666666666
 40
0.6666666666666666
 40
0.6666666666666666
 40
0.6666666666666666
 40
0.75
 40
0.75
 40
0.75
 40
0.75
 40
0.8333333333333334
 40
0.8333333333333334
 40
0.8333333333333334
 40
0.8333333333333334
 40
1.0
 40
1.0
 40
1.0
 40
1.0
 10
-15.8135
 20
14.8651
 30
0.0
 10
-15.8135
 20
14.8651
 30
0.0
 10
-16.297
 20
14.8651
 30
0.0
 10
-16.297
 20
14.8651
 30
0.0
 10
-16.297
 20
14.8651
 30
0.0
 10
-16.297
 20
14.8651
 30
0.0
 10
-16.297
 20
13.9888
 30
0.0
 10
-16.297
 20
13.9888
 30
0.0
 10
-16.297
 20
13.9888
 30
0.0
 10
-16.297
 20
13.9888
 30
0.0
 10
-16.5247
 20
13.9888
 30
0.0
 10
-16.5247
 20
13.9888
 30
0.0
 10
-16.5247
 20
13.9888
 30
0.0
 10
-16.5247
 20
13.9888
 30
0.0
 10
-17.8337
 20
14.9108
 30
0.0
 10
-17.8337
 20
14.9108
 30
0.0
 10
-17.8337
 20
14.9108
 30
0.0
 10
-17.8337
 20
14.9108
 30
0.0
 10
-17.8337
 20
15.1135
 30
0.0
 10
-17.8337
 20
15.1135
 30
0.0
 10
-17.8337
 20
15.1135
 30
0.0
 10
-17.8337
 20
15.1135
 30
0.0
 10
-16.5247
 20
15.1135
 30
0.0
 10
-16.5247
 20
15.1135
 30
0.0
 10
-16.5247
 20
15.1135
 30
0.0
 10
-16.5247
 20
15.1135
 30
0.0
 10
-16.5247
 20
15.3863
 30
0.0
 10
-16.5247
 20
15.3863
 30
0.0
 10
-16.5247
 20
15.3863
 30
0.0
 10
-16.5247
 20
15.3863
 30
0.0
 10
-16.297
 20
15.3863
 30
0.0
 10
-16.297
 20
15.3863
 30
0.0
 10
-16.297
 20
15.3863
 30
0.0
 10
-16.297
 20
15.3863
 30
0.0
 10
-16.297
 20
15.1135
 30
0.0
 10
-16.297
 20
15.1135
 30
0.0
 10
-16.297
 20
15.1135
 30
0.0
 10
-16.297
 20
15.1135
 30
0.0
 10
-15.8135
 20
15.1135
 30
0.0
 10
-15.8135
 20
15.1135
 30
0.0
 10
-15.8135
 20
15.1135
 30
0.0
 10
-15.8135
 20
15.1135
 30
0.0
 10
-15.8135
 20
14.8651
 30
0.0
 10
-15.8135
 20
14.8651
 30
0.0
  0
SPLINE
  5
11A
330
1F
100
AcDbEntity
  8
DEFAULT_1
 62
   250
100
AcDbSpline
210
0.0
220
0.0
230
1.0
 70
    11
 71
     3
 72
    16
 73
    12
 74
     0
 42
0.0000000001
 43
0.0000000001
 40
0.0
 40
0.0
 40
0.0
 40
0.0
 40
0.25
 40
0.25
 40
0.25
 40
0.25
 40
0.5
 40
0.5
 40
0.5
 40
0.5
 40
1.0
 40
1.0
 40
1.0
 40
1.0
 10
-16.5247
 20
14.8651
 30
0.0
 10
-16.5247
 20
14.8651
 30
0.0
 10
-17.4353
 20
14.8651
 30
0.0
 10
-17.4353
 20
14.8651
 30
0.0
 10
-17.4353
 20
14.8651
 30
0.0
 10
-17.4353
 20
14.8651
 30
0.0
 10
-16.5247
 20
14.233
 30
0.0
 10
-16.5247
 20
14.233
 30
0.0
 10
-16.5247
 20
14.233
 30
0.0
 10
-16.5247
 20
14.233
 30
0.0
 10
-16.5247
 20
14.8651
 30
0.0
 10
-16.5247
 20
14.8651
 30
0.0
  0
SPLINE
  5
11B
330
1F
100
AcDbEntity
  8
DEFAULT_1
 62
   250
100
AcDbSpline
210
0.0
220
0.0
230
1.0
 70
    11
 71
     3
 72
    52
 73
    48
 74
     0
 42
0.0000000001
 43
0.0000000001
 40
0.0
 40
0.0
 40
0.0
 40
0.0
 40
0.0769230769230769
 40
0.0769230769230769
 40
0.0769230769230769
 40
0.0769230769230769
 40
0.1538461538461539
 40
0.1538461538461539
 40
0.1538461538461539
 40
0.1538461538461539
 40
0.2307692307692308
 40
0.2307692307692308
 40
0.2307692307692308
 40
0.2307692307692308
 40
0.3076923076923077
 40
0.3076923076923077
 40
0.3076923076923077
 40
0.3076923076923077
 40
0.3846153846153846
 40
0.3846153846153846
 40
0.3846153846153846
 40
0.3846153846153846
 40
0.4615384615384616
 40
0.4615384615384616
 40
0.4615384615384616
 40
0.4615384615384616
 40
0.5384615384615384
 40
0.5384615384615384
 40
0.5384615384615384
 40
0.5384615384615384
 40
0.6153846153846154
 40
0.6153846153846154
 40
0.6153846153846154
 40
0.6153846153846154
 40
0.6923076923076923
 40
0.6923076923076923
 40
0.6923076923076923
 40
0.6923076923076923
 40
0.7692307692307693
 40
0.7692307692307693
 40
0.7692307692307693
 40
0.7692307692307693
 40
0.8461538461538461
 40
0.8461538461538461
 40
0.8461538461538461
 40
0.8461538461538461
 40
1.0
 40
1.0
 40
1.0
 40
1.0
 10
-16.8097
 20
15.6398
 30
0.0
 10
-17.0487
 20
15.6398
 30
0.0
 10
-17.2411
 20
15.6643
 30
0.0
 10
-17.3864
 20
15.7137
 30
0.0
 10
-17.3864
 20
15.7137
 30
0.0
 10
-17.5322
 20
15.7626
 30
0.0
 10
-17.6446
 20
15.836
 30
0.0
 10
-17.7237
 20
15.9329
 30
0.0
 10
-17.7237
 20
15.9329
 30
0.0
 10
-17.8027
 20
16.0298
 30
0.0
 10
-17.8422
 20
16.1516
 30
0.0
 10
-17.8422
 20
16.2983
 30
0.0
 10
-17.8422
 20
16.2983
 30
0.0
 10
-17.8422
 20
16.407
 30
0.0
 10
-17.8201
 20
16.502
 30
0.0
 10
-17.7763
 20
16.5838
 30
0.0
 10
-17.7763
 20
16.5838
 30
0.0
 10
-17.7331
 20
16.6657
 30
0.0
 10
-17.67
 20
16.733
 30
0.0
 10
-17.5877
 20
16.7866
 30
0.0
 10
-17.5877
 20
16.7866
 30
0.0
 10
-17.5054
 20
16.8397
 30
0.0
 10
-17.4052
 20
16.8816
 30
0.0
 10
-17.2872
 20
16.9117
 30
0.0
 10
-17.2872
 20
16.9117
 30
0.0
 10
-17.1691
 20
16.9423
 30
0.0
 10
-17.0101
 20
16.9573
 30
0.0
 10
-16.8097
 20
16.9573
 30
0.0
 10
-16.8097
 20
16.9573
 30
0.0
 10
-16.5727
 20
16.9573
 30
0.0
 10
-16.3817
 20
16.9329
 30
0.0
 10
-16.2359
 20
16.8844
 30
0.0
 10
-16.2359
 20
16.8844
 30
0.0
 10
-16.0901
 20
16.8355
 30
0.0
 10
-15.9777
 20
16.7626
 30
0.0
 10
-15.8982
 20
16.6657
 30
0.0
 10
-15.8982
 20
16.6657
 30
0.0
 10
-15.8187
 20
16.5688
 30
0.0
 10
-15.7792
 20
16.4465
 30
0.0
 10
-15.7792
 20
16.2983
 30
0.0
 10
-15.7792
 20
16.2983
 30
0.0
 10
-15.7792
 20
16.1036
 30
0.0
 10
-15.8488
 20
15.9507
 30
0.0
 10
-15.9885
 20
15.8397
 30
0.0
 10
-15.9885
 20
15.8397
 30
0.0
 10
-16.1564
 20
15.7066
 30
0.0
 10
-16.4306
 20
15.6398
 30
0.0
 10
-16.8097
 20
15.6398
 30
0.0
  0
SPLINE
  5
11C
330
1F
100
AcDbEntity
  8
DEFAULT_1
 62
   250
100
AcDbSpline
210
0.0
220
0.0
230
1.0
 70
    11
 71
     3
 72
    36
 73
    32
 74
     0
 42
0.0000000001
 43
0.0000000001
 40
0.0
 40
0.0
 40
0.0
 40
0.0
 40
0.1111111111111111
 40
0.1111111111111111
 40
0.1111111111111111
 40
0.1111111111111111
 40
0.2222222222222222
 40
0.2222222222222222
 40
0.2222222222222222
 40
0.2222222222222222
 40
0.3333333333333333
 40
0.3333333333333333
 40
0.3333333333333333
 40
0.3333333333333333
 40
0.4444444444444444
 40
0.4444444444444444
 40
0.4444444444444444
 40
0.4444444444444444
 40
0.5555555555555556
 40
0.5555555555555556
 40
0.5555555555555556
 40
0.5555555555555556
 40
0.6666666666666666
 40
0.6666666666666666
 40
0.6666666666666666
 40
0.6666666666666666
 40
0.7777777777777778
 40
0.7777777777777778
 40
0.7777777777777778
 40
0.7777777777777778
 40
1.0
 40
1.0
 40
1.0
 40
1.0
 10
-16.8097
 20
15.8948
 30
0.0
 10
-16.4781
 20
15.8948
 30
0.0
 10
-16.2575
 20
15.9338
 30
0.0
 10
-16.1475
 20
16.0114
 30
0.0
 10
-16.1475
 20
16.0114
 30
0.0
 10
-16.0379
 20
16.089
 30
0.0
 10
-15.9828
 20
16.1845
 30
0.0
 10
-15.9828
 20
16.2983
 30
0.0
 10
-15.9828
 20
16.2983
 30
0.0
 10
-15.9828
 20
16.4126
 30
0.0
 10
-16.0383
 20
16.5081
 30
0.0
 10
-16.1484
 20
16.5857
 30
0.0
 10
-16.1484
 20
16.5857
 30
0.0
 10
-16.2585
 20
16.6633
 30
0.0
 10
-16.4791
 20
16.7024
 30
0.0
 10
-16.8097
 20
16.7024
 30
0.0
 10
-16.8097
 20
16.7024
 30
0.0
 10
-17.1423
 20
16.7024
 30
0.0
 10
-17.3634
 20
16.6633
 30
0.0
 10
-17.4725
 20
16.5857
 30
0.0
 10
-17.4725
 20
16.5857
 30
0.0
 10
-17.5821
 20
16.5081
 30
0.0
 10
-17.6366
 20
16.4117
 30
0.0
 10
-17.6366
 20
16.296
 30
0.0
 10
-17.6366
 20
16.296
 30
0.0
 10
-17.6366
 20
16.1817
 30
0.0
 10
-17.5882
 20
16.0909
 30
0.0
 10
-17.4918
 20
16.0227
 30
0.0
 10
-17.4918
 20
16.0227
 30
0.0
 10
-17.369
 20
15.9376
 30
0.0
 10
-17.1413
 20
15.8948
 30
0.0
 10
-16.8097
 20
15.8948
 30
0.0
  0
SPLINE
  5
11D
330
1F
100
AcDbEntity
  8
DEFAULT_1
 62
   250
100
AcDbSpline
210
0.0
220
0.0
230
1.0
 70
    11
 71
     3
 72
    84
 73
    80
 74
     0
 42
0.0000000001
 43
0.0000000001
 40
0.0
 40
0.0
 40
0.0
 40
0.0
 40
0.0476190476190476
 40
0.0476190476190476
 40
0.0476190476190476
 40
0.0476190476190476
 40
0.0952380952380952
 40
0.0952380952380952
 40
0.0952380952380952
 40
0.0952380952380952
 40
0.1428571428571428
 40
0.1428571428571428
 40
0.1428571428571428
 40
0.1428571428571428
 40
0.1904761904761905
 40
0.1904761904761905
 40
0.1904761904761905
 40
0.1904761904761905
 40
0.2380952380952381
 40
0.2380952380952381
 40
0.2380952380952381
 40
0.2380952380952381
 40
0.2857142857142857
 40
0.2857142857142857
 40
0.2857142857142857
 40
0.2857142857142857
 40
0.3333333333333333
 40
0.3333333333333333
 40
0.3333333333333333
 40
0.3333333333333333
 40
0.3809523809523809
 40
0.3809523809523809
 40
0.3809523809523809
 40
0.3809523809523809
 40
0.4285714285714285
 40
0.4285714285714285
 40
0.4285714285714285
 40
0.4285714285714285
 40
0.4761904761904762
 40
0.4761904761904762
 40
0.4761904761904762
 40
0.4761904761904762
 40
0.5238095238095238
 40
0.5238095238095238
 40
0.5238095238095238
 40
0.5238095238095238
 40
0.5714285714285714
 40
0.5714285714285714
 40
0.5714285714285714
 40
0.5714285714285714
 40
0.6190476190476191
 40
0.6190476190476191
 40
0.6190476190476191
 40
0.6190476190476191
 40
0.6666666666666666
 40
0.6666666666666666
 40
0.6666666666666666
 40
0.6666666666666666
 40
0.7142857142857143
 40
0.7142857142857143
 40
0.7142857142857143
 40
0.7142857142857143
 40
0.7619047619047619
 40
0.7619047619047619
 40
0.7619047619047619
 40
0.7619047619047619
 40
0.8095238095238095
 40
0.8095238095238095
 40
0.8095238095238095
 40
0.8095238095238095
 40
0.8571428571428571
 40
0.8571428571428571
 40
0.8571428571428571
 40
0.8571428571428571
 40
0.9047619047619048
 40
0.9047619047619048
 40
0.9047619047619048
 40
0.9047619047619048
 40
1.0
 40
1.0
 40
1.0
 40
1.0
 10
2.5208
 20
-2.3073
 30
0.0
 10
2.5208
 20
-2.3073
 30
0.0
 10
2.7522
 20
-2.0482
 30
0.0
 10
2.7522
 20
-2.0482
 30
0.0
 10
2.7522
 20
-2.0482
 30
0.0
 10
2.7522
 20
-2.0482
 30
0.0
 10
2.8886
 20
-2.1639
 30
0.0
 10
2.8886
 20
-2.1639
 30
0.0
 10
2.8886
 20
-2.1639
 30
0.0
 10
2.8886
 20
-2.1639
 30
0.0
 10
2.6464
 20
-2.4367
 30
0.0
 10
2.6464
 20
-2.4367
 30
0.0
 10
2.6464
 20
-2.4367
 30
0.0
 10
2.7254
 20
-2.5543
 30
0.0
 10
2.7785
 20
-2.6573
 30
0.0
 10
2.8063
 20
-2.7452
 30
0.0
 10
2.8063
 20
-2.7452
 30
0.0
 10
2.843
 20
-2.861
 30
0.0
 10
2.8613
 20
-2.9908
 30
0.0
 10
2.8613
 20
-3.1338
 30
0.0
 10
2.8613
 20
-3.1338
 30
0.0
 10
2.8613
 20
-3.3407
 30
0.0
 10
2.8195
 20
-3.5251
 30
0.0
 10
2.7357
 20
-3.6864
 30
0.0
 10
2.7357
 20
-3.6864
 30
0.0
 10
2.652
 20
-3.8483
 30
0.0
 10
2.5349
 20
-3.9705
 30
0.0
 10
2.3839
 20
-4.0533
 30
0.0
 10
2.3839
 20
-4.0533
 30
0.0
 10
2.2324
 20
-4.1356
 30
0.0
 10
2.0721
 20
-4.177
 30
0.0
 10
1.9023
 20
-4.177
 30
0.0
 10
1.9023
 20
-4.177
 30
0.0
 10
1.7753
 20
-4.177
 30
0.0
 10
1.6605
 20
-4.1592
 30
0.0
 10
1.5575
 20
-4.1234
 30
0.0
 10
1.5575
 20
-4.1234
 30
0.0
 10
1.4785
 20
-4.0957
 30
0.0
 10
1.3863
 20
-4.043
 30
0.0
 10
1.2804
 20
-3.9649
 30
0.0
 10
1.2804
 20
-3.9649
 30
0.0
 10
1.2804
 20
-3.9649
 30
0.0
 10
1.049
 20
-4.2241
 30
0.0
 10
1.049
 20
-4.2241
 30
0.0
 10
1.049
 20
-4.2241
 30
0.0
 10
1.049
 20
-4.2241
 30
0.0
 10
0.9126
 20
-4.1084
 30
0.0
 10
0.9126
 20
-4.1084
 30
0.0
 10
0.9126
 20
-4.1084
 30
0.0
 10
0.9126
 20
-4.1084
 30
0.0
 10
1.1553
 20
-3.837
 30
0.0
 10
1.1553
 20
-3.837
 30
0.0
 10
1.1553
 20
-3.837
 30
0.0
 10
1.065
 20
-3.7001
 30
0.0
 10
1.0048
 20
-3.583
 30
0.0
 10
0.9747
 20
-3.4861
 30
0.0
 10
0.9747
 20
-3.4861
 30
0.0
 10
0.9446
 20
-3.3892
 30
0.0
 10
0.9291
 20
-3.2725
 30
0.0
 10
0.9291
 20
-3.1366
 30
0.0
 10
0.9291
 20
-3.1366
 30
0.0
 10
0.9291
 20
-2.9292
 30
0.0
 10
0.9705
 20
-2.7443
 30
0.0
 10
1.0532
 20
-2.582
 30
0.0
 10
1.0532
 20
-2.582
 30
0.0
 10
1.136
 20
-2.4197
 30
0.0
 10
1.2517
 20
-2.297
 30
0.0
 10
1.4013
 20
-2.2133
 30
0.0
 10
1.4013
 20
-2.2133
 30
0.0
 10
1.5504
 20
-2.13
 30
0.0
 10
1.7165
 20
-2.0881
 30
0.0
 10
1.8994
 20
-2.0881
 30
0.0
 10
1.8994
 20
-2.0881
 30
0.0
 10
2.0227
 20
-2.0881
 30
0.0
 10
2.1304
 20
-2.1041
 30
0.0
 10
2.2226
 20
-2.1371
 30
0.0
 10
2.2226
 20
-2.1371
 30
0.0
 10
2.3148
 20
-2.1695
 30
0.0
 10
2.4145
 20
-2.2264
 30
0.0
 10
2.5208
 20
-2.3073
 30
0.0
  0
SPLINE
  5
11E
330
1F
100
AcDbEntity
  8
DEFAULT_1
 62
   250
100
AcDbSpline
210
0.0
220
0.0
230
1.0
 70
    11
 71
     3
 72
    32
 73
    28
 74
     0
 42
0.0000000001
 43
0.0000000001
 40
0.0
 40
0.0
 40
0.0
 40
0.0
 40
0.125
 40
0.125
 40
0.125
 40
0.125
 40
0.25
 40
0.25
 40
0.25
 40
0.25
 40
0.375
 40
0.375
 40
0.375
 40
0.375
 40
0.5
 40
0.5
 40
0.5
 40
0.5
 40
0.625
 40
0.625
 40
0.625
 40
0.625
 40
0.75
 40
0.75
 40
0.75
 40
0.75
 40
1.0
 40
1.0
 40
1.0
 40
1.0
 10
2.3557
 20
-2.4931
 30
0.0
 10
2.2691
 20
-2.4254
 30
0.0
 10
2.1934
 20
-2.3788
 30
0.0
 10
2.129
 20
-2.3539
 30
0.0
 10
2.129
 20
-2.3539
 30
0.0
 10
2.0641
 20
-2.3294
 30
0.0
 10
1.9879
 20
-2.3167
 30
0.0
 10
1.9008
 20
-2.3167
 30
0.0
 10
1.9008
 20
-2.3167
 30
0.0
 10
1.6995
 20
-2.3167
 30
0.0
 10
1.5335
 20
-2.3849
 30
0.0
 10
1.4018
 20
-2.5213
 30
0.0
 10
1.4018
 20
-2.5213
 30
0.0
 10
1.2705
 20
-2.6578
 30
0.0
 10
1.2047
 20
-2.8614
 30
0.0
 10
1.2047
 20
-3.1328
 30
0.0
 10
1.2047
 20
-3.1328
 30
0.0
 10
1.2047
 20
-3.2391
 30
0.0
 10
1.215
 20
-3.3337
 30
0.0
 10
1.2353
 20
-3.4165
 30
0.0
 10
1.2353
 20
-3.4165
 30
0.0
 10
1.2499
 20
-3.4781
 30
0.0
 10
1.2804
 20
-3.5538
 30
0.0
 10
1.3275
 20
-3.6436
 30
0.0
 10
1.3275
 20
-3.6436
 30
0.0
 10
1.3275
 20
-3.6436
 30
0.0
 10
2.3557
 20
-2.4931
 30
0.0
 10
2.3557
 20
-2.4931
 30
0.0
  0
SPLINE
  5
11F
330
1F
100
AcDbEntity
  8
DEFAULT_1
 62
   250
100
AcDbSpline
210
0.0
220
0.0
230
1.0
 70
    11
 71
     3
 72
    28
 73
    24
 74
     0
 42
0.0000000001
 43
0.0000000001
 40
0.0
 40
0.0
 40
0.0
 40
0.0
 40
0.1428571428571428
 40
0.1428571428571428
 40
0.1428571428571428
 40
0.1428571428571428
 40
0.2857142857142857
 40
0.2857142857142857
 40
0.2857142857142857
 40
0.2857142857142857
 40
0.4285714285714285
 40
0.4285714285714285
 40
0.4285714285714285
 40
0.4285714285714285
 40
0.5714285714285714
 40
0.5714285714285714
 40
0.5714285714285714
 40
0.5714285714285714
 40
0.7142857142857143
 40
0.7142857142857143
 40
0.7142857142857143
 40
0.7142857142857143
 40
1.0
 40
1.0
 40
1.0
 40
1.0
 10
2.4686
 20
-2.6352
 30
0.0
 10
2.4686
 20
-2.6352
 30
0.0
 10
1.4446
 20
-3.7815
 30
0.0
 10
1.4446
 20
-3.7815
 30
0.0
 10
1.4446
 20
-3.7815
 30
0.0
 10
1.5151
 20
-3.8393
 30
0.0
 10
1.5805
 20
-3.8798
 30
0.0
 10
1.6403
 20
-3.9028
 30
0.0
 10
1.6403
 20
-3.9028
 30
0.0
 10
1.7183
 20
-3.9334
 30
0.0
 10
1.803
 20
-3.9484
 30
0.0
 10
1.8938
 20
-3.9484
 30
0.0
 10
1.8938
 20
-3.9484
 30
0.0
 10
2.0942
 20
-3.9484
 30
0.0
 10
2.2593
 20
-3.8779
 30
0.0
 10
2.39
 20
-3.7363
 30
0.0
 10
2.39
 20
-3.7363
 30
0.0
 10
2.5203
 20
-3.5947
 30
0.0
 10
2.5857
 20
-3.3962
 30
0.0
 10
2.5857
 20
-3.1408
 30
0.0
 10
2.5857
 20
-3.1408
 30
0.0
 10
2.5857
 20
-2.9499
 30
0.0
 10
2.5467
 20
-2.781
 30
0.0
 10
2.4686
 20
-2.6352
 30
0.0
  0
SPLINE
  5
120
330
1F
100
AcDbEntity
  8
DEFAULT_1
 62
   250
100
AcDbSpline
210
0.0
220
0.0
230
1.0
 70
    11
 71
     3
 72
    40
 73
    36
 74
     0
 42
0.0000000001
 43
0.0000000001
 40
0.0
 40
0.0
 40
0.0
 40
0.0
 40
0.1
 40
0.1
 40
0.1
 40
0.1
 40
0.2
 40
0.2
 40
0.2
 40
0.2
 40
0.3
 40
0.3
 40
0.3
 40
0.3
 40
0.4
 40
0.4
 40
0.4
 40
0.4
 40
0.5
 40
0.5
 40
0.5
 40
0.5
 40
0.6
 40
0.6
 40
0.6
 40
0.6
 40
0.7
 40
0.7
 40
0.7
 40
0.7
 40
0.8
 40
0.8
 40
0.8
 40
0.8
 40
1.0
 40
1.0
 40
1.0
 40
1.0
 10
4.0448
 20
-4.1427
 30
0.0
 10
4.0448
 20
-4.1427
 30
0.0
 10
3.7969
 20
-4.1427
 30
0.0
 10
3.7969
 20
-4.1427
 30
0.0
 10
3.7969
 20
-4.1427
 30
0.0
 10
3.7969
 20
-4.1427
 30
0.0
 10
3.7969
 20
-2.5623
 30
0.0
 10
3.7969
 20
-2.5623
 30
0.0
 10
3.7969
 20
-2.5623
 30
0.0
 10
3.7371
 20
-2.6192
 30
0.0
 10
3.6591
 20
-2.6761
 30
0.0
 10
3.5622
 20
-2.733
 30
0.0
 10
3.5622
 20
-2.733
 30
0.0
 10
3.4648
 20
-2.7899
 30
0.0
 10
3.3778
 20
-2.8327
 30
0.0
 10
3.3006
 20
-2.861
 30
0.0
 10
3.3006
 20
-2.861
 30
0.0
 10
3.3006
 20
-2.861
 30
0.0
 10
3.3006
 20
-2.6215
 30
0.0
 10
3.3006
 20
-2.6215
 30
0.0
 10
3.3006
 20
-2.6215
 30
0.0
 10
3.4394
 20
-2.5562
 30
0.0
 10
3.5608
 20
-2.4771
 30
0.0
 10
3.6647
 20
-2.3845
 30
0.0
 10
3.6647
 20
-2.3845
 30
0.0
 10
3.7682
 20
-2.2913
 30
0.0
 10
3.842
 20
-2.2015
 30
0.0
 10
3.8853
 20
-2.114
 30
0.0
 10
3.8853
 20
-2.114
 30
0.0
 10
3.8853
 20
-2.114
 30
0.0
 10
4.0448
 20
-2.114
 30
0.0
 10
4.0448
 20
-2.114
 30
0.0
 10
4.0448
 20
-2.114
 30
0.0
 10
4.0448
 20
-2.114
 30
0.0
 10
4.0448
 20
-4.1427
 30
0.0
 10
4.0448
 20
-4.1427
 30
0.0
  0
SPLINE
  5
121
330
1F
100
AcDbEntity
  8
DEFAULT_1
 62
   250
100
AcDbSpline
210
0.0
220
0.0
230
1.0
 70
    11
 71
     3
 72
    40
 73
    36
 74
     0
 42
0.0000000001
 43
0.0000000001
 40
0.0
 40
0.0
 40
0.0
 40
0.0
 40
0.1
 40
0.1
 40
0.1
 40
0.1
 40
0.2
 40
0.2
 40
0.2
 40
0.2
 40
0.3
 40
0.3
 40
0.3
 40
0.3
 40
0.4
 40
0.4
 40
0.4
 40
0.4
 40
0.5
 40
0.5
 40
0.5
 40
0.5
 40
0.6
 40
0.6
 40
0.6
 40
0.6
 40
0.7
 40
0.7
 40
0.7
 40
0.7
 40
0.8
 40
0.8
 40
0.8
 40
0.8
 40
1.0
 40
1.0
 40
1.0
 40
1.0
 10
5.4051
 20
-4.1427
 30
0.0
 10
5.4051
 20
-4.1427
 30
0.0
 10
5.1572
 20
-4.1427
 30
0.0
 10
5.1572
 20
-4.1427
 30
0.0
 10
5.1572
 20
-4.1427
 30
0.0
 10
5.1572
 20
-4.1427
 30
0.0
 10
5.1572
 20
-2.5623
 30
0.0
 10
5.1572
 20
-2.5623
 30
0.0
 10
5.1572
 20
-2.5623
 30
0.0
 10
5.0974
 20
-2.6192
 30
0.0
 10
5.0194
 20
-2.6761
 30
0.0
 10
4.9225
 20
-2.733
 30
0.0
 10
4.9225
 20
-2.733
 30
0.0
 10
4.8251
 20
-2.7899
 30
0.0
 10
4.7381
 20
-2.8327
 30
0.0
 10
4.6609
 20
-2.861
 30
0.0
 10
4.6609
 20
-2.861
 30
0.0
 10
4.6609
 20
-2.861
 30
0.0
 10
4.6609
 20
-2.6215
 30
0.0
 10
4.6609
 20
-2.6215
 30
0.0
 10
4.6609
 20
-2.6215
 30
0.0
 10
4.7997
 20
-2.5562
 30
0.0
 10
4.9211
 20
-2.4771
 30
0.0
 10
5.025
 20
-2.3845
 30
0.0
 10
5.025
 20
-2.3845
 30
0.0
 10
5.1285
 20
-2.2913
 30
0.0
 10
5.2023
 20
-2.2015
 30
0.0
 10
5.2456
 20
-2.114
 30
0.0
 10
5.2456
 20
-2.114
 30
0.0
 10
5.2456
 20
-2.114
 30
0.0
 10
5.4051
 20
-2.114
 30
0.0
 10
5.4051
 20
-2.114
 30
0.0
 10
5.4051
 20
-2.114
 30
0.0
 10
5.4051
 20
-2.114
 30
0.0
 10
5.4051
 20
-4.1427
 30
0.0
 10
5.4051
 20
-4.1427
 30
0.0
  0
SPLINE
  5
122
330
1F
100
AcDbEntity
  8
DEFAULT_1
 62
   250
100
AcDbSpline
210
0.0
220
0.0
230
1.0
 70
    11
 71
     3
 72
    52
 73
    48
 74
     0
 42
0.0000000001
 43
0.0000000001
 40
0.0
 40
0.0
 40
0.0
 40
0.0
 40
0.0769230769230769
 40
0.0769230769230769
 40
0.0769230769230769
 40
0.0769230769230769
 40
0.1538461538461539
 40
0.1538461538461539
 40
0.1538461538461539
 40
0.1538461538461539
 40
0.2307692307692308
 40
0.2307692307692308
 40
0.2307692307692308
 40
0.2307692307692308
 40
0.3076923076923077
 40
0.3076923076923077
 40
0.3076923076923077
 40
0.3076923076923077
 40
0.3846153846153846
 40
0.3846153846153846
 40
0.3846153846153846
 40
0.3846153846153846
 40
0.4615384615384616
 40
0.4615384615384616
 40
0.4615384615384616
 40
0.4615384615384616
 40
0.5384615384615384
 40
0.5384615384615384
 40
0.5384615384615384
 40
0.5384615384615384
 40
0.6153846153846154
 40
0.6153846153846154
 40
0.6153846153846154
 40
0.6153846153846154
 40
0.6923076923076923
 40
0.6923076923076923
 40
0.6923076923076923
 40
0.6923076923076923
 40
0.7692307692307693
 40
0.7692307692307693
 40
0.7692307692307693
 40
0.7692307692307693
 40
0.8461538461538461
 40
0.8461538461538461
 40
0.8461538461538461
 40
0.8461538461538461
 40
1.0
 40
1.0
 40
1.0
 40
1.0
 10
6.0405
 20
-3.1465
 30
0.0
 10
6.0405
 20
-2.9075
 30
0.0
 10
6.065
 20
-2.7151
 30
0.0
 10
6.1144
 20
-2.5698
 30
0.0
 10
6.1144
 20
-2.5698
 30
0.0
 10
6.1633
 20
-2.424
 30
0.0
 10
6.2367
 20
-2.3116
 30
0.0
 10
6.3336
 20
-2.2325
 30
0.0
 10
6.3336
 20
-2.2325
 30
0.0
 10
6.4305
 20
-2.1535
 30
0.0
 10
6.5523
 20
-2.114
 30
0.0
 10
6.699
 20
-2.114
 30
0.0
 10
6.699
 20
-2.114
 30
0.0
 10
6.8077
 20
-2.114
 30
0.0
 10
6.9027
 20
-2.1361
 30
0.0
 10
6.9845
 20
-2.1799
 30
0.0
 10
6.9845
 20
-2.1799
 30
0.0
 10
7.0664
 20
-2.2231
 30
0.0
 10
7.1337
 20
-2.2862
 30
0.0
 10
7.1873
 20
-2.3685
 30
0.0
 10
7.1873
 20
-2.3685
 30
0.0
 10
7.2404
 20
-2.4508
 30
0.0
 10
7.2823
 20
-2.551
 30
0.0
 10
7.3124
 20
-2.669
 30
0.0
 10
7.3124
 20
-2.669
 30
0.0
 10
7.343
 20
-2.7871
 30
0.0
 10
7.358
 20
-2.9461
 30
0.0
 10
7.358
 20
-3.1465
 30
0.0
 10
7.358
 20
-3.1465
 30
0.0
 10
7.358
 20
-3.3835
 30
0.0
 10
7.3336
 20
-3.5745
 30
0.0
 10
7.2851
 20
-3.7203
 30
0.0
 10
7.2851
 20
-3.7203
 30
0.0
 10
7.2362
 20
-3.8661
 30
0.0
 10
7.1633
 20
-3.9785
 30
0.0
 10
7.0664
 20
-4.058
 30
0.0
 10
7.0664
 20
-4.058
 30
0.0
 10
6.9695
 20
-4.1375
 30
0.0
 10
6.8472
 20
-4.177
 30
0.0
 10
6.699
 20
-4.177
 30
0.0
 10
6.699
 20
-4.177
 30
0.0
 10
6.5043
 20
-4.177
 30
0.0
 10
6.3514
 20
-4.1074
 30
0.0
 10
6.2404
 20
-3.9677
 30
0.0
 10
6.2404
 20
-3.9677
 30
0.0
 10
6.1073
 20
-3.7998
 30
0.0
 10
6.0405
 20
-3.5256
 30
0.0
 10
6.0405
 20
-3.1465
 30
0.0
  0
SPLINE
  5
123
330
1F
100
AcDbEntity
  8
DEFAULT_1
 62
   250
100
AcDbSpline
210
0.0
220
0.0
230
1.0
 70
    11
 71
     3
 72
    36
 73
    32
 74
     0
 42
0.0000000001
 43
0.0000000001
 40
0.0
 40
0.0
 40
0.0
 40
0.0
 40
0.1111111111111111
 40
0.1111111111111111
 40
0.1111111111111111
 40
0.1111111111111111
 40
0.2222222222222222
 40
0.2222222222222222
 40
0.2222222222222222
 40
0.2222222222222222
 40
0.3333333333333333
 40
0.3333333333333333
 40
0.3333333333333333
 40
0.3333333333333333
 40
0.4444444444444444
 40
0.4444444444444444
 40
0.4444444444444444
 40
0.4444444444444444
 40
0.5555555555555556
 40
0.5555555555555556
 40
0.5555555555555556
 40
0.5555555555555556
 40
0.6666666666666666
 40
0.6666666666666666
 40
0.6666666666666666
 40
0.6666666666666666
 40
0.7777777777777778
 40
0.7777777777777778
 40
0.7777777777777778
 40
0.7777777777777778
 40
1.0
 40
1.0
 40
1.0
 40
1.0
 10
6.2955
 20
-3.1465
 30
0.0
 10
6.2955
 20
-3.4781
 30
0.0
 10
6.3345
 20
-3.6987
 30
0.0
 10
6.4121
 20
-3.8087
 30
0.0
 10
6.4121
 20
-3.8087
 30
0.0
 10
6.4897
 20
-3.9183
 30
0.0
 10
6.5852
 20
-3.9734
 30
0.0
 10
6.699
 20
-3.9734
 30
0.0
 10
6.699
 20
-3.9734
 30
0.0
 10
6.8133
 20
-3.9734
 30
0.0
 10
6.9088
 20
-3.9179
 30
0.0
 10
6.9864
 20
-3.8078
 30
0.0
 10
6.9864
 20
-3.8078
 30
0.0
 10
7.064
 20
-3.6977
 30
0.0
 10
7.1031
 20
-3.4771
 30
0.0
 10
7.1031
 20
-3.1465
 30
0.0
 10
7.1031
 20
-3.1465
 30
0.0
 10
7.1031
 20
-2.8139
 30
0.0
 10
7.064
 20
-2.5928
 30
0.0
 10
6.9864
 20
-2.4837
 30
0.0
 10
6.9864
 20
-2.4837
 30
0.0
 10
6.9088
 20
-2.3741
 30
0.0
 10
6.8124
 20
-2.3196
 30
0.0
 10
6.6967
 20
-2.3196
 30
0.0
 10
6.6967
 20
-2.3196
 30
0.0
 10
6.5824
 20
-2.3196
 30
0.0
 10
6.4916
 20
-2.368
 30
0.0
 10
6.4234
 20
-2.4644
 30
0.0
 10
6.4234
 20
-2.4644
 30
0.0
 10
6.3383
 20
-2.5872
 30
0.0
 10
6.2955
 20
-2.8149
 30
0.0
 10
6.2955
 20
-3.1465
 30
0.0
  0
SPLINE
  5
124
330
1F
100
AcDbEntity
  8
DEFAULT_1
 62
   250
100
AcDbSpline
210
0.0
220
0.0
230
1.0
 70
    11
 71
     3
 72
    16
 73
    12
 74
     0
 42
0.0000000001
 43
0.0000000001
 40
0.0
 40
0.0
 40
0.0
 40
0.0
 40
0.25
 40
0.25
 40
0.25
 40
0.25
 40
0.5
 40
0.5
 40
0.5
 40
0.5
 40
1.0
 40
1.0
 40
1.0
 40
1.0
 10
-8.4501
 20
-9.1652
 30
0.0
 10
-8.4501
 20
-9.1652
 30
0.0
 10
-5.9609
 20
-9.5848
 30
0.0
 10
-5.9609
 20
-9.5848
 30
0.0
 10
-5.9609
 20
-9.5848
 30
0.0
 10
-5.9609
 20
-9.5848
 30
0.0
 10
-5.9609
 20
-8.7457
 30
0.0
 10
-5.9609
 20
-8.7457
 30
0.0
 10
-5.9609
 20
-8.7457
 30
0.0
 10
-5.9609
 20
-8.7457
 30
0.0
 10
-8.4501
 20
-9.1652
 30
0.0
 10
-8.4501
 20
-9.1652
 30
0.0
  0
SPLINE
  5
125
330
1F
100
AcDbEntity
  8
DEFAULT_1
 62
   250
100
AcDbSpline
210
0.0
220
0.0
230
1.0
 70
    11
 71
     3
 72
    16
 73
    12
 74
     0
 42
0.0000000001
 43
0.0000000001
 40
0.0
 40
0.0
 40
0.0
 40
0.0
 40
0.25
 40
0.25
 40
0.25
 40
0.25
 40
0.5
 40
0.5
 40
0.5
 40
0.5
 40
1.0
 40
1.0
 40
1.0
 40
1.0
 10
15.2596
 20
-9.1893
 30
0.0
 10
15.2596
 20
-9.1893
 30
0.0
 10
12.7704
 20
-8.7697
 30
0.0
 10
12.7704
 20
-8.7697
 30
0.0
 10
12.7704
 20
-8.7697
 30
0.0
 10
12.7704
 20
-8.7697
 30
0.0
 10
12.7704
 20
-9.6088
 30
0.0
 10
12.7704
 20
-9.6088
 30
0.0
 10
12.7704
 20
-9.6088
 30
0.0
 10
12.7704
 20
-9.6088
 30
0.0
 10
15.2596
 20
-9.1893
 30
0.0
 10
15.2596
 20
-9.1893
 30
0.0
  0
SPLINE
  5
126
330
1F
100
AcDbEntity
  8
DEFAULT_1
 62
   250
100
AcDbSpline
210
0.0
220
0.0
230
1.0
 70
    11
 71
     3
 72
    40
 73
    36
 74
     0
 42
0.0000000001
 43
0.0000000001
 40
0.0
 40
0.0
 40
0.0
 40
0.0
 40
0.1
 40
0.1
 40
0.1
 40
0.1
 40
0.2
 40
0.2
 40
0.2
 40
0.2
 40
0.3
 40
0.3
 40
0.3
 40
0.3
 40
0.4
 40
0.4
 40
0.4
 40
0.4
 40
0.5
 40
0.5
 40
0.5
 40
0.5
 40
0.6
 40
0.6
 40
0.6
 40
0.6
 40
0.7
 40
0.7
 40
0.7
 40
0.7
 40
0.8
 40
0.8
 40
0.8
 40
0.8
 40
1.0
 40
1.0
 40
1.0
 40
1.0
 10
-14.5772
 20
-25.3144
 30
0.0
 10
-14.5772
 20
-25.3144
 30
0.0
 10
-14.5772
 20
-25.5623
 30
0.0
 10
-14.5772
 20
-25.5623
 30
0.0
 10
-14.5772
 20
-25.5623
 30
0.0
 10
-14.5772
 20
-25.5623
 30
0.0
 10
-16.1576
 20
-25.5623
 30
0.0
 10
-16.1576
 20
-25.5623
 30
0.0
 10
-16.1576
 20
-25.5623
 30
0.0
 10
-16.1007
 20
-25.6221
 30
0.0
 10
-16.0438
 20
-25.7001
 30
0.0
 10
-15.9869
 20
-25.797
 30
0.0
 10
-15.9869
 20
-25.797
 30
0.0
 10
-15.93
 20
-25.8944
 30
0.0
 10
-15.8872
 20
-25.9814
 30
0.0
 10
-15.8589
 20
-26.0586
 30
0.0
 10
-15.8589
 20
-26.0586
 30
0.0
 10
-15.8589
 20
-26.0586
 30
0.0
 10
-16.0984
 20
-26.0586
 30
0.0
 10
-16.0984
 20
-26.0586
 30
0.0
 10
-16.0984
 20
-26.0586
 30
0.0
 10
-16.1637
 20
-25.9198
 30
0.0
 10
-16.2428
 20
-25.7984
 30
0.0
 10
-16.3354
 20
-25.6945
 30
0.0
 10
-16.3354
 20
-25.6945
 30
0.0
 10
-16.4286
 20
-25.591
 30
0.0
 10
-16.5184
 20
-25.5172
 30
0.0
 10
-16.6059
 20
-25.4739
 30
0.0
 10
-16.6059
 20
-25.4739
 30
0.0
 10
-16.6059
 20
-25.4739
 30
0.0
 10
-16.6059
 20
-25.3144
 30
0.0
 10
-16.6059
 20
-25.3144
 30
0.0
 10
-16.6059
 20
-25.3144
 30
0.0
 10
-16.6059
 20
-25.3144
 30
0.0
 10
-14.5772
 20
-25.3144
 30
0.0
 10
-14.5772
 20
-25.3144
 30
0.0
  0
SPLINE
  5
127
330
1F
100
AcDbEntity
  8
DEFAULT_1
 62
   250
100
AcDbSpline
210
0.0
220
0.0
230
1.0
 70
    11
 71
     3
 72
    92
 73
    88
 74
     0
 42
0.0000000001
 43
0.0000000001
 40
0.0
 40
0.0
 40
0.0
 40
0.0
 40
0.0434782608695652
 40
0.0434782608695652
 40
0.0434782608695652
 40
0.0434782608695652
 40
0.0869565217391304
 40
0.0869565217391304
 40
0.0869565217391304
 40
0.0869565217391304
 40
0.1304347826086956
 40
0.1304347826086956
 40
0.1304347826086956
 40
0.1304347826086956
 40
0.1739130434782609
 40
0.1739130434782609
 40
0.1739130434782609
 40
0.1739130434782609
 40
0.2173913043478261
 40
0.2173913043478261
 40
0.2173913043478261
 40
0.2173913043478261
 40
0.2608695652173913
 40
0.2608695652173913
 40
0.2608695652173913
 40
0.2608695652173913
 40
0.3043478260869565
 40
0.3043478260869565
 40
0.3043478260869565
 40
0.3043478260869565
 40
0.3478260869565217
 40
0.3478260869565217
 40
0.3478260869565217
 40
0.3478260869565217
 40
0.391304347826087
 40
0.391304347826087
 40
0.391304347826087
 40
0.391304347826087
 40
0.4347826086956522
 40
0.4347826086956522
 40
0.4347826086956522
 40
0.4347826086956522
 40
0.4782608695652174
 40
0.4782608695652174
 40
0.4782608695652174
 40
0.4782608695652174
 40
0.5217391304347826
 40
0.5217391304347826
 40
0.5217391304347826
 40
0.5217391304347826
 40
0.5652173913043478
 40
0.5652173913043478
 40
0.5652173913043478
 40
0.5652173913043478
 40
0.6086956521739131
 40
0.6086956521739131
 40
0.6086956521739131
 40
0.6086956521739131
 40
0.6521739130434783
 40
0.6521739130434783
 40
0.6521739130434783
 40
0.6521739130434783
 40
0.6956521739130435
 40
0.6956521739130435
 40
0.6956521739130435
 40
0.6956521739130435
 40
0.7391304347826086
 40
0.7391304347826086
 40
0.7391304347826086
 40
0.7391304347826086
 40
0.782608695652174
 40
0.782608695652174
 40
0.782608695652174
 40
0.782608695652174
 40
0.8260869565217391
 40
0.8260869565217391
 40
0.8260869565217391
 40
0.8260869565217391
 40
0.8695652173913043
 40
0.8695652173913043
 40
0.8695652173913043
 40
0.8695652173913043
 40
0.9130434782608695
 40
0.9130434782608695
 40
0.9130434782608695
 40
0.9130434782608695
 40
1.0
 40
1.0
 40
1.0
 40
1.0
 10
-15.1064
 20
-24.679
 30
0.0
 10
-15.1064
 20
-24.679
 30
0.0
 10
-15.1285
 20
-24.4184
 30
0.0
 10
-15.1285
 20
-24.4184
 30
0.0
 10
-15.1285
 20
-24.4184
 30
0.0
 10
-15.0015
 20
-24.3991
 30
0.0
 10
-14.9065
 20
-24.3544
 30
0.0
 10
-14.8425
 20
-24.2843
 30
0.0
 10
-14.8425
 20
-24.2843
 30
0.0
 10
-14.7785
 20
-24.2138
 30
0.0
 10
-14.7465
 20
-24.1291
 30
0.0
 10
-14.7465
 20
-24.0299
 30
0.0
 10
-14.7465
 20
-24.0299
 30
0.0
 10
-14.7465
 20
-23.9104
 30
0.0
 10
-14.7917
 20
-23.8093
 30
0.0
 10
-14.8815
 20
-23.727
 30
0.0
 10
-14.8815
 20
-23.727
 30
0.0
 10
-14.9718
 20
-23.6442
 30
0.0
 10
-15.0913
 20
-23.6028
 30
0.0
 10
-15.2399
 20
-23.6028
 30
0.0
 10
-15.2399
 20
-23.6028
 30
0.0
 10
-15.3815
 20
-23.6028
 30
0.0
 10
-15.493
 20
-23.6423
 30
0.0
 10
-15.5748
 20
-23.7218
 30
0.0
 10
-15.5748
 20
-23.7218
 30
0.0
 10
-15.6567
 20
-23.8013
 30
0.0
 10
-15.6976
 20
-23.9052
 30
0.0
 10
-15.6976
 20
-24.0341
 30
0.0
 10
-15.6976
 20
-24.0341
 30
0.0
 10
-15.6976
 20
-24.1141
 30
0.0
 10
-15.6793
 20
-24.186
 30
0.0
 10
-15.6431
 20
-24.2505
 30
0.0
 10
-15.6431
 20
-24.2505
 30
0.0
 10
-15.6068
 20
-24.3149
 30
0.0
 10
-15.5598
 20
-24.3652
 30
0.0
 10
-15.5019
 20
-24.4019
 30
0.0
 10
-15.5019
 20
-24.4019
 30
0.0
 10
-15.5019
 20
-24.4019
 30
0.0
 10
-15.532
 20
-24.6348
 30
0.0
 10
-15.532
 20
-24.6348
 30
0.0
 10
-15.532
 20
-24.6348
 30
0.0
 10
-15.532
 20
-24.6348
 30
0.0
 10
-16.5697
 20
-24.4391
 30
0.0
 10
-16.5697
 20
-24.4391
 30
0.0
 10
-16.5697
 20
-24.4391
 30
0.0
 10
-16.5697
 20
-24.4391
 30
0.0
 10
-16.5697
 20
-23.4344
 30
0.0
 10
-16.5697
 20
-23.4344
 30
0.0
 10
-16.5697
 20
-23.4344
 30
0.0
 10
-16.5697
 20
-23.4344
 30
0.0
 10
-16.3326
 20
-23.4344
 30
0.0
 10
-16.3326
 20
-23.4344
 30
0.0
 10
-16.3326
 20
-23.4344
 30
0.0
 10
-16.3326
 20
-23.4344
 30
0.0
 10
-16.3326
 20
-24.2406
 30
0.0
 10
-16.3326
 20
-24.2406
 30
0.0
 10
-16.3326
 20
-24.2406
 30
0.0
 10
-16.3326
 20
-24.2406
 30
0.0
 10
-15.7898
 20
-24.3497
 30
0.0
 10
-15.7898
 20
-24.3497
 30
0.0
 10
-15.7898
 20
-24.3497
 30
0.0
 10
-15.8745
 20
-24.2284
 30
0.0
 10
-15.9168
 20
-24.1009
 30
0.0
 10
-15.9168
 20
-23.9678
 30
0.0
 10
-15.9168
 20
-23.9678
 30
0.0
 10
-15.9168
 20
-23.7914
 30
0.0
 10
-15.8557
 20
-23.6428
 30
0.0
 10
-15.7334
 20
-23.5214
 30
0.0
 10
-15.7334
 20
-23.5214
 30
0.0
 10
-15.6111
 20
-23.4001
 30
0.0
 10
-15.454
 20
-23.3394
 30
0.0
 10
-15.2621
 20
-23.3394
 30
0.0
 10
-15.2621
 20
-23.3394
 30
0.0
 10
-15.0791
 20
-23.3394
 30
0.0
 10
-14.921
 20
-23.393
 30
0.0
 10
-14.7879
 20
-23.4993
 30
0.0
 10
-14.7879
 20
-23.4993
 30
0.0
 10
-14.6247
 20
-23.6291
 30
0.0
 10
-14.5429
 20
-23.806
 30
0.0
 10
-14.5429
 20
-24.0299
 30
0.0
 10
-14.5429
 20
-24.0299
 30
0.0
 10
-14.5429
 20
-24.2138
 30
0.0
 10
-14.5941
 20
-24.3638
 30
0.0
 10
-14.6971
 20
-24.48
 30
0.0
 10
-14.6971
 20
-24.48
 30
0.0
 10
-14.8002
 20
-24.5962
 30
0.0
 10
-14.9366
 20
-24.6625
 30
0.0
 10
-15.1064
 20
-24.679
 30
0.0
  0
SPLINE
  5
128
330
1F
100
AcDbEntity
  8
DEFAULT_1
 62
   250
100
AcDbSpline
210
0.0
220
0.0
230
1.0
 70
    11
 71
     3
 72
    52
 73
    48
 74
     0
 42
0.0000000001
 43
0.0000000001
 40
0.0
 40
0.0
 40
0.0
 40
0.0
 40
0.0769230769230769
 40
0.0769230769230769
 40
0.0769230769230769
 40
0.0769230769230769
 40
0.1538461538461539
 40
0.1538461538461539
 40
0.1538461538461539
 40
0.1538461538461539
 40
0.2307692307692308
 40
0.2307692307692308
 40
0.2307692307692308
 40
0.2307692307692308
 40
0.3076923076923077
 40
0.3076923076923077
 40
0.3076923076923077
 40
0.3076923076923077
 40
0.3846153846153846
 40
0.3846153846153846
 40
0.3846153846153846
 40
0.3846153846153846
 40
0.4615384615384616
 40
0.4615384615384616
 40
0.4615384615384616
 40
0.4615384615384616
 40
0.5384615384615384
 40
0.5384615384615384
 40
0.5384615384615384
 40
0.5384615384615384
 40
0.6153846153846154
 40
0.6153846153846154
 40
0.6153846153846154
 40
0.6153846153846154
 40
0.6923076923076923
 40
0.6923076923076923
 40
0.6923076923076923
 40
0.6923076923076923
 40
0.7692307692307693
 40
0.7692307692307693
 40
0.7692307692307693
 40
0.7692307692307693
 40
0.8461538461538461
 40
0.8461538461538461
 40
0.8461538461538461
 40
0.8461538461538461
 40
1.0
 40
1.0
 40
1.0
 40
1.0
 10
-15.5734
 20
-23.1094
 30
0.0
 10
-15.8124
 20
-23.1094
 30
0.0
 10
-16.0048
 20
-23.0849
 30
0.0
 10
-16.1501
 20
-23.0355
 30
0.0
 10
-16.1501
 20
-23.0355
 30
0.0
 10
-16.2959
 20
-22.9866
 30
0.0
 10
-16.4083
 20
-22.9132
 30
0.0
 10
-16.4874
 20
-22.8163
 30
0.0
 10
-16.4874
 20
-22.8163
 30
0.0
 10
-16.5664
 20
-22.7194
 30
0.0
 10
-16.6059
 20
-22.5976
 30
0.0
 10
-16.6059
 20
-22.4509
 30
0.0
 10
-16.6059
 20
-22.4509
 30
0.0
 10
-16.6059
 20
-22.3422
 30
0.0
 10
-16.5838
 20
-22.2472
 30
0.0
 10
-16.54
 20
-22.1654
 30
0.0
 10
-16.54
 20
-22.1654
 30
0.0
 10
-16.4968
 20
-22.0835
 30
0.0
 10
-16.4337
 20
-22.0162
 30
0.0
 10
-16.3514
 20
-21.9626
 30
0.0
 10
-16.3514
 20
-21.9626
 30
0.0
 10
-16.2691
 20
-21.9095
 30
0.0
 10
-16.1689
 20
-21.8676
 30
0.0
 10
-16.0509
 20
-21.8375
 30
0.0
 10
-16.0509
 20
-21.8375
 30
0.0
 10
-15.9328
 20
-21.8069
 30
0.0
 10
-15.7738
 20
-21.7919
 30
0.0
 10
-15.5734
 20
-21.7919
 30
0.0
 10
-15.5734
 20
-21.7919
 30
0.0
 10
-15.3364
 20
-21.7919
 30
0.0
 10
-15.1454
 20
-21.8163
 30
0.0
 10
-14.9996
 20
-21.8648
 30
0.0
 10
-14.9996
 20
-21.8648
 30
0.0
 10
-14.8538
 20
-21.9137
 30
0.0
 10
-14.7414
 20
-21.9866
 30
0.0
 10
-14.6619
 20
-22.0835
 30
0.0
 10
-14.6619
 20
-22.0835
 30
0.0
 10
-14.5824
 20
-22.1804
 30
0.0
 10
-14.5429
 20
-22.3027
 30
0.0
 10
-14.5429
 20
-22.4509
 30
0.0
 10
-14.5429
 20
-22.4509
 30
0.0
 10
-14.5429
 20
-22.6456
 30
0.0
 10
-14.6125
 20
-22.7985
 30
0.0
 10
-14.7522
 20
-22.9095
 30
0.0
 10
-14.7522
 20
-22.9095
 30
0.0
 10
-14.9201
 20
-23.0426
 30
0.0
 10
-15.1943
 20
-23.1094
 30
0.0
 10
-15.5734
 20
-23.1094
 30
0.0
  0
SPLINE
  5
129
330
1F
100
AcDbEntity
  8
DEFAULT_1
 62
   250
100
AcDbSpline
210
0.0
220
0.0
230
1.0
 70
    11
 71
     3
 72
    36
 73
    32
 74
     0
 42
0.0000000001
 43
0.0000000001
 40
0.0
 40
0.0
 40
0.0
 40
0.0
 40
0.1111111111111111
 40
0.1111111111111111
 40
0.1111111111111111
 40
0.1111111111111111
 40
0.2222222222222222
 40
0.2222222222222222
 40
0.2222222222222222
 40
0.2222222222222222
 40
0.3333333333333333
 40
0.3333333333333333
 40
0.3333333333333333
 40
0.3333333333333333
 40
0.4444444444444444
 40
0.4444444444444444
 40
0.4444444444444444
 40
0.4444444444444444
 40
0.5555555555555556
 40
0.5555555555555556
 40
0.5555555555555556
 40
0.5555555555555556
 40
0.6666666666666666
 40
0.6666666666666666
 40
0.6666666666666666
 40
0.6666666666666666
 40
0.7777777777777778
 40
0.7777777777777778
 40
0.7777777777777778
 40
0.7777777777777778
 40
1.0
 40
1.0
 40
1.0
 40
1.0
 10
-15.5734
 20
-22.8544
 30
0.0
 10
-15.2418
 20
-22.8544
 30
0.0
 10
-15.0212
 20
-22.8154
 30
0.0
 10
-14.9112
 20
-22.7378
 30
0.0
 10
-14.9112
 20
-22.7378
 30
0.0
 10
-14.8016
 20
-22.6602
 30
0.0
 10
-14.7465
 20
-22.5647
 30
0.0
 10
-14.7465
 20
-22.4509
 30
0.0
 10
-14.7465
 20
-22.4509
 30
0.0
 10
-14.7465
 20
-22.3366
 30
0.0
 10
-14.802
 20
-22.2411
 30
0.0
 10
-14.9121
 20
-22.1635
 30
0.0
 10
-14.9121
 20
-22.1635
 30
0.0
 10
-15.0222
 20
-22.0859
 30
0.0
 10
-15.2428
 20
-22.0468
 30
0.0
 10
-15.5734
 20
-22.0468
 30
0.0
 10
-15.5734
 20
-22.0468
 30
0.0
 10
-15.906
 20
-22.0468
 30
0.0
 10
-16.1271
 20
-22.0859
 30
0.0
 10
-16.2362
 20
-22.1635
 30
0.0
 10
-16.2362
 20
-22.1635
 30
0.0
 10
-16.3458
 20
-22.2411
 30
0.0
 10
-16.4003
 20
-22.3375
 30
0.0
 10
-16.4003
 20
-22.4532
 30
0.0
 10
-16.4003
 20
-22.4532
 30
0.0
 10
-16.4003
 20
-22.5675
 30
0.0
 10
-16.3519
 20
-22.6583
 30
0.0
 10
-16.2555
 20
-22.7265
 30
0.0
 10
-16.2555
 20
-22.7265
 30
0.0
 10
-16.1327
 20
-22.8116
 30
0.0
 10
-15.905
 20
-22.8544
 30
0.0
 10
-15.5734
 20
-22.8544
 30
0.0
  0
SPLINE
  5
12A
330
1F
100
AcDbEntity
  8
DEFAULT_1
 62
   250
100
AcDbSpline
210
0.0
220
0.0
230
1.0
 70
    11
 71
     3
 72
    16
 73
    12
 74
     0
 42
0.0000000001
 43
0.0000000001
 40
0.0
 40
0.0
 40
0.0
 40
0.0
 40
0.25
 40
0.25
 40
0.25
 40
0.25
 40
0.5
 40
0.5
 40
0.5
 40
0.5
 40
1.0
 40
1.0
 40
1.0
 40
1.0
 10
-13.9379
 20
-36.0286
 30
0.0
 10
-13.9379
 20
-36.0286
 30
0.0
 10
-13.5183
 20
-33.5394
 30
0.0
 10
-13.5183
 20
-33.5394
 30
0.0
 10
-13.5183
 20
-33.5394
 30
0.0
 10
-13.5183
 20
-33.5394
 30
0.0
 10
-14.3574
 20
-33.5394
 30
0.0
 10
-14.3574
 20
-33.5394
 30
0.0
 10
-14.3574
 20
-33.5394
 30
0.0
 10
-14.3574
 20
-33.5394
 30
0.0
 10
-13.9379
 20
-36.0286
 30
0.0
 10
-13.9379
 20
-36.0286
 30
0.0
  0
SPLINE
  5
12B
330
1F
100
AcDbEntity
  8
DEFAULT_1
 62
   250
100
AcDbSpline
210
0.0
220
0.0
230
1.0
 70
    11
 71
     3
 72
    16
 73
    12
 74
     0
 42
0.0000000001
 43
0.0000000001
 40
0.0
 40
0.0
 40
0.0
 40
0.0
 40
0.25
 40
0.25
 40
0.25
 40
0.25
 40
0.5
 40
0.5
 40
0.5
 40
0.5
 40
1.0
 40
1.0
 40
1.0
 40
1.0
 10
-13.8993
 20
-12.3581
 30
0.0
 10
-13.8993
 20
-12.3581
 30
0.0
 10
-14.3189
 20
-14.8473
 30
0.0
 10
-14.3189
 20
-14.8473
 30
0.0
 10
-14.3189
 20
-14.8473
 30
0.0
 10
-14.3189
 20
-14.8473
 30
0.0
 10
-13.4798
 20
-14.8473
 30
0.0
 10
-13.4798
 20
-14.8473
 30
0.0
 10
-13.4798
 20
-14.8473
 30
0.0
 10
-13.4798
 20
-14.8473
 30
0.0
 10
-13.8993
 20
-12.3581
 30
0.0
 10
-13.8993
 20
-12.3581
 30
0.0
  0
SPLINE
  5
12C
330
1F
100
AcDbEntity
  8
DEFAULT_1
 62
   250
100
AcDbSpline
210
0.0
220
0.0
230
1.0
 70
    11
 71
     3
 72
    16
 73
    12
 74
     0
 42
0.0000000001
 43
0.0000000001
 40
0.0
 40
0.0
 40
0.0
 40
0.0
 40
0.25
 40
0.25
 40
0.25
 40
0.25
 40
0.5
 40
0.5
 40
0.5
 40
0.5
 40
1.0
 40
1.0
 40
1.0
 40
1.0
 10
-15.2284
 20
-0.5796
 30
0.0
 10
-15.2284
 20
-0.5796
 30
0.0
 10
-14.8088
 20
1.9096
 30
0.0
 10
-14.8088
 20
1.9096
 30
0.0
 10
-14.8088
 20
1.9096
 30
0.0
 10
-14.8088
 20
1.9096
 30
0.0
 10
-15.6479
 20
1.9096
 30
0.0
 10
-15.6479
 20
1.9096
 30
0.0
 10
-15.6479
 20
1.9096
 30
0.0
 10
-15.6479
 20
1.9096
 30
0.0
 10
-15.2284
 20
-0.5796
 30
0.0
 10
-15.2284
 20
-0.5796
 30
0.0
  0
SPLINE
  5
12D
330
1F
100
AcDbEntity
  8
DEFAULT_1
 62
   250
100
AcDbSpline
210
0.0
220
0.0
230
1.0
 70
    11
 71
     3
 72
    16
 73
    12
 74
     0
 42
0.0000000001
 43
0.0000000001
 40
0.0
 40
0.0
 40
0.0
 40
0.0
 40
0.25
 40
0.25
 40
0.25
 40
0.25
 40
0.5
 40
0.5
 40
0.5
 40
0.5
 40
1.0
 40
1.0
 40
1.0
 40
1.0
 10
-15.2641
 20
26.2532
 30
0.0
 10
-15.2641
 20
26.2532
 30
0.0
 10
-15.6837
 20
23.764
 30
0.0
 10
-15.6837
 20
23.764
 30
0.0
 10
-15.6837
 20
23.764
 30
0.0
 10
-15.6837
 20
23.764
 30
0.0
 10
-14.8446
 20
23.764
 30
0.0
 10
-14.8446
 20
23.764
 30
0.0
 10
-14.8446
 20
23.764
 30
0.0
 10
-14.8446
 20
23.764
 30
0.0
 10
-15.2641
 20
26.2532
 30
0.0
 10
-15.2641
 20
26.2532
 30
0.0
  0
SPLINE
  5
12E
330
1F
100
AcDbEntity
  8
DEFAULT_1
 62
   250
100
AcDbSpline
210
0.0
220
0.0
230
1.0
 70
    11
 71
     3
 72
    16
 73
    12
 74
     0
 42
0.0000000001
 43
0.0000000001
 40
0.0
 40
0.0
 40
0.0
 40
0.0
 40
0.25
 40
0.25
 40
0.25
 40
0.25
 40
0.5
 40
0.5
 40
0.5
 40
0.5
 40
1.0
 40
1.0
 40
1.0
 40
1.0
 10
-5.0972
 20
-4.5513
 30
0.0
 10
-5.0972
 20
-4.5513
 30
0.0
 10
-2.608
 20
-4.9709
 30
0.0
 10
-2.608
 20
-4.9709
 30
0.0
 10
-2.608
 20
-4.9709
 30
0.0
 10
-2.608
 20
-4.9709
 30
0.0
 10
-2.608
 20
-4.1318
 30
0.0
 10
-2.608
 20
-4.1318
 30
0.0
 10
-2.608
 20
-4.1318
 30
0.0
 10
-2.608
 20
-4.1318
 30
0.0
 10
-5.0972
 20
-4.5513
 30
0.0
 10
-5.0972
 20
-4.5513
 30
0.0
  0
SPLINE
  5
12F
330
1F
100
AcDbEntity
  8
DEFAULT_1
 62
   250
100
AcDbSpline
210
0.0
220
0.0
230
1.0
 70
    11
 71
     3
 72
    16
 73
    12
 74
     0
 42
0.0000000001
 43
0.0000000001
 40
0.0
 40
0.0
 40
0.0
 40
0.0
 40
0.25
 40
0.25
 40
0.25
 40
0.25
 40
0.5
 40
0.5
 40
0.5
 40
0.5
 40
1.0
 40
1.0
 40
1.0
 40
1.0
 10
12.0059
 20
-4.5279
 30
0.0
 10
12.0059
 20
-4.5279
 30
0.0
 10
9.5167
 20
-4.1083
 30
0.0
 10
9.5167
 20
-4.1083
 30
0.0
 10
9.5167
 20
-4.1083
 30
0.0
 10
9.5167
 20
-4.1083
 30
0.0
 10
9.5167
 20
-4.9474
 30
0.0
 10
9.5167
 20
-4.9474
 30
0.0
 10
9.5167
 20
-4.9474
 30
0.0
 10
9.5167
 20
-4.9474
 30
0.0
 10
12.0059
 20
-4.5279
 30
0.0
 10
12.0059
 20
-4.5279
 30
0.0
  0
SPLINE
  5
130
330
1F
100
AcDbEntity
  8
DEFAULT_1
 62
   250
100
AcDbSpline
210
0.0
220
0.0
230
1.0
 70
    11
 71
     3
 72
   116
 73
   112
 74
     0
 42
0.0000000001
 43
0.0000000001
 40
0.0
 40
0.0
 40
0.0
 40
0.0
 40
0.0344827586206897
 40
0.0344827586206897
 40
0.0344827586206897
 40
0.0344827586206897
 40
0.0689655172413793
 40
0.0689655172413793
 40
0.0689655172413793
 40
0.0689655172413793
 40
0.103448275862069
 40
0.103448275862069
 40
0.103448275862069
 40
0.103448275862069
 40
0.1379310344827586
 40
0.1379310344827586
 40
0.1379310344827586
 40
0.1379310344827586
 40
0.1724137931034483
 40
0.1724137931034483
 40
0.1724137931034483
 40
0.1724137931034483
 40
0.2068965517241379
 40
0.2068965517241379
 40
0.2068965517241379
 40
0.2068965517241379
 40
0.2413793103448276
 40
0.2413793103448276
 40
0.2413793103448276
 40
0.2413793103448276
 40
0.2758620689655172
 40
0.2758620689655172
 40
0.2758620689655172
 40
0.2758620689655172
 40
0.3103448275862069
 40
0.3103448275862069
 40
0.3103448275862069
 40
0.3103448275862069
 40
0.3448275862068966
 40
0.3448275862068966
 40
0.3448275862068966
 40
0.3448275862068966
 40
0.3793103448275862
 40
0.3793103448275862
 40
0.3793103448275862
 40
0.3793103448275862
 40
0.4137931034482759
 40
0.4137931034482759
 40
0.4137931034482759
 40
0.4137931034482759
 40
0.4482758620689655
 40
0.4482758620689655
 40
0.4482758620689655
 40
0.4482758620689655
 40
0.4827586206896552
 40
0.4827586206896552
 40
0.4827586206896552
 40
0.4827586206896552
 40
0.5172413793103449
 40
0.5172413793103449
 40
0.5172413793103449
 40
0.5172413793103449
 40
0.5517241379310345
 40
0.5517241379310345
 40
0.5517241379310345
 40
0.5517241379310345
 40
0.5862068965517241
 40
0.5862068965517241
 40
0.5862068965517241
 40
0.5862068965517241
 40
0.6206896551724138
 40
0.6206896551724138
 40
0.6206896551724138
 40
0.6206896551724138
 40
0.6551724137931034
 40
0.6551724137931034
 40
0.6551724137931034
 40
0.6551724137931034
 40
0.6896551724137931
 40
0.6896551724137931
 40
0.6896551724137931
 40
0.6896551724137931
 40
0.7241379310344828
 40
0.7241379310344828
 40
0.7241379310344828
 40
0.7241379310344828
 40
0.7586206896551724
 40
0.7586206896551724
 40
0.7586206896551724
 40
0.7586206896551724
 40
0.7931034482758621
 40
0.7931034482758621
 40
0.7931034482758621
 40
0.7931034482758621
 40
0.8275862068965517
 40
0.8275862068965517
 40
0.8275862068965517
 40
0.8275862068965517
 40
0.8620689655172413
 40
0.8620689655172413
 40
0.8620689655172413
 40
0.8620689655172413
 40
0.896551724137931
 40
0.896551724137931
 40
0.896551724137931
 40
0.896551724137931
 40
0.9310344827586207
 40
0.9310344827586207
 40
0.9310344827586207
 40
0.9310344827586207
 40
1.0
 40
1.0
 40
1.0
 40
1.0
 10
-16.0525
 20
26.0016
 30
0.0
 10
-16.0525
 20
26.0016
 30
0.0
 10
-17.5158
 20
26.0016
 30
0.0
 10
-17.5158
 20
26.0016
 30
0.0
 10
-17.5158
 20
26.0016
 30
0.0
 10
-17.5158
 20
26.0016
 30
0.0
 10
-17.5158
 20
26.2231
 30
0.0
 10
-17.5158
 20
26.2231
 30
0.0
 10
-17.5158
 20
26.2231
 30
0.0
 10
-17.5158
 20
26.2231
 30
0.0
 10
-17.3107
 20
26.2231
 30
0.0
 10
-17.3107
 20
26.2231
 30
0.0
 10
-17.3107
 20
26.2231
 30
0.0
 10
-17.3822
 20
26.2692
 30
0.0
 10
-17.4401
 20
26.3304
 30
0.0
 10
-17.4834
 20
26.4066
 30
0.0
 10
-17.4834
 20
26.4066
 30
0.0
 10
-17.5271
 20
26.4828
 30
0.0
 10
-17.5492
 20
26.5698
 30
0.0
 10
-17.5492
 20
26.6671
 30
0.0
 10
-17.5492
 20
26.6671
 30
0.0
 10
-17.5492
 20
26.7753
 30
0.0
 10
-17.5266
 20
26.8642
 30
0.0
 10
-17.4815
 20
26.9334
 30
0.0
 10
-17.4815
 20
26.9334
 30
0.0
 10
-17.4363
 20
27.003
 30
0.0
 10
-17.3738
 20
27.0519
 30
0.0
 10
-17.2929
 20
27.0801
 30
0.0
 10
-17.2929
 20
27.0801
 30
0.0
 10
-17.4636
 20
27.1963
 30
0.0
 10
-17.5492
 20
27.3468
 30
0.0
 10
-17.5492
 20
27.5321
 30
0.0
 10
-17.5492
 20
27.5321
 30
0.0
 10
-17.5492
 20
27.6775
 30
0.0
 10
-17.5088
 20
27.789
 30
0.0
 10
-17.4283
 20
27.867
 30
0.0
 10
-17.4283
 20
27.867
 30
0.0
 10
-17.3479
 20
27.9451
 30
0.0
 10
-17.2242
 20
27.9842
 30
0.0
 10
-17.0572
 20
27.9842
 30
0.0
 10
-17.0572
 20
27.9842
 30
0.0
 10
-17.0572
 20
27.9842
 30
0.0
 10
-16.0525
 20
27.9842
 30
0.0
 10
-16.0525
 20
27.9842
 30
0.0
 10
-16.0525
 20
27.9842
 30
0.0
 10
-16.0525
 20
27.9842
 30
0.0
 10
-16.0525
 20
27.7377
 30
0.0
 10
-16.0525
 20
27.7377
 30
0.0
 10
-16.0525
 20
27.7377
 30
0.0
 10
-16.0525
 20
27.7377
 30
0.0
 10
-16.9744
 20
27.7377
 30
0.0
 10
-16.9744
 20
27.7377
 30
0.0
 10
-16.9744
 20
27.7377
 30
0.0
 10
-17.0737
 20
27.7377
 30
0.0
 10
-17.1452
 20
27.7297
 30
0.0
 10
-17.1889
 20
27.7137
 30
0.0
 10
-17.1889
 20
27.7137
 30
0.0
 10
-17.2322
 20
27.6972
 30
0.0
 10
-17.2675
 20
27.6681
 30
0.0
 10
-17.2943
 20
27.6262
 30
0.0
 10
-17.2943
 20
27.6262
 30
0.0
 10
-17.3206
 20
27.5839
 30
0.0
 10
-17.3342
 20
27.534
 30
0.0
 10
-17.3342
 20
27.4771
 30
0.0
 10
-17.3342
 20
27.4771
 30
0.0
 10
-17.3342
 20
27.3741
 30
0.0
 10
-17.2999
 20
27.289
 30
0.0
 10
-17.2312
 20
27.2208
 30
0.0
 10
-17.2312
 20
27.2208
 30
0.0
 10
-17.163
 20
27.153
 30
0.0
 10
-17.0534
 20
27.1187
 30
0.0
 10
-16.9029
 20
27.1187
 30
0.0
 10
-16.9029
 20
27.1187
 30
0.0
 10
-16.9029
 20
27.1187
 30
0.0
 10
-16.0525
 20
27.1187
 30
0.0
 10
-16.0525
 20
27.1187
 30
0.0
 10
-16.0525
 20
27.1187
 30
0.0
 10
-16.0525
 20
27.1187
 30
0.0
 10
-16.0525
 20
26.8708
 30
0.0
 10
-16.0525
 20
26.8708
 30
0.0
 10
-16.0525
 20
26.8708
 30
0.0
 10
-16.0525
 20
26.8708
 30
0.0
 10
-17.0031
 20
26.8708
 30
0.0
 10
-17.0031
 20
26.8708
 30
0.0
 10
-17.0031
 20
26.8708
 30
0.0
 10
-17.1136
 20
26.8708
 30
0.0
 10
-17.1964
 20
26.8506
 30
0.0
 10
-17.2515
 20
26.8101
 30
0.0
 10
-17.2515
 20
26.8101
 30
0.0
 10
-17.3065
 20
26.7697
 30
0.0
 10
-17.3342
 20
26.7038
 30
0.0
 10
-17.3342
 20
26.6116
 30
0.0
 10
-17.3342
 20
26.6116
 30
0.0
 10
-17.3342
 20
26.542
 30
0.0
 10
-17.3159
 20
26.4776
 30
0.0
 10
-17.2787
 20
26.4183
 30
0.0
 10
-17.2787
 20
26.4183
 30
0.0
 10
-17.2421
 20
26.359
 30
0.0
 10
-17.1884
 20
26.3158
 30
0.0
 10
-17.1179
 20
26.2894
 30
0.0
 10
-17.1179
 20
26.2894
 30
0.0
 10
-17.0469
 20
26.2626
 30
0.0
 10
-16.9448
 20
26.2494
 30
0.0
 10
-16.8117
 20
26.2494
 30
0.0
 10
-16.8117
 20
26.2494
 30
0.0
 10
-16.8117
 20
26.2494
 30
0.0
 10
-16.0525
 20
26.2494
 30
0.0
 10
-16.0525
 20
26.2494
 30
0.0
 10
-16.0525
 20
26.2494
 30
0.0
 10
-16.0525
 20
26.2494
 30
0.0
 10
-16.0525
 20
26.0016
 30
0.0
 10
-16.0525
 20
26.0016
 30
0.0
  0
SPLINE
  5
131
330
1F
100
AcDbEntity
  8
DEFAULT_1
 62
   250
100
AcDbSpline
210
0.0
220
0.0
230
1.0
 70
    11
 71
     3
 72
   112
 73
   108
 74
     0
 42
0.0000000001
 43
0.0000000001
 40
0.0
 40
0.0
 40
0.0
 40
0.0
 40
0.0357142857142857
 40
0.0357142857142857
 40
0.0357142857142857
 40
0.0357142857142857
 40
0.0714285714285714
 40
0.0714285714285714
 40
0.0714285714285714
 40
0.0714285714285714
 40
0.1071428571428571
 40
0.1071428571428571
 40
0.1071428571428571
 40
0.1071428571428571
 40
0.1428571428571428
 40
0.1428571428571428
 40
0.1428571428571428
 40
0.1428571428571428
 40
0.1785714285714286
 40
0.1785714285714286
 40
0.1785714285714286
 40
0.1785714285714286
 40
0.2142857142857143
 40
0.2142857142857143
 40
0.2142857142857143
 40
0.2142857142857143
 40
0.25
 40
0.25
 40
0.25
 40
0.25
 40
0.2857142857142857
 40
0.2857142857142857
 40
0.2857142857142857
 40
0.2857142857142857
 40
0.3214285714285715
 40
0.3214285714285715
 40
0.3214285714285715
 40
0.3214285714285715
 40
0.3571428571428572
 40
0.3571428571428572
 40
0.3571428571428572
 40
0.3571428571428572
 40
0.3928571428571428
 40
0.3928571428571428
 40
0.3928571428571428
 40
0.3928571428571428
 40
0.4285714285714285
 40
0.4285714285714285
 40
0.4285714285714285
 40
0.4285714285714285
 40
0.4642857142857143
 40
0.4642857142857143
 40
0.4642857142857143
 40
0.4642857142857143
 40
0.5
 40
0.5
 40
0.5
 40
0.5
 40
0.5357142857142857
 40
0.5357142857142857
 40
0.5357142857142857
 40
0.5357142857142857
 40
0.5714285714285714
 40
0.5714285714285714
 40
0.5714285714285714
 40
0.5714285714285714
 40
0.6071428571428571
 40
0.6071428571428571
 40
0.6071428571428571
 40
0.6071428571428571
 40
0.6428571428571429
 40
0.6428571428571429
 40
0.6428571428571429
 40
0.6428571428571429
 40
0.6785714285714286
 40
0.6785714285714286
 40
0.6785714285714286
 40
0.6785714285714286
 40
0.7142857142857143
 40
0.7142857142857143
 40
0.7142857142857143
 40
0.7142857142857143
 40
0.75
 40
0.75
 40
0.75
 40
0.75
 40
0.7857142857142857
 40
0.7857142857142857
 40
0.7857142857142857
 40
0.7857142857142857
 40
0.8214285714285714
 40
0.8214285714285714
 40
0.8214285714285714
 40
0.8214285714285714
 40
0.8571428571428571
 40
0.8571428571428571
 40
0.8571428571428571
 40
0.8571428571428571
 40
0.8928571428571429
 40
0.8928571428571429
 40
0.8928571428571429
 40
0.8928571428571429
 40
0.9285714285714286
 40
0.9285714285714286
 40
0.9285714285714286
 40
0.9285714285714286
 40
1.0
 40
1.0
 40
1.0
 40
1.0
 10
-16.2331
 20
29.3073
 30
0.0
 10
-16.155
 20
29.2151
 30
0.0
 10
-16.1
 20
29.1267
 30
0.0
 10
-16.0676
 20
29.042
 30
0.0
 10
-16.0676
 20
29.042
 30
0.0
 10
-16.0356
 20
28.9569
 30
0.0
 10
-16.0196
 20
28.8656
 30
0.0
 10
-16.0196
 20
28.7683
 30
0.0
 10
-16.0196
 20
28.7683
 30
0.0
 10
-16.0196
 20
28.6074
 30
0.0
 10
-16.0586
 20
28.4842
 30
0.0
 10
-16.1372
 20
28.3976
 30
0.0
 10
-16.1372
 20
28.3976
 30
0.0
 10
-16.2157
 20
28.3115
 30
0.0
 10
-16.3164
 20
28.2683
 30
0.0
 10
-16.4382
 20
28.2683
 30
0.0
 10
-16.4382
 20
28.2683
 30
0.0
 10
-16.5102
 20
28.2683
 30
0.0
 10
-16.5755
 20
28.2843
 30
0.0
 10
-16.6348
 20
28.3172
 30
0.0
 10
-16.6348
 20
28.3172
 30
0.0
 10
-16.6941
 20
28.3496
 30
0.0
 10
-16.7416
 20
28.3924
 30
0.0
 10
-16.7773
 20
28.4451
 30
0.0
 10
-16.7773
 20
28.4451
 30
0.0
 10
-16.8131
 20
28.4983
 30
0.0
 10
-16.8404
 20
28.5575
 30
0.0
 10
-16.8587
 20
28.6239
 30
0.0
 10
-16.8587
 20
28.6239
 30
0.0
 10
-16.8714
 20
28.6723
 30
0.0
 10
-16.8841
 20
28.7457
 30
0.0
 10
-16.8959
 20
28.844
 30
0.0
 10
-16.8959
 20
28.844
 30
0.0
 10
-16.9199
 20
29.0444
 30
0.0
 10
-16.9481
 20
29.1921
 30
0.0
 10
-16.9815
 20
29.2866
 30
0.0
 10
-16.9815
 20
29.2866
 30
0.0
 10
-17.0153
 20
29.2876
 30
0.0
 10
-17.037
 20
29.288
 30
0.0
 10
-17.0459
 20
29.288
 30
0.0
 10
-17.0459
 20
29.288
 30
0.0
 10
-17.147
 20
29.288
 30
0.0
 10
-17.2185
 20
29.2645
 30
0.0
 10
-17.2595
 20
29.2175
 30
0.0
 10
-17.2595
 20
29.2175
 30
0.0
 10
-17.3159
 20
29.1544
 30
0.0
 10
-17.3437
 20
29.0599
 30
0.0
 10
-17.3437
 20
28.9352
 30
0.0
 10
-17.3437
 20
28.9352
 30
0.0
 10
-17.3437
 20
28.8186
 30
0.0
 10
-17.3234
 20
28.7325
 30
0.0
 10
-17.2825
 20
28.6765
 30
0.0
 10
-17.2825
 20
28.6765
 30
0.0
 10
-17.2416
 20
28.621
 30
0.0
 10
-17.1692
 20
28.5801
 30
0.0
 10
-17.0652
 20
28.5533
 30
0.0
 10
-17.0652
 20
28.5533
 30
0.0
 10
-17.0652
 20
28.5533
 30
0.0
 10
-17.0986
 20
28.3111
 30
0.0
 10
-17.0986
 20
28.3111
 30
0.0
 10
-17.0986
 20
28.3111
 30
0.0
 10
-17.2021
 20
28.3332
 30
0.0
 10
-17.2863
 20
28.3694
 30
0.0
 10
-17.3498
 20
28.4197
 30
0.0
 10
-17.3498
 20
28.4197
 30
0.0
 10
-17.4137
 20
28.4701
 30
0.0
 10
-17.4631
 20
28.5434
 30
0.0
 10
-17.4975
 20
28.6389
 30
0.0
 10
-17.4975
 20
28.6389
 30
0.0
 10
-17.5318
 20
28.7344
 30
0.0
 10
-17.5492
 20
28.8449
 30
0.0
 10
-17.5492
 20
28.971
 30
0.0
 10
-17.5492
 20
28.971
 30
0.0
 10
-17.5492
 20
29.0961
 30
0.0
 10
-17.5342
 20
29.1972
 30
0.0
 10
-17.505
 20
29.2753
 30
0.0
 10
-17.505
 20
29.2753
 30
0.0
 10
-17.4754
 20
29.3534
 30
0.0
 10
-17.4387
 20
29.4108
 30
0.0
 10
-17.394
 20
29.4479
 30
0.0
 10
-17.394
 20
29.4479
 30
0.0
 10
-17.3493
 20
29.4846
 30
0.0
 10
-17.2933
 20
29.51
 30
0.0
 10
-17.2251
 20
29.5251
 30
0.0
 10
-17.2251
 20
29.5251
 30
0.0
 10
-17.1828
 20
29.5331
 30
0.0
 10
-17.1066
 20
29.5373
 30
0.0
 10
-16.9965
 20
29.5373
 30
0.0
 10
-16.9965
 20
29.5373
 30
0.0
 10
-16.9965
 20
29.5373
 30
0.0
 10
-16.6659
 20
29.5373
 30
0.0
 10
-16.6659
 20
29.5373
 30
0.0
 10
-16.6659
 20
29.5373
 30
0.0
 10
-16.4349
 20
29.5373
 30
0.0
 10
-16.2891
 20
29.5425
 30
0.0
 10
-16.2284
 20
29.5533
 30
0.0
 10
-16.2284
 20
29.5533
 30
0.0
 10
-16.1673
 20
29.5637
 30
0.0
 10
-16.1085
 20
29.5848
 30
0.0
 10
-16.0525
 20
29.6159
 30
0.0
 10
-16.0525
 20
29.6159
 30
0.0
 10
-16.0525
 20
29.6159
 30
0.0
 10
-16.0525
 20
29.3567
 30
0.0
 10
-16.0525
 20
29.3567
 30
0.0
 10
-16.0525
 20
29.3567
 30
0.0
 10
-16.1038
 20
29.3313
 30
0.0
 10
-16.164
 20
29.3144
 30
0.0
 10
-16.2331
 20
29.3073
 30
0.0
  0
SPLINE
  5
132
330
1F
100
AcDbEntity
  8
DEFAULT_1
 62
   250
100
AcDbSpline
210
0.0
220
0.0
230
1.0
 70
    11
 71
     3
 72
    44
 73
    40
 74
     0
 42
0.0000000001
 43
0.0000000001
 40
0.0
 40
0.0
 40
0.0
 40
0.0
 40
0.0909090909090909
 40
0.0909090909090909
 40
0.0909090909090909
 40
0.0909090909090909
 40
0.1818181818181818
 40
0.1818181818181818
 40
0.1818181818181818
 40
0.1818181818181818
 40
0.2727272727272727
 40
0.2727272727272727
 40
0.2727272727272727
 40
0.2727272727272727
 40
0.3636363636363636
 40
0.3636363636363636
 40
0.3636363636363636
 40
0.3636363636363636
 40
0.4545454545454545
 40
0.4545454545454545
 40
0.4545454545454545
 40
0.4545454545454545
 40
0.5454545454545454
 40
0.5454545454545454
 40
0.5454545454545454
 40
0.5454545454545454
 40
0.6363636363636364
 40
0.6363636363636364
 40
0.6363636363636364
 40
0.6363636363636364
 40
0.7272727272727273
 40
0.7272727272727273
 40
0.7272727272727273
 40
0.7272727272727273
 40
0.8181818181818182
 40
0.8181818181818182
 40
0.8181818181818182
 40
0.8181818181818182
 40
1.0
 40
1.0
 40
1.0
 40
1.0
 10
-16.7872
 20
29.2866
 30
0.0
 10
-16.7501
 20
29.1963
 30
0.0
 10
-16.719
 20
29.0613
 30
0.0
 10
-16.6931
 20
28.8816
 30
0.0
 10
-16.6931
 20
28.8816
 30
0.0
 10
-16.6786
 20
28.7796
 30
0.0
 10
-16.6621
 20
28.7071
 30
0.0
 10
-16.6438
 20
28.6653
 30
0.0
 10
-16.6438
 20
28.6653
 30
0.0
 10
-16.6254
 20
28.6229
 30
0.0
 10
-16.5986
 20
28.59
 30
0.0
 10
-16.5628
 20
28.5674
 30
0.0
 10
-16.5628
 20
28.5674
 30
0.0
 10
-16.5276
 20
28.5444
 30
0.0
 10
-16.4885
 20
28.5326
 30
0.0
 10
-16.4453
 20
28.5326
 30
0.0
 10
-16.4453
 20
28.5326
 30
0.0
 10
-16.3789
 20
28.5326
 30
0.0
 10
-16.3239
 20
28.558
 30
0.0
 10
-16.2797
 20
28.6079
 30
0.0
 10
-16.2797
 20
28.6079
 30
0.0
 10
-16.2359
 20
28.6577
 30
0.0
 10
-16.2138
 20
28.7311
 30
0.0
 10
-16.2138
 20
28.8275
 30
0.0
 10
-16.2138
 20
28.8275
 30
0.0
 10
-16.2138
 20
28.923
 30
0.0
 10
-16.2345
 20
29.0082
 30
0.0
 10
-16.2764
 20
29.0825
 30
0.0
 10
-16.2764
 20
29.0825
 30
0.0
 10
-16.3183
 20
29.1568
 30
0.0
 10
-16.3756
 20
29.2118
 30
0.0
 10
-16.4481
 20
29.2466
 30
0.0
 10
-16.4481
 20
29.2466
 30
0.0
 10
-16.5041
 20
29.2734
 30
0.0
 10
-16.5868
 20
29.2866
 30
0.0
 10
-16.696
 20
29.2866
 30
0.0
 10
-16.696
 20
29.2866
 30
0.0
 10
-16.696
 20
29.2866
 30
0.0
 10
-16.7872
 20
29.2866
 30
0.0
 10
-16.7872
 20
29.2866
 30
0.0
  0
SPLINE
  5
133
330
1F
100
AcDbEntity
  8
DEFAULT_1
 62
   250
100
AcDbSpline
210
0.0
220
0.0
230
1.0
 70
    11
 71
     3
 72
    64
 73
    60
 74
     0
 42
0.0000000001
 43
0.0000000001
 40
0.0
 40
0.0
 40
0.0
 40
0.0
 40
0.0625
 40
0.0625
 40
0.0625
 40
0.0625
 40
0.125
 40
0.125
 40
0.125
 40
0.125
 40
0.1875
 40
0.1875
 40
0.1875
 40
0.1875
 40
0.25
 40
0.25
 40
0.25
 40
0.25
 40
0.3125
 40
0.3125
 40
0.3125
 40
0.3125
 40
0.375
 40
0.375
 40
0.375
 40
0.375
 40
0.4375
 40
0.4375
 40
0.4375
 40
0.4375
 40
0.5
 40
0.5
 40
0.5
 40
0.5
 40
0.5625
 40
0.5625
 40
0.5625
 40
0.5625
 40
0.625
 40
0.625
 40
0.625
 40
0.625
 40
0.6875
 40
0.6875
 40
0.6875
 40
0.6875
 40
0.75
 40
0.75
 40
0.75
 40
0.75
 40
0.8125
 40
0.8125
 40
0.8125
 40
0.8125
 40
0.875
 40
0.875
 40
0.875
 40
0.875
 40
1.0
 40
1.0
 40
1.0
 40
1.0
 10
-16.0525
 20
29.7565
 30
0.0
 10
-16.0525
 20
29.7565
 30
0.0
 10
-16.8131
 20
30.2913
 30
0.0
 10
-16.8131
 20
30.2913
 30
0.0
 10
-16.8131
 20
30.2913
 30
0.0
 10
-16.8131
 20
30.2913
 30
0.0
 10
-17.5158
 20
29.7965
 30
0.0
 10
-17.5158
 20
29.7965
 30
0.0
 10
-17.5158
 20
29.7965
 30
0.0
 10
-17.5158
 20
29.7965
 30
0.0
 10
-17.5158
 20
30.1064
 30
0.0
 10
-17.5158
 20
30.1064
 30
0.0
 10
-17.5158
 20
30.1064
 30
0.0
 10
-17.5158
 20
30.1064
 30
0.0
 10
-17.1729
 20
30.3313
 30
0.0
 10
-17.1729
 20
30.3313
 30
0.0
 10
-17.1729
 20
30.3313
 30
0.0
 10
-17.1075
 20
30.3731
 30
0.0
 10
-17.053
 20
30.4075
 30
0.0
 10
-17.0088
 20
30.4329
 30
0.0
 10
-17.0088
 20
30.4329
 30
0.0
 10
-17.0694
 20
30.4733
 30
0.0
 10
-17.1231
 20
30.5105
 30
0.0
 10
-17.1701
 20
30.5448
 30
0.0
 10
-17.1701
 20
30.5448
 30
0.0
 10
-17.1701
 20
30.5448
 30
0.0
 10
-17.5158
 20
30.7913
 30
0.0
 10
-17.5158
 20
30.7913
 30
0.0
 10
-17.5158
 20
30.7913
 30
0.0
 10
-17.5158
 20
30.7913
 30
0.0
 10
-17.5158
 20
31.0876
 30
0.0
 10
-17.5158
 20
31.0876
 30
0.0
 10
-17.5158
 20
31.0876
 30
0.0
 10
-17.5158
 20
31.0876
 30
0.0
 10
-16.8267
 20
30.582
 30
0.0
 10
-16.8267
 20
30.582
 30
0.0
 10
-16.8267
 20
30.582
 30
0.0
 10
-16.8267
 20
30.582
 30
0.0
 10
-16.0525
 20
31.1262
 30
0.0
 10
-16.0525
 20
31.1262
 30
0.0
 10
-16.0525
 20
31.1262
 30
0.0
 10
-16.0525
 20
31.1262
 30
0.0
 10
-16.0525
 20
30.8219
 30
0.0
 10
-16.0525
 20
30.8219
 30
0.0
 10
-16.0525
 20
30.8219
 30
0.0
 10
-16.0525
 20
30.8219
 30
0.0
 10
-16.5073
 20
30.5213
 30
0.0
 10
-16.5073
 20
30.5213
 30
0.0
 10
-16.5073
 20
30.5213
 30
0.0
 10
-16.5073
 20
30.5213
 30
0.0
 10
-16.6301
 20
30.4414
 30
0.0
 10
-16.6301
 20
30.4414
 30
0.0
 10
-16.6301
 20
30.4414
 30
0.0
 10
-16.6301
 20
30.4414
 30
0.0
 10
-16.0525
 20
30.0571
 30
0.0
 10
-16.0525
 20
30.0571
 30
0.0
 10
-16.0525
 20
30.0571
 30
0.0
 10
-16.0525
 20
30.0571
 30
0.0
 10
-16.0525
 20
29.7565
 30
0.0
 10
-16.0525
 20
29.7565
 30
0.0
  0
SPLINE
  5
134
330
1F
100
AcDbEntity
  8
DEFAULT_1
 62
   250
100
AcDbSpline
210
0.0
220
0.0
230
1.0
 70
    11
 71
     3
 72
    92
 73
    88
 74
     0
 42
0.0000000001
 43
0.0000000001
 40
0.0
 40
0.0
 40
0.0
 40
0.0
 40
0.0434782608695652
 40
0.0434782608695652
 40
0.0434782608695652
 40
0.0434782608695652
 40
0.0869565217391304
 40
0.0869565217391304
 40
0.0869565217391304
 40
0.0869565217391304
 40
0.1304347826086956
 40
0.1304347826086956
 40
0.1304347826086956
 40
0.1304347826086956
 40
0.1739130434782609
 40
0.1739130434782609
 40
0.1739130434782609
 40
0.1739130434782609
 40
0.2173913043478261
 40
0.2173913043478261
 40
0.2173913043478261
 40
0.2173913043478261
 40
0.2608695652173913
 40
0.2608695652173913
 40
0.2608695652173913
 40
0.2608695652173913
 40
0.3043478260869565
 40
0.3043478260869565
 40
0.3043478260869565
 40
0.3043478260869565
 40
0.3478260869565217
 40
0.3478260869565217
 40
0.3478260869565217
 40
0.3478260869565217
 40
0.391304347826087
 40
0.391304347826087
 40
0.391304347826087
 40
0.391304347826087
 40
0.4347826086956522
 40
0.4347826086956522
 40
0.4347826086956522
 40
0.4347826086956522
 40
0.4782608695652174
 40
0.4782608695652174
 40
0.4782608695652174
 40
0.4782608695652174
 40
0.5217391304347826
 40
0.5217391304347826
 40
0.5217391304347826
 40
0.5217391304347826
 40
0.5652173913043478
 40
0.5652173913043478
 40
0.5652173913043478
 40
0.5652173913043478
 40
0.6086956521739131
 40
0.6086956521739131
 40
0.6086956521739131
 40
0.6086956521739131
 40
0.6521739130434783
 40
0.6521739130434783
 40
0.6521739130434783
 40
0.6521739130434783
 40
0.6956521739130435
 40
0.6956521739130435
 40
0.6956521739130435
 40
0.6956521739130435
 40
0.7391304347826086
 40
0.7391304347826086
 40
0.7391304347826086
 40
0.7391304347826086
 40
0.782608695652174
 40
0.782608695652174
 40
0.782608695652174
 40
0.782608695652174
 40
0.8260869565217391
 40
0.8260869565217391
 40
0.8260869565217391
 40
0.8260869565217391
 40
0.8695652173913043
 40
0.8695652173913043
 40
0.8695652173913043
 40
0.8695652173913043
 40
0.9130434782608695
 40
0.9130434782608695
 40
0.9130434782608695
 40
0.9130434782608695
 40
1.0
 40
1.0
 40
1.0
 40
1.0
 10
-16.5817
 20
32.0481
 30
0.0
 10
-16.5817
 20
32.0481
 30
0.0
 10
-16.6038
 20
32.3087
 30
0.0
 10
-16.6038
 20
32.3087
 30
0.0
 10
-16.6038
 20
32.3087
 30
0.0
 10
-16.4768
 20
32.328
 30
0.0
 10
-16.3818
 20
32.3727
 30
0.0
 10
-16.3178
 20
32.4428
 30
0.0
 10
-16.3178
 20
32.4428
 30
0.0
 10
-16.2538
 20
32.5133
 30
0.0
 10
-16.2218
 20
32.598
 30
0.0
 10
-16.2218
 20
32.6972
 30
0.0
 10
-16.2218
 20
32.6972
 30
0.0
 10
-16.2218
 20
32.8167
 30
0.0
 10
-16.267
 20
32.9178
 30
0.0
 10
-16.3568
 20
33.0001
 30
0.0
 10
-16.3568
 20
33.0001
 30
0.0
 10
-16.4471
 20
33.0829
 30
0.0
 10
-16.5666
 20
33.1243
 30
0.0
 10
-16.7152
 20
33.1243
 30
0.0
 10
-16.7152
 20
33.1243
 30
0.0
 10
-16.8568
 20
33.1243
 30
0.0
 10
-16.9683
 20
33.0848
 30
0.0
 10
-17.0501
 20
33.0053
 30
0.0
 10
-17.0501
 20
33.0053
 30
0.0
 10
-17.132
 20
32.9258
 30
0.0
 10
-17.1729
 20
32.8219
 30
0.0
 10
-17.1729
 20
32.693
 30
0.0
 10
-17.1729
 20
32.693
 30
0.0
 10
-17.1729
 20
32.613
 30
0.0
 10
-17.1546
 20
32.5411
 30
0.0
 10
-17.1184
 20
32.4766
 30
0.0
 10
-17.1184
 20
32.4766
 30
0.0
 10
-17.0821
 20
32.4122
 30
0.0
 10
-17.0351
 20
32.3619
 30
0.0
 10
-16.9772
 20
32.3252
 30
0.0
 10
-16.9772
 20
32.3252
 30
0.0
 10
-16.9772
 20
32.3252
 30
0.0
 10
-17.0073
 20
32.0923
 30
0.0
 10
-17.0073
 20
32.0923
 30
0.0
 10
-17.0073
 20
32.0923
 30
0.0
 10
-17.0073
 20
32.0923
 30
0.0
 10
-18.045
 20
32.288
 30
0.0
 10
-18.045
 20
32.288
 30
0.0
 10
-18.045
 20
32.288
 30
0.0
 10
-18.045
 20
32.288
 30
0.0
 10
-18.045
 20
33.2927
 30
0.0
 10
-18.045
 20
33.2927
 30
0.0
 10
-18.045
 20
33.2927
 30
0.0
 10
-18.045
 20
33.2927
 30
0.0
 10
-17.8079
 20
33.2927
 30
0.0
 10
-17.8079
 20
33.2927
 30
0.0
 10
-17.8079
 20
33.2927
 30
0.0
 10
-17.8079
 20
33.2927
 30
0.0
 10
-17.8079
 20
32.4865
 30
0.0
 10
-17.8079
 20
32.4865
 30
0.0
 10
-17.8079
 20
32.4865
 30
0.0
 10
-17.8079
 20
32.4865
 30
0.0
 10
-17.2651
 20
32.3774
 30
0.0
 10
-17.2651
 20
32.3774
 30
0.0
 10
-17.2651
 20
32.3774
 30
0.0
 10
-17.3498
 20
32.4987
 30
0.0
 10
-17.3921
 20
32.6262
 30
0.0
 10
-17.3921
 20
32.7593
 30
0.0
 10
-17.3921
 20
32.7593
 30
0.0
 10
-17.3921
 20
32.9357
 30
0.0
 10
-17.331
 20
33.0843
 30
0.0
 10
-17.2087
 20
33.2057
 30
0.0
 10
-17.2087
 20
33.2057
 30
0.0
 10
-17.0864
 20
33.327
 30
0.0
 10
-16.9293
 20
33.3877
 30
0.0
 10
-16.7374
 20
33.3877
 30
0.0
 10
-16.7374
 20
33.3877
 30
0.0
 10
-16.5544
 20
33.3877
 30
0.0
 10
-16.3963
 20
33.3341
 30
0.0
 10
-16.2632
 20
33.2278
 30
0.0
 10
-16.2632
 20
33.2278
 30
0.0
 10
-16.1
 20
33.098
 30
0.0
 10
-16.0182
 20
32.9211
 30
0.0
 10
-16.0182
 20
32.6972
 30
0.0
 10
-16.0182
 20
32.6972
 30
0.0
 10
-16.0182
 20
32.5133
 30
0.0
 10
-16.0694
 20
32.3633
 30
0.0
 10
-16.1724
 20
32.2471
 30
0.0
 10
-16.1724
 20
32.2471
 30
0.0
 10
-16.2755
 20
32.1309
 30
0.0
 10
-16.4119
 20
32.0646
 30
0.0
 10
-16.5817
 20
32.0481
 30
0.0
  0
SPLINE
  5
135
330
1F
100
AcDbEntity
  8
DEFAULT_1
 62
   250
100
AcDbSpline
210
0.0
220
0.0
230
1.0
 70
    11
 71
     3
 72
    92
 73
    88
 74
     0
 42
0.0000000001
 43
0.0000000001
 40
0.0
 40
0.0
 40
0.0
 40
0.0
 40
0.0434782608695652
 40
0.0434782608695652
 40
0.0434782608695652
 40
0.0434782608695652
 40
0.0869565217391304
 40
0.0869565217391304
 40
0.0869565217391304
 40
0.0869565217391304
 40
0.1304347826086956
 40
0.1304347826086956
 40
0.1304347826086956
 40
0.1304347826086956
 40
0.1739130434782609
 40
0.1739130434782609
 40
0.1739130434782609
 40
0.1739130434782609
 40
0.2173913043478261
 40
0.2173913043478261
 40
0.2173913043478261
 40
0.2173913043478261
 40
0.2608695652173913
 40
0.2608695652173913
 40
0.2608695652173913
 40
0.2608695652173913
 40
0.3043478260869565
 40
0.3043478260869565
 40
0.3043478260869565
 40
0.3043478260869565
 40
0.3478260869565217
 40
0.3478260869565217
 40
0.3478260869565217
 40
0.3478260869565217
 40
0.391304347826087
 40
0.391304347826087
 40
0.391304347826087
 40
0.391304347826087
 40
0.4347826086956522
 40
0.4347826086956522
 40
0.4347826086956522
 40
0.4347826086956522
 40
0.4782608695652174
 40
0.4782608695652174
 40
0.4782608695652174
 40
0.4782608695652174
 40
0.5217391304347826
 40
0.5217391304347826
 40
0.5217391304347826
 40
0.5217391304347826
 40
0.5652173913043478
 40
0.5652173913043478
 40
0.5652173913043478
 40
0.5652173913043478
 40
0.6086956521739131
 40
0.6086956521739131
 40
0.6086956521739131
 40
0.6086956521739131
 40
0.6521739130434783
 40
0.6521739130434783
 40
0.6521739130434783
 40
0.6521739130434783
 40
0.6956521739130435
 40
0.6956521739130435
 40
0.6956521739130435
 40
0.6956521739130435
 40
0.7391304347826086
 40
0.7391304347826086
 40
0.7391304347826086
 40
0.7391304347826086
 40
0.782608695652174
 40
0.782608695652174
 40
0.782608695652174
 40
0.782608695652174
 40
0.8260869565217391
 40
0.8260869565217391
 40
0.8260869565217391
 40
0.8260869565217391
 40
0.8695652173913043
 40
0.8695652173913043
 40
0.8695652173913043
 40
0.8695652173913043
 40
0.9130434782608695
 40
0.9130434782608695
 40
0.9130434782608695
 40
0.9130434782608695
 40
1.0
 40
1.0
 40
1.0
 40
1.0
 10
-16.5817
 20
33.6177
 30
0.0
 10
-16.5817
 20
33.6177
 30
0.0
 10
-16.6038
 20
33.8783
 30
0.0
 10
-16.6038
 20
33.8783
 30
0.0
 10
-16.6038
 20
33.8783
 30
0.0
 10
-16.4768
 20
33.8976
 30
0.0
 10
-16.3818
 20
33.9423
 30
0.0
 10
-16.3178
 20
34.0124
 30
0.0
 10
-16.3178
 20
34.0124
 30
0.0
 10
-16.2538
 20
34.0829
 30
0.0
 10
-16.2218
 20
34.1676
 30
0.0
 10
-16.2218
 20
34.2668
 30
0.0
 10
-16.2218
 20
34.2668
 30
0.0
 10
-16.2218
 20
34.3863
 30
0.0
 10
-16.267
 20
34.4874
 30
0.0
 10
-16.3568
 20
34.5697
 30
0.0
 10
-16.3568
 20
34.5697
 30
0.0
 10
-16.4471
 20
34.6525
 30
0.0
 10
-16.5666
 20
34.6939
 30
0.0
 10
-16.7152
 20
34.6939
 30
0.0
 10
-16.7152
 20
34.6939
 30
0.0
 10
-16.8568
 20
34.6939
 30
0.0
 10
-16.9683
 20
34.6544
 30
0.0
 10
-17.0501
 20
34.5749
 30
0.0
 10
-17.0501
 20
34.5749
 30
0.0
 10
-17.132
 20
34.4954
 30
0.0
 10
-17.1729
 20
34.3915
 30
0.0
 10
-17.1729
 20
34.2626
 30
0.0
 10
-17.1729
 20
34.2626
 30
0.0
 10
-17.1729
 20
34.1826
 30
0.0
 10
-17.1546
 20
34.1107
 30
0.0
 10
-17.1184
 20
34.0462
 30
0.0
 10
-17.1184
 20
34.0462
 30
0.0
 10
-17.0821
 20
33.9818
 30
0.0
 10
-17.0351
 20
33.9315
 30
0.0
 10
-16.9772
 20
33.8948
 30
0.0
 10
-16.9772
 20
33.8948
 30
0.0
 10
-16.9772
 20
33.8948
 30
0.0
 10
-17.0073
 20
33.6619
 30
0.0
 10
-17.0073
 20
33.6619
 30
0.0
 10
-17.0073
 20
33.6619
 30
0.0
 10
-17.0073
 20
33.6619
 30
0.0
 10
-18.045
 20
33.8576
 30
0.0
 10
-18.045
 20
33.8576
 30
0.0
 10
-18.045
 20
33.8576
 30
0.0
 10
-18.045
 20
33.8576
 30
0.0
 10
-18.045
 20
34.8623
 30
0.0
 10
-18.045
 20
34.8623
 30
0.0
 10
-18.045
 20
34.8623
 30
0.0
 10
-18.045
 20
34.8623
 30
0.0
 10
-17.8079
 20
34.8623
 30
0.0
 10
-17.8079
 20
34.8623
 30
0.0
 10
-17.8079
 20
34.8623
 30
0.0
 10
-17.8079
 20
34.8623
 30
0.0
 10
-17.8079
 20
34.0561
 30
0.0
 10
-17.8079
 20
34.0561
 30
0.0
 10
-17.8079
 20
34.0561
 30
0.0
 10
-17.8079
 20
34.0561
 30
0.0
 10
-17.2651
 20
33.947
 30
0.0
 10
-17.2651
 20
33.947
 30
0.0
 10
-17.2651
 20
33.947
 30
0.0
 10
-17.3498
 20
34.0683
 30
0.0
 10
-17.3921
 20
34.1958
 30
0.0
 10
-17.3921
 20
34.3289
 30
0.0
 10
-17.3921
 20
34.3289
 30
0.0
 10
-17.3921
 20
34.5053
 30
0.0
 10
-17.331
 20
34.6539
 30
0.0
 10
-17.2087
 20
34.7753
 30
0.0
 10
-17.2087
 20
34.7753
 30
0.0
 10
-17.0864
 20
34.8966
 30
0.0
 10
-16.9293
 20
34.9573
 30
0.0
 10
-16.7374
 20
34.9573
 30
0.0
 10
-16.7374
 20
34.9573
 30
0.0
 10
-16.5544
 20
34.9573
 30
0.0
 10
-16.3963
 20
34.9037
 30
0.0
 10
-16.2632
 20
34.7974
 30
0.0
 10
-16.2632
 20
34.7974
 30
0.0
 10
-16.1
 20
34.6676
 30
0.0
 10
-16.0182
 20
34.4907
 30
0.0
 10
-16.0182
 20
34.2668
 30
0.0
 10
-16.0182
 20
34.2668
 30
0.0
 10
-16.0182
 20
34.0829
 30
0.0
 10
-16.0694
 20
33.9329
 30
0.0
 10
-16.1724
 20
33.8167
 30
0.0
 10
-16.1724
 20
33.8167
 30
0.0
 10
-16.2755
 20
33.7005
 30
0.0
 10
-16.4119
 20
33.6342
 30
0.0
 10
-16.5817
 20
33.6177
 30
0.0
  0
SPLINE
  5
136
330
1F
100
AcDbEntity
  8
DEFAULT_1
 62
   250
100
AcDbSpline
210
0.0
220
0.0
230
1.0
 70
    11
 71
     3
 72
    16
 73
    12
 74
     0
 42
0.0000000001
 43
0.0000000001
 40
0.0
 40
0.0
 40
0.0
 40
0.0
 40
0.25
 40
0.25
 40
0.25
 40
0.25
 40
0.5
 40
0.5
 40
0.5
 40
0.5
 40
1.0
 40
1.0
 40
1.0
 40
1.0
 10
-15.2318
 20
34.4742
 30
0.0
 10
-15.2318
 20
34.4742
 30
0.0
 10
-14.8122
 20
36.9634
 30
0.0
 10
-14.8122
 20
36.9634
 30
0.0
 10
-14.8122
 20
36.9634
 30
0.0
 10
-14.8122
 20
36.9634
 30
0.0
 10
-15.6513
 20
36.9634
 30
0.0
 10
-15.6513
 20
36.9634
 30
0.0
 10
-15.6513
 20
36.9634
 30
0.0
 10
-15.6513
 20
36.9634
 30
0.0
 10
-15.2318
 20
34.4742
 30
0.0
 10
-15.2318
 20
34.4742
 30
0.0
  0
ENDSEC
  0
SECTION
  2
OBJECTS
  0
DICTIONARY
  5
C
330
0
100
AcDbDictionary
  3
ACAD_GROUP
350
D
  3
ACAD_LAYOUT
350
1A
  3
ACAD_MATERIAL
350
3B
  3
ACAD_MLEADERSTYLE
350
159
  3
ACAD_MLINESTYLE
350
17
  3
ACAD_PLOTSETTINGS
350
19
  3
ACAD_VISUALSTYLE
350
2A
  3
ACDBHEADERROUNDTRIPXREC
350
137
  3
ACDBVARIABLEDICTIONARY
350
157
  0
DICTIONARY
  5
D
102
{ACAD_REACTORS
330
C
102
}
330
C
100
AcDbDictionary
  0
DICTIONARY
  5
1A
102
{ACAD_REACTORS
330
C
102
}
330
C
100
AcDbDictionary
  0
DICTIONARY
  5
3B
102
{ACAD_REACTORS
330
C
102
}
330
C
100
AcDbDictionary
  3
BYBLOCK
350
3D
  3
BYLAYER
350
3C
  3
GLOBAL
350
3E
  0
DICTIONARY
  5
159
102
{ACAD_REACTORS
330
C
102
}
330
C
100
AcDbDictionary
  0
DICTIONARY
  5
17
102
{ACAD_REACTORS
330
C
102
}
330
C
100
AcDbDictionary
  3
STANDARD
350
18
  0
DICTIONARY
  5
19
102
{ACAD_REACTORS
330
C
102
}
330
C
100
AcDbDictionary
  0
DICTIONARY
  5
2A
102
{ACAD_REACTORS
330
C
102
}
330
C
100
AcDbDictionary
  3
2DWIREFRAME
350
2F
  3
3D_HIDDEN
350
31
  3
3DWIREFRAME
350
30
  3
BASIC
350
32
  3
BRIGHTEN
350
36
  3
COLORCHANGE
350
3A
  3
CONCEPTUAL
350
34
  3
DIM
350
35
  3
FACEPATTERN
350
39
  3
FLAT
350
2B
  3
FLATWITHEDGES
350
2C
  3
GOURAUD
350
2D
  3
GOURAUDWITHEDGES
350
2E
  3
LINEPATTERN
350
38
  3
REALISTIC
350
33
  3
THICKEN
350
37
  0
DICTIONARY
  5
137
102
{ACAD_REACTORS
330
C
102
}
330
C
100
AcDbDictionary
  3
CEPSNTYPE
350
140
  3
DIMSTYLEDATA
350
156
  3
FINGERPRINTGUID
350
141
  3
HYPERLINKBASE
350
13A
  3
INSUNITS
350
13F
  3
LAYOUTDICT
350
13C
  3
LWETCUNION
350
13E
  3
PLOTSETDICT
350
13D
  3
PSVPSCALE
350
143
  3
PUCSBASE
350
146
  3
PUCSORGBACK
350
14C
  3
PUCSORGBOTTOM
350
148
  3
PUCSORGFRONT
350
14B
  3
PUCSORGLEFT
350
149
  3
PUCSORGRIGHT
350
14A
  3
PUCSORGTOP
350
147
  3
PUCSORTHOREF
350
144
  3
PUCSORTHOVIEW
350
145
  3
STYLESHEET
350
13B
  3
TSTACKALIGN
350
138
  3
TSTACKSIZE
350
139
  3
UCSBASE
350
14F
  3
UCSORGBACK
350
155
  3
UCSORGBOTTOM
350
151
  3
UCSORGFRONT
350
154
  3
UCSORGLEFT
350
152
  3
UCSORGRIGHT
350
153
  3
UCSORGTOP
350
150
  3
UCSORTHOREF
350
14D
  3
UCSORTHOVIEW
350
14E
  3
VERSIONGUID
350
142
  0
DICTIONARY
  5
157
102
{ACAD_REACTORS
330
C
102
}
330
C
100
AcDbDictionary
  3
DIMASSOC
350
15A
  3
HIDETEXT
350
15B
  0
MATERIAL
  5
3D
102
{ACAD_REACTORS
330
3B
102
}
102
{ACAD_XDICTIONARY
360
15E
102
}
330
3B
100
AcDbMaterial
  1
ByBlock
  0
MATERIAL
  5
3C
102
{ACAD_REACTORS
330
3B
102
}
102
{ACAD_XDICTIONARY
360
15C
102
}
330
3B
100
AcDbMaterial
  1
ByLayer
  0
MATERIAL
  5
3E
102
{ACAD_REACTORS
330
3B
102
}
102
{ACAD_XDICTIONARY
360
160
102
}
330
3B
100
AcDbMaterial
  1
Global
  0
MLINESTYLE
  5
18
102
{ACAD_REACTORS
330
17
102
}
330
17
100
AcDbMlineStyle
  2
Standard
 70
     0
  3

 62
   256
 51
90.0
 52
90.0
 71
     2
 49
0.5
 62
   256
  6
BYLAYER
 49
-0.5
 62
   256
  6
BYLAYER
  0
ACAD_PROXY_OBJECT
  5
2F
102
{ACAD_REACTORS
330
2A
102
}
330
2A
100
AcDbProxyObject
 90
      499
 91
      501
 93
      436
310
42CC9915DA5C99599C985B595049028333333333333E3BF0000000000000FB0107901411070040501600405405064090741402480A0340
1001
ACAD
1000
AcDbSavedByObjectVersion
1070
     0
  0
ACAD_PROXY_OBJECT
  5
31
102
{ACAD_REACTORS
330
2A
102
}
330
2A
100
AcDbProxyObject
 90
      499
 91
      501
 93
      500
310
424CD108121A5919195B90640502408333333333333E3BF0000000000000FB01079024090700405020000000000001110200405405064090740C02480A0340
1001
ACAD
1000
AcDbSavedByObjectVersion
1070
     0
  0
ACAD_PROXY_OBJECT
  5
30
102
{ACAD_REACTORS
330
2A
102
}
330
2A
100
AcDbProxyObject
 90
      499
 91
      501
 93
      436
310
42CCD915DA5C99599C985B595059028333333333333E3BF0000000000000FB0107901411070040501600405405064090741402480A0340
1001
ACAD
1000
AcDbSavedByObjectVersion
1070
     0
  0
ACAD_PROXY_OBJECT
  5
32
102
{ACAD_REACTORS
330
2A
102
}
330
2A
100
AcDbProxyObject
 90
      499
 91
      501
 93
      388
310
4150985CDA58D07406404333333333333E3BF0000000000000FB0107A41107004050150841D405064090741402480A0350
1001
ACAD
1000
AcDbSavedByObjectVersion
1070
     0
  0
ACAD_PROXY_OBJECT
  5
36
102
{ACAD_REACTORS
330
2A
102
}
330
2A
100
AcDbProxyObject
 90
      499
 91
      501
 93
      428
310
42109C9A59DA1D195B90C409028333333333333E3BF0000000000000FB010790141107004050150841D405064090741402480A029950
1001
ACAD
1000
AcDbSavedByObjectVersion
1070
     0
  0
ACAD_PROXY_OBJECT
  5
3A
102
{ACAD_REACTORS
330
2A
102
}
330
2A
100
AcDbProxyObject
 90
      499
 91
      501
 93
      452
310
42D0DBDB1BDC90DA185B99D95104090240C333333333333E3BF0000000000000FB0108901411070040501508421405064090741402480A0350
1001
ACAD
1000
AcDbSavedByObjectVersion
1070
     0
  0
ACAD_PROXY_OBJECT
  5
34
102
{ACAD_REACTORS
330
2A
102
}
330
2A
100
AcDbProxyObject
 90
      499
 91
      501
 93
      500
310
4290DBDB98D95C1D1D585B10940D028333333333333E3BF0000000000000FB0107902409070040501000000000000111010841D405064090740C02480A0340
1001
ACAD
1000
AcDbSavedByObjectVersion
1070
     0
  0
ACAD_PROXY_OBJECT
  5
35
102
{ACAD_REACTORS
330
2A
102
}
330
2A
100
AcDbProxyObject
 90
      499
 91
      501
 93
      412
310
40D11A5B50B409028333333333333E3BF0000000000000FB010790141107004050150841D405064090741402480A02677FFFFFD0
1001
ACAD
1000
AcDbSavedByObjectVersion
1070
     0
  0
ACAD_PROXY_OBJECT
  5
39
102
{ACAD_REACTORS
330
2A
102
}
330
2A
100
AcDbProxyObject
 90
      499
 91
      501
 93
      444
310
42D19858D95C185D1D195C9B90F409028333333333333E3BF0000000000000FB010790141107004050150841D405064090741402480A0350
1001
ACAD
1000
AcDbSavedByObjectVersion
1070
     0
  0
ACAD_PROXY_OBJECT
  5
2B
102
{ACAD_REACTORS
330
2A
102
}
330
2A
100
AcDbProxyObject
 90
      499
 91
      501
 93
      388
310
41119B185D240901404333333333333E3BF0000000000000F9010740A41107004050150841D405064090741402480A1B50
1001
ACAD
1000
AcDbSavedByObjectVersion
1070
     0
  0
ACAD_PROXY_OBJECT
  5
2C
102
{ACAD_REACTORS
330
2A
102
}
330
2A
100
AcDbProxyObject
 90
      499
 91
      501
 93
      476
310
43519B185D15DA5D1A115919D95CD0140901404333333333333E3BF0000000000000F9010740901411070040501600405405064090741402480A1B50
1001
ACAD
1000
AcDbSavedByObjectVersion
1070
     0
  0
ACAD_PROXY_OBJECT
  5
2D
102
{ACAD_REACTORS
330
2A
102
}
330
2A
100
AcDbProxyObject
 90
      499
 91
      501
 93
      412
310
41D1DBDD5C985D5910240902404333333333333E3BF0000000000000F9010740A411070040501641D405064090741402480A1B50
1001
ACAD
1000
AcDbSavedByObjectVersion
1070
     0
  0
ACAD_PROXY_OBJECT
  5
2E
102
{ACAD_REACTORS
330
2A
102
}
330
2A
100
AcDbProxyObject
 90
      499
 91
      501
 93
      500
310
4411DBDD5C985D5915DA5D1A115919D95CD0340902404333333333333E3BF0000000000000F9010740901411070040501600405405064090741402480A1B50
1001
ACAD
1000
AcDbSavedByObjectVersion
1070
     0
  0
ACAD_PROXY_OBJECT
  5
38
102
{ACAD_REACTORS
330
2A
102
}
330
2A
100
AcDbProxyObject
 90
      499
 91
      501
 93
      444
310
42D31A5B995C185D1D195C9B90E409028333333333333E3BF0000000000000FB010790141107004050750841D405064090741402483A0350
1001
ACAD
1000
AcDbSavedByObjectVersion
1070
     0
  0
ACAD_PROXY_OBJECT
  5
33
102
{ACAD_REACTORS
330
2A
102
}
330
2A
100
AcDbProxyObject
 90
      499
 91
      501
 93
      420
310
425499585B1A5CDD1A58D08409028333333333333E3BF0000000000000FB01079019070040501508421405064090741402480A1B40
1001
ACAD
1000
AcDbSavedByObjectVersion
1070
     0
  0
ACAD_PROXY_OBJECT
  5
37
102
{ACAD_REACTORS
330
2A
102
}
330
2A
100
AcDbProxyObject
 90
      499
 91
      501
 93
      412
310
41D51A1A58DAD95B90D409028333333333333E3BF0000000000000FB010790141107004050150C41D405064090741402480A0350
1001
ACAD
1000
AcDbSavedByObjectVersion
1070
     0
  0
XRECORD
  5
140
102
{ACAD_REACTORS
330
137
102
}
330
137
100
AcDbXrecord
 90
        0
  0
XRECORD
  5
156
102
{ACAD_REACTORS
330
137
102
}
330
137
100
AcDbXrecord
1000
DSTYLE
1002
{
1070
   340
340
11
1002
}
  0
XRECORD
  5
141
102
{ACAD_REACTORS
330
137
102
}
330
137
100
AcDbXrecord
  1
{6A3B592E-A21B-4CB0-AF90-A782260AB02E}
  0
XRECORD
  5
13A
102
{ACAD_REACTORS
330
137
102
}
330
137
100
AcDbXrecord
  1

  0
XRECORD
  5
13F
102
{ACAD_REACTORS
330
137
102
}
330
137
100
AcDbXrecord
 90
        4
  0
XRECORD
  5
13C
102
{ACAD_REACTORS
330
137
102
}
330
137
100
AcDbXrecord
340
1A
  0
XRECORD
  5
13E
102
{ACAD_REACTORS
330
137
102
}
330
137
100
AcDbXrecord
 90
    10781
  0
XRECORD
  5
13D
102
{ACAD_REACTORS
330
137
102
}
330
137
100
AcDbXrecord
340
19
  0
XRECORD
  5
143
102
{ACAD_REACTORS
330
137
102
}
330
137
100
AcDbXrecord
 40
0.0
  0
XRECORD
  5
146
102
{ACAD_REACTORS
330
137
102
}
330
137
100
AcDbXrecord
340
0
  0
XRECORD
  5
14C
102
{ACAD_REACTORS
330
137
102
}
330
137
100
AcDbXrecord
 10
0.0
 20
0.0
 30
0.0
  0
XRECORD
  5
148
102
{ACAD_REACTORS
330
137
102
}
330
137
100
AcDbXrecord
 10
0.0
 20
0.0
 30
0.0
  0
XRECORD
  5
14B
102
{ACAD_REACTORS
330
137
102
}
330
137
100
AcDbXrecord
 10
0.0
 20
0.0
 30
0.0
  0
XRECORD
  5
149
102
{ACAD_REACTORS
330
137
102
}
330
137
100
AcDbXrecord
 10
0.0
 20
0.0
 30
0.0
  0
XRECORD
  5
14A
102
{ACAD_REACTORS
330
137
102
}
330
137
100
AcDbXrecord
 10
0.0
 20
0.0
 30
0.0
  0
XRECORD
  5
147
102
{ACAD_REACTORS
330
137
102
}
330
137
100
AcDbXrecord
 10
0.0
 20
0.0
 30
0.0
  0
XRECORD
  5
144
102
{ACAD_REACTORS
330
137
102
}
330
137
100
AcDbXrecord
340
0
  0
XRECORD
  5
145
102
{ACAD_REACTORS
330
137
102
}
330
137
100
AcDbXrecord
 70
     0
  0
XRECORD
  5
13B
102
{ACAD_REACTORS
330
137
102
}
330
137
100
AcDbXrecord
  1

  0
XRECORD
  5
138
102
{ACAD_REACTORS
330
137
102
}
330
137
100
AcDbXrecord
 90
        1
  0
XRECORD
  5
139
102
{ACAD_REACTORS
330
137
102
}
330
137
100
AcDbXrecord
 90
       70
  0
XRECORD
  5
14F
102
{ACAD_REACTORS
330
137
102
}
330
137
100
AcDbXrecord
340
0
  0
XRECORD
  5
155
102
{ACAD_REACTORS
330
137
102
}
330
137
100
AcDbXrecord
 10
0.0
 20
0.0
 30
0.0
  0
XRECORD
  5
151
102
{ACAD_REACTORS
330
137
102
}
330
137
100
AcDbXrecord
 10
0.0
 20
0.0
 30
0.0
  0
XRECORD
  5
154
102
{ACAD_REACTORS
330
137
102
}
330
137
100
AcDbXrecord
 10
0.0
 20
0.0
 30
0.0
  0
XRECORD
  5
152
102
{ACAD_REACTORS
330
137
102
}
330
137
100
AcDbXrecord
 10
0.0
 20
0.0
 30
0.0
  0
XRECORD
  5
153
102
{ACAD_REACTORS
330
137
102
}
330
137
100
AcDbXrecord
 10
0.0
 20
0.0
 30
0.0
  0
XRECORD
  5
150
102
{ACAD_REACTORS
330
137
102
}
330
137
100
AcDbXrecord
 10
0.0
 20
0.0
 30
0.0
  0
XRECORD
  5
14D
102
{ACAD_REACTORS
330
137
102
}
330
137
100
AcDbXrecord
340
0
  0
XRECORD
  5
14E
102
{ACAD_REACTORS
330
137
102
}
330
137
100
AcDbXrecord
 70
     0
  0
XRECORD
  5
142
102
{ACAD_REACTORS
330
137
102
}
330
137
100
AcDbXrecord
  1
{FAEB1C32-E019-11D5-929B-00C0DF256EC4}
  0
DICTIONARYVAR
  5
15A
102
{ACAD_REACTORS
330
157
102
}
330
157
100
DictionaryVariables
280
     0
  1
2
  0
DICTIONARYVAR
  5
15B
102
{ACAD_REACTORS
330
157
102
}
330
157
100
DictionaryVariables
280
     0
  1
1
  0
DICTIONARY
  5
15E
330
3D
100
AcDbDictionary
280
     1
  3
ACAD_XREC_ROUNDTRIP
360
15F
  0
DICTIONARY
  5
15C
330
3C
100
AcDbDictionary
280
     1
  3
ACAD_XREC_ROUNDTRIP
360
15D
  0
DICTIONARY
  5
160
330
3E
100
AcDbDictionary
280
     1
  3
ACAD_XREC_ROUNDTRIP
360
161
  0
XRECORD
  5
15F
102
{ACAD_REACTORS
330
15E
102
}
330
15E
100
AcDbXrecord
102
MATERIAL
148
0.0
149
0.0
149
0.0
 93
        0
 94
      127
282
     0
 72
     1
 77
     1
171
     1
175
     1
179
     1
273
     0
  0
XRECORD
  5
15D
102
{ACAD_REACTORS
330
15C
102
}
330
15C
100
AcDbXrecord
102
MATERIAL
148
0.0
149
0.0
149
0.0
 93
        0
 94
      127
282
     0
 72
     1
 77
     1
171
     1
175
     1
179
     1
273
     0
  0
XRECORD
  5
161
102
{ACAD_REACTORS
330
160
102
}
330
160
100
AcDbXrecord
102
MATERIAL
148
0.0
149
0.0
149
0.0
 93
        0
 94
      127
282
     0
 72
     1
 77
     1
171
     1
175
     1
179
     1
273
     0
  0
ENDSEC
  0
EOF
