  0
SECTION
  2
HEADER
  9
$ACADVER
  1
AC1014
  9
$ACADMAINTVER
 70
     9
  9
$DWGCODEPAGE
  3
ANSI_1250
  9
$INSBASE
 10
0.0
 20
0.0
 30
0.0
  9
$EXTMIN
 10
-24.5243
 20
-30.9997
 30
0.0
  9
$EXTMAX
 10
24.5244
 20
30.9997
 30
0.0
  9
$LIMMIN
 10
0.0
 20
0.0
  9
$LIMMAX
 10
12.0
 20
9.0
  9
$ORTHOMODE
 70
     0
  9
$REGENMODE
 70
     1
  9
$FILLMODE
 70
     1
  9
$QTEXTMODE
 70
     0
  9
$MIRRTEXT
 70
     1
  9
$DRAGMODE
 70
     2
  9
$LTSCALE
 40
1.0
  9
$OSMODE
 70
    37
  9
$ATTMODE
 70
     1
  9
$TEXTSIZE
 40
0.2
  9
$TRACEWID
 40
0.05
  9
$TEXTSTYLE
  7
STANDARD
  9
$CLAYER
  8
0
  9
$CELTYPE
  6
BYLAYER
  9
$CECOLOR
 62
   256
  9
$CELTSCALE
 40
1.0
  9
$DELOBJ
 70
     1
  9
$DISPSILH
 70
     0
  9
$DIMSCALE
 40
1.0
  9
$DIMASZ
 40
0.18
  9
$DIMEXO
 40
0.0625
  9
$DIMDLI
 40
0.38
  9
$DIMRND
 40
0.0
  9
$DIMDLE
 40
0.0
  9
$DIMEXE
 40
0.18
  9
$DIMTP
 40
0.0
  9
$DIMTM
 40
0.0
  9
$DIMTXT
 40
0.18
  9
$DIMCEN
 40
0.09
  9
$DIMTSZ
 40
0.0
  9
$DIMTOL
 70
     0
  9
$DIMLIM
 70
     0
  9
$DIMTIH
 70
     1
  9
$DIMTOH
 70
     1
  9
$DIMSE1
 70
     0
  9
$DIMSE2
 70
     0
  9
$DIMTAD
 70
     0
  9
$DIMZIN
 70
     0
  9
$DIMBLK
  1

  9
$DIMASO
 70
     1
  9
$DIMSHO
 70
     1
  9
$DIMPOST
  1

  9
$DIMAPOST
  1

  9
$DIMALT
 70
     0
  9
$DIMALTD
 70
     2
  9
$DIMALTF
 40
25.4
  9
$DIMLFAC
 40
1.0
  9
$DIMTOFL
 70
     0
  9
$DIMTVP
 40
0.0
  9
$DIMTIX
 70
     0
  9
$DIMSOXD
 70
     0
  9
$DIMSAH
 70
     0
  9
$DIMBLK1
  1

  9
$DIMBLK2
  1

  9
$DIMSTYLE
  2
STANDARD
  9
$DIMCLRD
 70
     0
  9
$DIMCLRE
 70
     0
  9
$DIMCLRT
 70
     0
  9
$DIMTFAC
 40
1.0
  9
$DIMGAP
 40
0.09
  9
$DIMJUST
 70
     0
  9
$DIMSD1
 70
     0
  9
$DIMSD2
 70
     0
  9
$DIMTOLJ
 70
     1
  9
$DIMTZIN
 70
     0
  9
$DIMALTZ
 70
     0
  9
$DIMALTTZ
 70
     0
  9
$DIMFIT
 70
     3
  9
$DIMUPT
 70
     0
  9
$DIMUNIT
 70
     2
  9
$DIMDEC
 70
     4
  9
$DIMTDEC
 70
     4
  9
$DIMALTU
 70
     2
  9
$DIMALTTD
 70
     2
  9
$DIMTXSTY
  7
STANDARD
  9
$DIMAUNIT
 70
     0
  9
$LUNITS
 70
     2
  9
$LUPREC
 70
     4
  9
$SKETCHINC
 40
0.1
  9
$FILLETRAD
 40
0.5
  9
$AUNITS
 70
     0
  9
$AUPREC
 70
     0
  9
$MENU
  1
.
  9
$ELEVATION
 40
0.0
  9
$PELEVATION
 40
0.0
  9
$THICKNESS
 40
0.0
  9
$LIMCHECK
 70
     0
  9
$CHAMFERA
 40
0.5
  9
$CHAMFERB
 40
0.5
  9
$CHAMFERC
 40
1.0
  9
$CHAMFERD
 40
0.0
  9
$SKPOLY
 70
     0
  9
$TDCREATE
 40
2456268.555573715
  9
$TDUPDATE
 40
2456268.555573727
  9
$TDINDWG
 40
0.0000000116
  9
$TDUSRTIMER
 40
0.0000000116
  9
$USRTIMER
 70
     1
  9
$ANGBASE
 50
0.0
  9
$ANGDIR
 70
     0
  9
$PDMODE
 70
     0
  9
$PDSIZE
 40
0.0
  9
$PLINEWID
 40
0.0
  9
$COORDS
 70
     1
  9
$SPLFRAME
 70
     0
  9
$SPLINETYPE
 70
     6
  9
$SPLINESEGS
 70
     8
  9
$ATTDIA
 70
     0
  9
$ATTREQ
 70
     1
  9
$HANDLING
 70
     1
  9
$HANDSEED
  5
15F
  9
$SURFTAB1
 70
     6
  9
$SURFTAB2
 70
     6
  9
$SURFTYPE
 70
     6
  9
$SURFU
 70
     6
  9
$SURFV
 70
     6
  9
$UCSNAME
  2

  9
$UCSORG
 10
0.0
 20
0.0
 30
0.0
  9
$UCSXDIR
 10
1.0
 20
0.0
 30
0.0
  9
$UCSYDIR
 10
0.0
 20
1.0
 30
0.0
  9
$PUCSNAME
  2

  9
$PUCSORG
 10
0.0
 20
0.0
 30
0.0
  9
$PUCSXDIR
 10
1.0
 20
0.0
 30
0.0
  9
$PUCSYDIR
 10
0.0
 20
1.0
 30
0.0
  9
$USERI1
 70
     0
  9
$USERI2
 70
     0
  9
$USERI3
 70
     0
  9
$USERI4
 70
     0
  9
$USERI5
 70
     0
  9
$USERR1
 40
0.0
  9
$USERR2
 40
0.0
  9
$USERR3
 40
0.0
  9
$USERR4
 40
0.0
  9
$USERR5
 40
0.0
  9
$WORLDVIEW
 70
     1
  9
$SHADEDGE
 70
     3
  9
$SHADEDIF
 70
    70
  9
$TILEMODE
 70
     1
  9
$MAXACTVP
 70
    64
  9
$PINSBASE
 10
0.0
 20
0.0
 30
0.0
  9
$PLIMCHECK
 70
     0
  9
$PEXTMIN
 10
1.000000000000000E+20
 20
1.000000000000000E+20
 30
1.000000000000000E+20
  9
$PEXTMAX
 10
-1.000000000000000E+20
 20
-1.000000000000000E+20
 30
-1.000000000000000E+20
  9
$PLIMMIN
 10
0.0
 20
0.0
  9
$PLIMMAX
 10
12.0
 20
9.0
  9
$UNITMODE
 70
     0
  9
$VISRETAIN
 70
     1
  9
$PLINEGEN
 70
     0
  9
$PSLTSCALE
 70
     1
  9
$TREEDEPTH
 70
  3020
  9
$PICKSTYLE
 70
     1
  9
$CMLSTYLE
  2
STANDARD
  9
$CMLJUST
 70
     0
  9
$CMLSCALE
 40
1.0
  9
$PROXYGRAPHICS
 70
     1
  9
$MEASUREMENT
 70
     0
  0
ENDSEC
  0
SECTION
  2
CLASSES
  0
CLASS
  1
ACDBDICTIONARYWDFLT
  2
AcDbDictionaryWithDefault
  3
ObjectDBX Classes
 90
        0
280
     0
281
     0
  0
CLASS
  1
VISUALSTYLE
  2
AcDbVisualStyle
  3
ObjectDBX Classes
 90
     4095
280
     0
281
     0
  0
CLASS
  1
MATERIAL
  2
AcDbMaterial
  3
ObjectDBX Classes
 90
     1153
280
     0
281
     0
  0
CLASS
  1
DICTIONARYVAR
  2
AcDbDictionaryVar
  3
ObjectDBX Classes
 90
        0
280
     0
281
     0
  0
CLASS
  1
XRECORD
  2
AcDbXrecord
  3
AutoCAD 2000
 90
        0
280
     0
281
     0
  0
CLASS
  1
LWPOLYLINE
  2
AcDbPolyline
  3
AutoCAD 2000
 90
        0
280
     0
281
     1
  0
CLASS
  1
HATCH
  2
AcDbHatch
  3
AutoCAD 2000
 90
        0
280
     0
281
     1
  0
CLASS
  1
ACDBPLACEHOLDER
  2
AcDbPlaceHolder
  3
ObjectDBX Classes
 90
        0
280
     0
281
     0
  0
CLASS
  1
LAYOUT
  2
AcDbLayout
  3
ObjectDBX Classes
 90
        0
280
     0
281
     0
  0
ENDSEC
  0
SECTION
  2
TABLES
  0
TABLE
  2
VPORT
  5
8
330
0
100
AcDbSymbolTable
 70
     1
  0
VPORT
  5
29
330
8
100
AcDbSymbolTableRecord
100
AcDbViewportTableRecord
  2
*ACTIVE
 70
     0
 10
0.0
 20
0.0
 11
1.0
 21
1.0
 12
10.42990654205607
 22
4.5
 13
0.0
 23
0.0
 14
0.5
 24
0.5
 15
0.5
 25
0.5
 16
0.0
 26
0.0
 36
1.0
 17
0.0
 27
0.0
 37
0.0
 40
9.0
 41
1.972972972850329
 42
50.0
 43
0.0
 44
0.0
 50
0.0
 51
0.0
 71
     0
 72
   100
 73
     1
 74
     3
 75
     0
 76
     0
 77
     0
 78
     0
  0
ENDTAB
  0
TABLE
  2
LTYPE
  5
5
330
0
100
AcDbSymbolTable
 70
     3
  0
LTYPE
  5
14
330
5
100
AcDbSymbolTableRecord
100
AcDbLinetypeTableRecord
  2
BYBLOCK
 70
     0
  3

 72
    65
 73
     0
 40
0.0
  0
LTYPE
  5
15
330
5
100
AcDbSymbolTableRecord
100
AcDbLinetypeTableRecord
  2
BYLAYER
 70
     0
  3

 72
    65
 73
     0
 40
0.0
  0
LTYPE
  5
16
330
5
100
AcDbSymbolTableRecord
100
AcDbLinetypeTableRecord
  2
CONTINUOUS
 70
     0
  3
Solid line
 72
    65
 73
     0
 40
0.0
  0
LTYPE
  5
42
330
5
100
AcDbSymbolTableRecord
100
AcDbLinetypeTableRecord
  2
NEW_LINE1
 70
     0
  3

 72
    65
 73
     4
 40
1.2
 49
0.5
 74
     4
 75
     0
340
0
 46
1.0
 50
0.0
 44
0.0
 45
0.0
 49
-0.3
 74
     4
 75
     0
340
0
 46
1.0
 50
0.0
 44
0.0
 45
0.0
 49
0.1
 74
     4
 75
     0
340
0
 46
1.0
 50
0.0
 44
0.0
 45
0.0
 49
-0.3
 74
     4
 75
     0
340
0
 46
1.0
 50
0.0
 44
0.0
 45
0.0
  0
LTYPE
  5
60
330
5
100
AcDbSymbolTableRecord
100
AcDbLinetypeTableRecord
  2
NEW_LINE2
 70
     0
  3

 72
    65
 73
     4
 40
1.2
 49
0.5
 74
     4
 75
     0
340
0
 46
1.0
 50
0.0
 44
0.0
 45
0.0
 49
-0.3
 74
     4
 75
     0
340
0
 46
1.0
 50
0.0
 44
0.0
 45
0.0
 49
0.1
 74
     4
 75
     0
340
0
 46
1.0
 50
0.0
 44
0.0
 45
0.0
 49
-0.3
 74
     4
 75
     0
340
0
 46
1.0
 50
0.0
 44
0.0
 45
0.0
  0
ENDTAB
  0
TABLE
  2
LAYER
  5
2
330
0
100
AcDbSymbolTable
 70
     2
  0
LAYER
  5
10
330
2
100
AcDbSymbolTableRecord
100
AcDbLayerTableRecord
  2
0
 70
     0
 62
     7
  6
CONTINUOUS
  0
LAYER
  5
40
330
2
100
AcDbSymbolTableRecord
100
AcDbLayerTableRecord
  2
AXIS
 70
     0
 62
     7
  6
CONTINUOUS
  0
ENDTAB
  0
TABLE
  2
STYLE
  5
3
330
0
100
AcDbSymbolTable
 70
     1
  0
STYLE
  5
11
330
3
100
AcDbSymbolTableRecord
100
AcDbTextStyleTableRecord
  2
STANDARD
 70
     0
 40
0.0
 41
1.0
 50
0.0
 71
     0
 42
0.2
  3
txt
  4

  0
ENDTAB
  0
TABLE
  2
VIEW
  5
6
330
0
100
AcDbSymbolTable
 70
     0
  0
ENDTAB
  0
TABLE
  2
UCS
  5
7
330
0
100
AcDbSymbolTable
 70
     0
  0
ENDTAB
  0
TABLE
  2
APPID
  5
9
330
0
100
AcDbSymbolTable
 70
     2
  0
APPID
  5
12
330
9
100
AcDbSymbolTableRecord
100
AcDbRegAppTableRecord
  2
ACAD
 70
     0
  0
APPID
  5
3F
330
9
100
AcDbSymbolTableRecord
100
AcDbRegAppTableRecord
  2
ODA
 70
     0
  0
ENDTAB
  0
TABLE
  2
DIMSTYLE
  5
A
330
0
100
AcDbSymbolTable
 70
     1
  0
DIMSTYLE
105
27
330
A
100
AcDbSymbolTableRecord
100
AcDbDimStyleTableRecord
  2
STANDARD
 70
     0
  3

  4

  5

  6

  7

 40
1.0
 41
0.18
 42
0.0625
 43
0.38
 44
0.18
 45
0.0
 46
0.0
 47
0.0
 48
0.0
140
0.18
141
0.09
142
0.0
143
25.4
144
1.0
145
0.0
146
1.0
147
0.09
 71
     0
 72
     0
 73
     1
 74
     1
 75
     0
 76
     0
 77
     0
 78
     0
170
     0
171
     2
172
     0
173
     0
174
     0
175
     0
176
     0
177
     0
178
     0
270
     2
271
     4
272
     4
273
     2
274
     2
340
11
275
     0
280
     0
281
     0
282
     0
283
     1
284
     0
285
     0
286
     0
287
     3
288
     0
  0
ENDTAB
  0
TABLE
  2
BLOCK_RECORD
  5
1
330
0
100
AcDbSymbolTable
 70
     1
  0
BLOCK_RECORD
  5
1F
330
1
100
AcDbSymbolTableRecord
100
AcDbBlockTableRecord
  2
*MODEL_SPACE
  0
BLOCK_RECORD
  5
1B
330
1
100
AcDbSymbolTableRecord
100
AcDbBlockTableRecord
  2
*PAPER_SPACE
  0
ENDTAB
  0
ENDSEC
  0
SECTION
  2
BLOCKS
  0
BLOCK
  5
20
330
1F
100
AcDbEntity
  8
0
100
AcDbBlockBegin
  2
*MODEL_SPACE
 70
     0
 10
0.0
 20
0.0
 30
0.0
  3
*MODEL_SPACE
  1

  0
ENDBLK
  5
21
330
1F
100
AcDbEntity
  8
0
100
AcDbBlockEnd
  0
BLOCK
  5
1C
330
1B
100
AcDbEntity
 67
     1
  8
0
100
AcDbBlockBegin
  2
*PAPER_SPACE
 70
     0
 10
0.0
 20
0.0
 30
0.0
  3
*PAPER_SPACE
  1

  0
ENDBLK
  5
1D
330
1B
100
AcDbEntity
 67
     1
  8
0
100
AcDbBlockEnd
  0
ENDSEC
  0
SECTION
  2
ENTITIES
  0
SPLINE
  5
41
330
1F
100
AcDbEntity
  8
AXIS
  6
NEW_LINE1
 62
   250
100
AcDbSpline
210
0.0
220
0.0
230
1.0
 70
    24
 71
     3
 72
     8
 73
     4
 74
     0
 42
0.0000000001
 43
0.0000000001
 40
0.0
 40
0.0
 40
0.0
 40
0.0
 40
1.0
 40
1.0
 40
1.0
 40
1.0
 10
4.8319
 20
26.8483
 30
0.0
 10
4.8319
 20
26.8483
 30
0.0
 10
4.8319
 20
-23.9227
 30
0.0
 10
4.8319
 20
-23.9227
 30
0.0
  0
SPLINE
  5
43
330
1F
100
AcDbEntity
  8
AXIS
 62
   250
100
AcDbSpline
210
0.0
220
0.0
230
1.0
 70
    24
 71
     3
 72
     8
 73
     4
 74
     0
 42
0.0000000001
 43
0.0000000001
 40
0.0
 40
0.0
 40
0.0
 40
0.0
 40
1.0
 40
1.0
 40
1.0
 40
1.0
 10
9.76
 20
3.6885
 30
0.0
 10
9.76
 20
3.6885
 30
0.0
 10
-0.0292
 20
-9.7853
 30
0.0
 10
-0.0292
 20
-9.7853
 30
0.0
  0
SPLINE
  5
44
330
1F
100
AcDbEntity
  8
AXIS
 62
   250
100
AcDbSpline
210
0.0
220
0.0
230
1.0
 70
    11
 71
     3
 72
    84
 73
    80
 74
     0
 42
0.0000000001
 43
0.0000000001
 40
0.0
 40
0.0
 40
0.0
 40
0.0
 40
0.0476190476190476
 40
0.0476190476190476
 40
0.0476190476190476
 40
0.0476190476190476
 40
0.0952380952380952
 40
0.0952380952380952
 40
0.0952380952380952
 40
0.0952380952380952
 40
0.1428571428571428
 40
0.1428571428571428
 40
0.1428571428571428
 40
0.1428571428571428
 40
0.1904761904761905
 40
0.1904761904761905
 40
0.1904761904761905
 40
0.1904761904761905
 40
0.2380952380952381
 40
0.2380952380952381
 40
0.2380952380952381
 40
0.2380952380952381
 40
0.2857142857142857
 40
0.2857142857142857
 40
0.2857142857142857
 40
0.2857142857142857
 40
0.3333333333333333
 40
0.3333333333333333
 40
0.3333333333333333
 40
0.3333333333333333
 40
0.3809523809523809
 40
0.3809523809523809
 40
0.3809523809523809
 40
0.3809523809523809
 40
0.4285714285714285
 40
0.4285714285714285
 40
0.4285714285714285
 40
0.4285714285714285
 40
0.4761904761904762
 40
0.4761904761904762
 40
0.4761904761904762
 40
0.4761904761904762
 40
0.5238095238095238
 40
0.5238095238095238
 40
0.5238095238095238
 40
0.5238095238095238
 40
0.5714285714285714
 40
0.5714285714285714
 40
0.5714285714285714
 40
0.5714285714285714
 40
0.6190476190476191
 40
0.6190476190476191
 40
0.6190476190476191
 40
0.6190476190476191
 40
0.6666666666666666
 40
0.6666666666666666
 40
0.6666666666666666
 40
0.6666666666666666
 40
0.7142857142857143
 40
0.7142857142857143
 40
0.7142857142857143
 40
0.7142857142857143
 40
0.7619047619047619
 40
0.7619047619047619
 40
0.7619047619047619
 40
0.7619047619047619
 40
0.8095238095238095
 40
0.8095238095238095
 40
0.8095238095238095
 40
0.8095238095238095
 40
0.8571428571428571
 40
0.8571428571428571
 40
0.8571428571428571
 40
0.8571428571428571
 40
0.9047619047619048
 40
0.9047619047619048
 40
0.9047619047619048
 40
0.9047619047619048
 40
1.0
 40
1.0
 40
1.0
 40
1.0
 10
1.5804
 20
-3.3939
 30
0.0
 10
1.5804
 20
-3.3939
 30
0.0
 10
1.5068
 20
-3.0544
 30
0.0
 10
1.5068
 20
-3.0544
 30
0.0
 10
1.5068
 20
-3.0544
 30
0.0
 10
1.5068
 20
-3.0544
 30
0.0
 10
1.6806
 20
-3.0121
 30
0.0
 10
1.6806
 20
-3.0121
 30
0.0
 10
1.6806
 20
-3.0121
 30
0.0
 10
1.6806
 20
-3.0121
 30
0.0
 10
1.7589
 20
-3.3684
 30
0.0
 10
1.7589
 20
-3.3684
 30
0.0
 10
1.7589
 20
-3.3684
 30
0.0
 10
1.9005
 20
-3.3736
 30
0.0
 10
2.015
 20
-3.3912
 30
0.0
 10
2.1025
 20
-3.4203
 30
0.0
 10
2.1025
 20
-3.4203
 30
0.0
 10
2.2177
 20
-3.4587
 30
0.0
 10
2.3335
 20
-3.5202
 30
0.0
 10
2.4492
 20
-3.6043
 30
0.0
 10
2.4492
 20
-3.6043
 30
0.0
 10
2.6166
 20
-3.7259
 30
0.0
 10
2.7412
 20
-3.8681
 30
0.0
 10
2.8224
 20
-4.0307
 30
0.0
 10
2.8224
 20
-4.0307
 30
0.0
 10
2.9042
 20
-4.1936
 30
0.0
 10
2.9342
 20
-4.3601
 30
0.0
 10
2.9125
 20
-4.531
 30
0.0
 10
2.9125
 20
-4.531
 30
0.0
 10
2.89
 20
-4.7019
 30
0.0
 10
2.8293
 20
-4.8559
 30
0.0
 10
2.7295
 20
-4.9933
 30
0.0
 10
2.7295
 20
-4.9933
 30
0.0
 10
2.6548
 20
-5.096
 30
0.0
 10
2.5729
 20
-5.1784
 30
0.0
 10
2.4834
 20
-5.2407
 30
0.0
 10
2.4834
 20
-5.2407
 30
0.0
 10
2.4146
 20
-5.2884
 30
0.0
 10
2.3178
 20
-5.332
 30
0.0
 10
2.1923
 20
-5.3717
 30
0.0
 10
2.1923
 20
-5.3717
 30
0.0
 10
2.1923
 20
-5.3717
 30
0.0
 10
2.266
 20
-5.7113
 30
0.0
 10
2.266
 20
-5.7113
 30
0.0
 10
2.266
 20
-5.7113
 30
0.0
 10
2.266
 20
-5.7113
 30
0.0
 10
2.0922
 20
-5.7536
 30
0.0
 10
2.0922
 20
-5.7536
 30
0.0
 10
2.0922
 20
-5.7536
 30
0.0
 10
2.0922
 20
-5.7536
 30
0.0
 10
2.0153
 20
-5.3978
 30
0.0
 10
2.0153
 20
-5.3978
 30
0.0
 10
2.0153
 20
-5.3978
 30
0.0
 10
1.8515
 20
-5.3904
 30
0.0
 10
1.7214
 20
-5.3702
 30
0.0
 10
1.6253
 20
-5.3376
 30
0.0
 10
1.6253
 20
-5.3376
 30
0.0
 10
1.5292
 20
-5.305
 30
0.0
 10
1.4257
 20
-5.249
 30
0.0
 10
1.3157
 20
-5.1691
 30
0.0
 10
1.3157
 20
-5.1691
 30
0.0
 10
1.1479
 20
-5.0472
 30
0.0
 10
1.0227
 20
-4.905
 30
0.0
 10
0.94
 20
-4.7427
 30
0.0
 10
0.94
 20
-4.7427
 30
0.0
 10
0.8574
 20
-4.5803
 30
0.0
 10
0.8261
 20
-4.4146
 30
0.0
 10
0.8463
 20
-4.2444
 30
0.0
 10
0.8463
 20
-4.2444
 30
0.0
 10
0.8666
 20
-4.0748
 30
0.0
 10
0.9303
 20
-3.9158
 30
0.0
 10
1.0378
 20
-3.7678
 30
0.0
 10
1.0378
 20
-3.7678
 30
0.0
 10
1.1103
 20
-3.6681
 30
0.0
 10
1.1865
 20
-3.5903
 30
0.0
 10
1.2674
 20
-3.5351
 30
0.0
 10
1.2674
 20
-3.5351
 30
0.0
 10
1.3478
 20
-3.4796
 30
0.0
 10
1.4525
 20
-3.4324
 30
0.0
 10
1.5804
 20
-3.3939
 30
0.0
  0
SPLINE
  5
45
330
1F
100
AcDbEntity
  8
AXIS
 62
   250
100
AcDbSpline
210
0.0
220
0.0
230
1.0
 70
    11
 71
     3
 72
    32
 73
    28
 74
     0
 42
0.0000000001
 43
0.0000000001
 40
0.0
 40
0.0
 40
0.0
 40
0.0
 40
0.125
 40
0.125
 40
0.125
 40
0.125
 40
0.25
 40
0.25
 40
0.25
 40
0.25
 40
0.375
 40
0.375
 40
0.375
 40
0.375
 40
0.5
 40
0.5
 40
0.5
 40
0.5
 40
0.625
 40
0.625
 40
0.625
 40
0.625
 40
0.75
 40
0.75
 40
0.75
 40
0.75
 40
1.0
 40
1.0
 40
1.0
 40
1.0
 10
1.6337
 20
-3.6367
 30
0.0
 10
1.528
 20
-3.667
 30
0.0
 10
1.4458
 20
-3.7008
 30
0.0
 10
1.3878
 20
-3.7383
 30
0.0
 10
1.3878
 20
-3.7383
 30
0.0
 10
1.3298
 20
-3.7764
 30
0.0
 10
1.2748
 20
-3.8306
 30
0.0
 10
1.2236
 20
-3.901
 30
0.0
 10
1.2236
 20
-3.901
 30
0.0
 10
1.1053
 20
-4.0639
 30
0.0
 10
1.0629
 20
-4.2383
 30
0.0
 10
1.0958
 20
-4.425
 30
0.0
 10
1.0958
 20
-4.425
 30
0.0
 10
1.129
 20
-4.6115
 30
0.0
 10
1.2551
 20
-4.7844
 30
0.0
 10
1.4747
 20
-4.9439
 30
0.0
 10
1.4747
 20
-4.9439
 30
0.0
 10
1.5607
 20
-5.0064
 30
0.0
 10
1.6432
 20
-5.0536
 30
0.0
 10
1.7222
 20
-5.0859
 30
0.0
 10
1.7222
 20
-5.0859
 30
0.0
 10
1.7806
 20
-5.1103
 30
0.0
 10
1.8597
 20
-5.1301
 30
0.0
 10
1.9601
 20
-5.1448
 30
0.0
 10
1.9601
 20
-5.1448
 30
0.0
 10
1.9601
 20
-5.1448
 30
0.0
 10
1.6337
 20
-3.6367
 30
0.0
 10
1.6337
 20
-3.6367
 30
0.0
  0
SPLINE
  5
46
330
1F
100
AcDbEntity
  8
AXIS
 62
   250
100
AcDbSpline
210
0.0
220
0.0
230
1.0
 70
    11
 71
     3
 72
    28
 73
    24
 74
     0
 42
0.0000000001
 43
0.0000000001
 40
0.0
 40
0.0
 40
0.0
 40
0.0
 40
0.1428571428571428
 40
0.1428571428571428
 40
0.1428571428571428
 40
0.1428571428571428
 40
0.2857142857142857
 40
0.2857142857142857
 40
0.2857142857142857
 40
0.2857142857142857
 40
0.4285714285714285
 40
0.4285714285714285
 40
0.4285714285714285
 40
0.4285714285714285
 40
0.5714285714285714
 40
0.5714285714285714
 40
0.5714285714285714
 40
0.5714285714285714
 40
0.7142857142857143
 40
0.7142857142857143
 40
0.7142857142857143
 40
0.7142857142857143
 40
1.0
 40
1.0
 40
1.0
 40
1.0
 10
1.815
 20
-3.6289
 30
0.0
 10
1.815
 20
-3.6289
 30
0.0
 10
2.1405
 20
-5.1311
 30
0.0
 10
2.1405
 20
-5.1311
 30
0.0
 10
2.1405
 20
-5.1311
 30
0.0
 10
2.2287
 20
-5.108
 30
0.0
 10
2.2999
 20
-5.0789
 30
0.0
 10
2.3536
 20
-5.0441
 30
0.0
 10
2.3536
 20
-5.0441
 30
0.0
 10
2.4242
 20
-4.999
 30
0.0
 10
2.4862
 20
-4.9393
 30
0.0
 10
2.5395
 20
-4.8658
 30
0.0
 10
2.5395
 20
-4.8658
 30
0.0
 10
2.6573
 20
-4.7037
 30
0.0
 10
2.6973
 20
-4.5287
 30
0.0
 10
2.6596
 20
-4.3397
 30
0.0
 10
2.6596
 20
-4.3397
 30
0.0
 10
2.6216
 20
-4.151
 30
0.0
 10
2.4995
 20
-3.9815
 30
0.0
 10
2.2929
 20
-3.8313
 30
0.0
 10
2.2929
 20
-3.8313
 30
0.0
 10
2.1384
 20
-3.7191
 30
0.0
 10
1.9789
 20
-3.6514
 30
0.0
 10
1.815
 20
-3.6289
 30
0.0
  0
SPLINE
  5
47
330
1F
100
AcDbEntity
  8
AXIS
 62
   250
100
AcDbSpline
210
0.0
220
0.0
230
1.0
 70
    11
 71
     3
 72
    40
 73
    36
 74
     0
 42
0.0000000001
 43
0.0000000001
 40
0.0
 40
0.0
 40
0.0
 40
0.0
 40
0.1
 40
0.1
 40
0.1
 40
0.1
 40
0.2
 40
0.2
 40
0.2
 40
0.2
 40
0.3
 40
0.3
 40
0.3
 40
0.3
 40
0.4
 40
0.4
 40
0.4
 40
0.4
 40
0.5
 40
0.5
 40
0.5
 40
0.5
 40
0.6
 40
0.6
 40
0.6
 40
0.6
 40
0.7
 40
0.7
 40
0.7
 40
0.7
 40
0.8
 40
0.8
 40
0.8
 40
0.8
 40
1.0
 40
1.0
 40
1.0
 40
1.0
 10
3.9611
 20
-3.2398
 30
0.0
 10
3.9611
 20
-3.2398
 30
0.0
 10
3.8153
 20
-3.4404
 30
0.0
 10
3.8153
 20
-3.4404
 30
0.0
 10
3.8153
 20
-3.4404
 30
0.0
 10
3.8153
 20
-3.4404
 30
0.0
 10
2.5368
 20
-2.5114
 30
0.0
 10
2.5368
 20
-2.5114
 30
0.0
 10
2.5368
 20
-2.5114
 30
0.0
 10
2.5477
 20
-2.5932
 30
0.0
 10
2.5478
 20
-2.6898
 30
0.0
 10
2.5369
 20
-2.8016
 30
0.0
 10
2.5369
 20
-2.8016
 30
0.0
 10
2.5257
 20
-2.9139
 30
0.0
 10
2.5092
 20
-3.0094
 30
0.0
 10
2.4867
 20
-3.0885
 30
0.0
 10
2.4867
 20
-3.0885
 30
0.0
 10
2.4867
 20
-3.0885
 30
0.0
 10
2.2929
 20
-2.9477
 30
0.0
 10
2.2929
 20
-2.9477
 30
0.0
 10
2.2929
 20
-2.9477
 30
0.0
 10
2.3217
 20
-2.7971
 30
0.0
 10
2.3291
 20
-2.6524
 30
0.0
 10
2.3152
 20
-2.5139
 30
0.0
 10
2.3152
 20
-2.5139
 30
0.0
 10
2.3007
 20
-2.3754
 30
0.0
 10
2.2714
 20
-2.2629
 30
0.0
 10
2.226
 20
-2.1764
 30
0.0
 10
2.226
 20
-2.1764
 30
0.0
 10
2.226
 20
-2.1764
 30
0.0
 10
2.3198
 20
-2.0474
 30
0.0
 10
2.3198
 20
-2.0474
 30
0.0
 10
2.3198
 20
-2.0474
 30
0.0
 10
2.3198
 20
-2.0474
 30
0.0
 10
3.9611
 20
-3.2398
 30
0.0
 10
3.9611
 20
-3.2398
 30
0.0
  0
SPLINE
  5
48
330
1F
100
AcDbEntity
  8
AXIS
 62
   250
100
AcDbSpline
210
0.0
220
0.0
230
1.0
 70
    11
 71
     3
 72
    52
 73
    48
 74
     0
 42
0.0000000001
 43
0.0000000001
 40
0.0
 40
0.0
 40
0.0
 40
0.0
 40
0.0769230769230769
 40
0.0769230769230769
 40
0.0769230769230769
 40
0.0769230769230769
 40
0.1538461538461539
 40
0.1538461538461539
 40
0.1538461538461539
 40
0.1538461538461539
 40
0.2307692307692308
 40
0.2307692307692308
 40
0.2307692307692308
 40
0.2307692307692308
 40
0.3076923076923077
 40
0.3076923076923077
 40
0.3076923076923077
 40
0.3076923076923077
 40
0.3846153846153846
 40
0.3846153846153846
 40
0.3846153846153846
 40
0.3846153846153846
 40
0.4615384615384616
 40
0.4615384615384616
 40
0.4615384615384616
 40
0.4615384615384616
 40
0.5384615384615384
 40
0.5384615384615384
 40
0.5384615384615384
 40
0.5384615384615384
 40
0.6153846153846154
 40
0.6153846153846154
 40
0.6153846153846154
 40
0.6153846153846154
 40
0.6923076923076923
 40
0.6923076923076923
 40
0.6923076923076923
 40
0.6923076923076923
 40
0.7692307692307693
 40
0.7692307692307693
 40
0.7692307692307693
 40
0.7692307692307693
 40
0.8461538461538461
 40
0.8461538461538461
 40
0.8461538461538461
 40
0.8461538461538461
 40
1.0
 40
1.0
 40
1.0
 40
1.0
 10
3.5286
 20
-2.1402
 30
0.0
 10
3.3352
 20
-1.9997
 30
0.0
 10
3.194
 20
-1.8668
 30
0.0
 10
3.1055
 20
-1.7414
 30
0.0
 10
3.1055
 20
-1.7414
 30
0.0
 10
3.0163
 20
-1.6162
 30
0.0
 10
2.9685
 20
-1.4907
 30
0.0
 10
2.9614
 20
-1.3658
 30
0.0
 10
2.9614
 20
-1.3658
 30
0.0
 10
2.9545
 20
-1.241
 30
0.0
 10
2.9941
 20
-1.1193
 30
0.0
 10
3.0803
 20
-1.0006
 30
0.0
 10
3.0803
 20
-1.0006
 30
0.0
 10
3.1442
 20
-0.9126
 30
0.0
 10
3.2179
 20
-0.8488
 30
0.0
 10
3.3015
 20
-0.8083
 30
0.0
 10
3.3015
 20
-0.8083
 30
0.0
 10
3.3846
 20
-0.7675
 30
0.0
 10
3.4752
 20
-0.7501
 30
0.0
 10
3.5732
 20
-0.7551
 30
0.0
 10
3.5732
 20
-0.7551
 30
0.0
 10
3.671
 20
-0.7605
 30
0.0
 10
3.7767
 20
-0.7855
 30
0.0
 10
3.8899
 20
-0.8305
 30
0.0
 10
3.8899
 20
-0.8305
 30
0.0
 10
4.0034
 20
-0.8752
 30
0.0
 10
4.1409
 20
-0.9565
 30
0.0
 10
4.303
 20
-1.0743
 30
0.0
 10
4.303
 20
-1.0743
 30
0.0
 10
4.4947
 20
-1.2136
 30
0.0
 10
4.6349
 20
-1.3456
 30
0.0
 10
4.7244
 20
-1.4706
 30
0.0
 10
4.7244
 20
-1.4706
 30
0.0
 10
4.8136
 20
-1.5958
 30
0.0
 10
4.8617
 20
-1.7209
 30
0.0
 10
4.869
 20
-1.846
 30
0.0
 10
4.869
 20
-1.846
 30
0.0
 10
4.8764
 20
-1.9711
 30
0.0
 10
4.8364
 20
-2.0933
 30
0.0
 10
4.7493
 20
-2.2132
 30
0.0
 10
4.7493
 20
-2.2132
 30
0.0
 10
4.6349
 20
-2.3707
 30
0.0
 10
4.4887
 20
-2.4535
 30
0.0
 10
4.3105
 20
-2.4612
 30
0.0
 10
4.3105
 20
-2.4612
 30
0.0
 10
4.0964
 20
-2.4702
 30
0.0
 10
3.8353
 20
-2.363
 30
0.0
 10
3.5286
 20
-2.1402
 30
0.0
  0
SPLINE
  5
49
330
1F
100
AcDbEntity
  8
AXIS
 62
   250
100
AcDbSpline
210
0.0
220
0.0
230
1.0
 70
    11
 71
     3
 72
    36
 73
    32
 74
     0
 42
0.0000000001
 43
0.0000000001
 40
0.0
 40
0.0
 40
0.0
 40
0.0
 40
0.1111111111111111
 40
0.1111111111111111
 40
0.1111111111111111
 40
0.1111111111111111
 40
0.2222222222222222
 40
0.2222222222222222
 40
0.2222222222222222
 40
0.2222222222222222
 40
0.3333333333333333
 40
0.3333333333333333
 40
0.3333333333333333
 40
0.3333333333333333
 40
0.4444444444444444
 40
0.4444444444444444
 40
0.4444444444444444
 40
0.4444444444444444
 40
0.5555555555555556
 40
0.5555555555555556
 40
0.5555555555555556
 40
0.5555555555555556
 40
0.6666666666666666
 40
0.6666666666666666
 40
0.6666666666666666
 40
0.6666666666666666
 40
0.7777777777777778
 40
0.7777777777777778
 40
0.7777777777777778
 40
0.7777777777777778
 40
1.0
 40
1.0
 40
1.0
 40
1.0
 10
3.6785
 20
-1.9339
 30
0.0
 10
3.9467
 20
-2.1288
 30
0.0
 10
4.1481
 20
-2.2269
 30
0.0
 10
4.2827
 20
-2.2288
 30
0.0
 10
4.2827
 20
-2.2288
 30
0.0
 10
4.417
 20
-2.2304
 30
0.0
 10
4.5177
 20
-2.1856
 30
0.0
 10
4.5846
 20
-2.0935
 30
0.0
 10
4.5846
 20
-2.0935
 30
0.0
 10
4.6518
 20
-2.001
 30
0.0
 10
4.663
 20
-1.8912
 30
0.0
 10
4.6196
 20
-1.7637
 30
0.0
 10
4.6196
 20
-1.7637
 30
0.0
 10
4.5761
 20
-1.6362
 30
0.0
 10
4.4206
 20
-1.4749
 30
0.0
 10
4.1532
 20
-1.2805
 30
0.0
 10
4.1532
 20
-1.2805
 30
0.0
 10
3.8841
 20
-1.085
 30
0.0
 10
3.6822
 20
-0.9867
 30
0.0
 10
3.5484
 20
-0.9854
 30
0.0
 10
3.5484
 20
-0.9854
 30
0.0
 10
3.4141
 20
-0.9837
 30
0.0
 10
3.3133
 20
-1.0297
 30
0.0
 10
3.2453
 20
-1.1233
 30
0.0
 10
3.2453
 20
-1.1233
 30
0.0
 10
3.1781
 20
-1.2158
 30
0.0
 10
3.1639
 20
-1.3177
 30
0.0
 10
3.2018
 20
-1.4295
 30
0.0
 10
3.2018
 20
-1.4295
 30
0.0
 10
3.2511
 20
-1.5705
 30
0.0
 10
3.4102
 20
-1.739
 30
0.0
 10
3.6785
 20
-1.9339
 30
0.0
  0
SPLINE
  5
4A
330
1F
100
AcDbEntity
  8
AXIS
 62
   250
100
AcDbSpline
210
0.0
220
0.0
230
1.0
 70
    11
 71
     3
 72
    92
 73
    88
 74
     0
 42
0.0000000001
 43
0.0000000001
 40
0.0
 40
0.0
 40
0.0
 40
0.0
 40
0.0434782608695652
 40
0.0434782608695652
 40
0.0434782608695652
 40
0.0434782608695652
 40
0.0869565217391304
 40
0.0869565217391304
 40
0.0869565217391304
 40
0.0869565217391304
 40
0.1304347826086956
 40
0.1304347826086956
 40
0.1304347826086956
 40
0.1304347826086956
 40
0.1739130434782609
 40
0.1739130434782609
 40
0.1739130434782609
 40
0.1739130434782609
 40
0.2173913043478261
 40
0.2173913043478261
 40
0.2173913043478261
 40
0.2173913043478261
 40
0.2608695652173913
 40
0.2608695652173913
 40
0.2608695652173913
 40
0.2608695652173913
 40
0.3043478260869565
 40
0.3043478260869565
 40
0.3043478260869565
 40
0.3043478260869565
 40
0.3478260869565217
 40
0.3478260869565217
 40
0.3478260869565217
 40
0.3478260869565217
 40
0.391304347826087
 40
0.391304347826087
 40
0.391304347826087
 40
0.391304347826087
 40
0.4347826086956522
 40
0.4347826086956522
 40
0.4347826086956522
 40
0.4347826086956522
 40
0.4782608695652174
 40
0.4782608695652174
 40
0.4782608695652174
 40
0.4782608695652174
 40
0.5217391304347826
 40
0.5217391304347826
 40
0.5217391304347826
 40
0.5217391304347826
 40
0.5652173913043478
 40
0.5652173913043478
 40
0.5652173913043478
 40
0.5652173913043478
 40
0.6086956521739131
 40
0.6086956521739131
 40
0.6086956521739131
 40
0.6086956521739131
 40
0.6521739130434783
 40
0.6521739130434783
 40
0.6521739130434783
 40
0.6521739130434783
 40
0.6956521739130435
 40
0.6956521739130435
 40
0.6956521739130435
 40
0.6956521739130435
 40
0.7391304347826086
 40
0.7391304347826086
 40
0.7391304347826086
 40
0.7391304347826086
 40
0.782608695652174
 40
0.782608695652174
 40
0.782608695652174
 40
0.782608695652174
 40
0.8260869565217391
 40
0.8260869565217391
 40
0.8260869565217391
 40
0.8260869565217391
 40
0.8695652173913043
 40
0.8695652173913043
 40
0.8695652173913043
 40
0.8695652173913043
 40
0.9130434782608695
 40
0.9130434782608695
 40
0.9130434782608695
 40
0.9130434782608695
 40
1.0
 40
1.0
 40
1.0
 40
1.0
 10
4.829
 20
-1.1449
 30
0.0
 10
4.829
 20
-1.1449
 30
0.0
 10
4.9643
 20
-0.921
 30
0.0
 10
4.9643
 20
-0.921
 30
0.0
 10
4.9643
 20
-0.921
 30
0.0
 10
5.0784
 20
-0.9801
 30
0.0
 10
5.1815
 20
-0.9998
 30
0.0
 10
5.2745
 20
-0.9807
 30
0.0
 10
5.2745
 20
-0.9807
 30
0.0
 10
5.3677
 20
-0.9612
 30
0.0
 10
5.4434
 20
-0.9115
 30
0.0
 10
5.5017
 20
-0.8313
 30
0.0
 10
5.5017
 20
-0.8313
 30
0.0
 10
5.5719
 20
-0.7346
 30
0.0
 10
5.5948
 20
-0.6262
 30
0.0
 10
5.5705
 20
-0.5069
 30
0.0
 10
5.5705
 20
-0.5069
 30
0.0
 10
5.5461
 20
-0.3868
 30
0.0
 10
5.4738
 20
-0.2831
 30
0.0
 10
5.3536
 20
-0.1957
 30
0.0
 10
5.3536
 20
-0.1957
 30
0.0
 10
5.239
 20
-0.1125
 30
0.0
 10
5.1256
 20
-0.0789
 30
0.0
 10
5.0127
 20
-0.0952
 30
0.0
 10
5.0127
 20
-0.0952
 30
0.0
 10
4.8997
 20
-0.1113
 30
0.0
 10
4.8055
 20
-0.1713
 30
0.0
 10
4.7298
 20
-0.2756
 30
0.0
 10
4.7298
 20
-0.2756
 30
0.0
 10
4.6827
 20
-0.3404
 30
0.0
 10
4.6553
 20
-0.4093
 30
0.0
 10
4.6467
 20
-0.4827
 30
0.0
 10
4.6467
 20
-0.4827
 30
0.0
 10
4.6382
 20
-0.5562
 30
0.0
 10
4.6466
 20
-0.6245
 30
0.0
 10
4.6719
 20
-0.6882
 30
0.0
 10
4.6719
 20
-0.6882
 30
0.0
 10
4.6719
 20
-0.6882
 30
0.0
 10
4.5106
 20
-0.8589
 30
0.0
 10
4.5106
 20
-0.8589
 30
0.0
 10
4.5106
 20
-0.8589
 30
0.0
 10
4.5106
 20
-0.8589
 30
0.0
 10
3.7862
 20
-0.0907
 30
0.0
 10
3.7862
 20
-0.0907
 30
0.0
 10
3.7862
 20
-0.0907
 30
0.0
 10
3.7862
 20
-0.0907
 30
0.0
 10
4.3767
 20
0.7221
 30
0.0
 10
4.3767
 20
0.7221
 30
0.0
 10
4.3767
 20
0.7221
 30
0.0
 10
4.3767
 20
0.7221
 30
0.0
 10
4.5685
 20
0.5828
 30
0.0
 10
4.5685
 20
0.5828
 30
0.0
 10
4.5685
 20
0.5828
 30
0.0
 10
4.5685
 20
0.5828
 30
0.0
 10
4.0947
 20
-0.0694
 30
0.0
 10
4.0947
 20
-0.0694
 30
0.0
 10
4.0947
 20
-0.0694
 30
0.0
 10
4.0947
 20
-0.0694
 30
0.0
 10
4.4697
 20
-0.4768
 30
0.0
 10
4.4697
 20
-0.4768
 30
0.0
 10
4.4697
 20
-0.4768
 30
0.0
 10
4.4724
 20
-0.3288
 30
0.0
 10
4.5132
 20
-0.2008
 30
0.0
 10
4.5914
 20
-0.0932
 30
0.0
 10
4.5914
 20
-0.0932
 30
0.0
 10
4.6951
 20
0.0496
 30
0.0
 10
4.8319
 20
0.1339
 30
0.0
 10
5.0022
 20
0.1602
 30
0.0
 10
5.0022
 20
0.1602
 30
0.0
 10
5.1724
 20
0.1864
 30
0.0
 10
5.3352
 20
0.1432
 30
0.0
 10
5.4904
 20
0.0304
 30
0.0
 10
5.4904
 20
0.0304
 30
0.0
 10
5.6385
 20
-0.0772
 30
0.0
 10
5.7349
 20
-0.2134
 30
0.0
 10
5.7801
 20
-0.3777
 30
0.0
 10
5.7801
 20
-0.3777
 30
0.0
 10
5.8358
 20
-0.5786
 30
0.0
 10
5.798
 20
-0.7698
 30
0.0
 10
5.6664
 20
-0.9509
 30
0.0
 10
5.6664
 20
-0.9509
 30
0.0
 10
5.5583
 20
-1.0997
 30
0.0
 10
5.4287
 20
-1.191
 30
0.0
 10
5.2771
 20
-1.2245
 30
0.0
 10
5.2771
 20
-1.2245
 30
0.0
 10
5.1254
 20
-1.2579
 30
0.0
 10
4.9761
 20
-1.2313
 30
0.0
 10
4.829
 20
-1.1449
 30
0.0
  0
SPLINE
  5
4B
330
1F
100
AcDbEntity
  8
AXIS
 62
   250
100
AcDbSpline
210
0.0
220
0.0
230
1.0
 70
    11
 71
     3
 72
    20
 73
    16
 74
     0
 42
0.0000000001
 43
0.0000000001
 40
0.0
 40
0.0
 40
0.0
 40
0.0
 40
0.2
 40
0.2
 40
0.2
 40
0.2
 40
0.4
 40
0.4
 40
0.4
 40
0.4
 40
0.6
 40
0.6
 40
0.6
 40
0.6
 40
1.0
 40
1.0
 40
1.0
 40
1.0
 10
8.0728
 20
2.0603
 30
0.0
 10
8.0728
 20
2.0603
 30
0.0
 10
9.8277
 20
3.8755
 30
0.0
 10
9.8277
 20
3.8755
 30
0.0
 10
9.8277
 20
3.8755
 30
0.0
 10
9.8277
 20
3.8755
 30
0.0
 10
9.8911
 20
3.8294
 30
0.0
 10
9.8911
 20
3.8294
 30
0.0
 10
9.8911
 20
3.8294
 30
0.0
 10
9.8911
 20
3.8294
 30
0.0
 10
8.726
 20
1.5857
 30
0.0
 10
8.726
 20
1.5857
 30
0.0
 10
8.726
 20
1.5857
 30
0.0
 10
8.726
 20
1.5857
 30
0.0
 10
8.0728
 20
2.0603
 30
0.0
 10
8.0728
 20
2.0603
 30
0.0
  0
SPLINE
  5
4C
330
1F
100
AcDbEntity
  8
AXIS
 62
   250
100
AcDbSpline
210
0.0
220
0.0
230
1.0
 70
    11
 71
     3
 72
    20
 73
    16
 74
     0
 42
0.0000000001
 43
0.0000000001
 40
0.0
 40
0.0
 40
0.0
 40
0.0
 40
0.2
 40
0.2
 40
0.2
 40
0.2
 40
0.4
 40
0.4
 40
0.4
 40
0.4
 40
0.6
 40
0.6
 40
0.6
 40
0.6
 40
1.0
 40
1.0
 40
1.0
 40
1.0
 10
1.2574
 20
-8.7415
 30
0.0
 10
1.2574
 20
-8.7415
 30
0.0
 10
-0.4975
 20
-10.5567
 30
0.0
 10
-0.4975
 20
-10.5567
 30
0.0
 10
-0.4975
 20
-10.5567
 30
0.0
 10
-0.4975
 20
-10.5567
 30
0.0
 10
-0.5609
 20
-10.5106
 30
0.0
 10
-0.5609
 20
-10.5106
 30
0.0
 10
-0.5609
 20
-10.5106
 30
0.0
 10
-0.5609
 20
-10.5106
 30
0.0
 10
0.6042
 20
-8.2669
 30
0.0
 10
0.6042
 20
-8.2669
 30
0.0
 10
0.6042
 20
-8.2669
 30
0.0
 10
0.6042
 20
-8.2669
 30
0.0
 10
1.2574
 20
-8.7415
 30
0.0
 10
1.2574
 20
-8.7415
 30
0.0
  0
SPLINE
  5
4D
330
1F
100
AcDbEntity
  8
AXIS
 62
   250
100
AcDbSpline
210
0.0
220
0.0
230
1.0
 70
    24
 71
     3
 72
     8
 73
     4
 74
     0
 42
0.0000000001
 43
0.0000000001
 40
0.0
 40
0.0
 40
0.0
 40
0.0
 40
1.0
 40
1.0
 40
1.0
 40
1.0
 10
-14.2841
 20
-23.2729
 30
0.0
 10
-14.2841
 20
-23.2729
 30
0.0
 10
-14.2841
 20
-30.9997
 30
0.0
 10
-14.2841
 20
-30.9997
 30
0.0
  0
SPLINE
  5
4E
330
1F
100
AcDbEntity
  8
AXIS
 62
   250
100
AcDbSpline
210
0.0
220
0.0
230
1.0
 70
    24
 71
     3
 72
     8
 73
     4
 74
     0
 42
0.0000000001
 43
0.0000000001
 40
0.0
 40
0.0
 40
0.0
 40
0.0
 40
1.0
 40
1.0
 40
1.0
 40
1.0
 10
-22.2851
 20
-22.5559
 30
0.0
 10
-22.2851
 20
-22.5559
 30
0.0
 10
-14.8767
 20
-22.5559
 30
0.0
 10
-14.8767
 20
-22.5559
 30
0.0
  0
SPLINE
  5
4F
330
1F
100
AcDbEntity
  8
AXIS
 62
   250
100
AcDbSpline
210
0.0
220
0.0
230
1.0
 70
    24
 71
     3
 72
     8
 73
     4
 74
     0
 42
0.0000000001
 43
0.0000000001
 40
0.0
 40
0.0
 40
0.0
 40
0.0
 40
1.0
 40
1.0
 40
1.0
 40
1.0
 10
23.8615
 20
-23.4053
 30
0.0
 10
23.8615
 20
-23.4053
 30
0.0
 10
23.8615
 20
-30.9625
 30
0.0
 10
23.8615
 20
-30.9625
 30
0.0
  0
SPLINE
  5
50
330
1F
100
AcDbEntity
  8
AXIS
 62
   250
100
AcDbSpline
210
0.0
220
0.0
230
1.0
 70
    24
 71
     3
 72
     8
 73
     4
 74
     0
 42
0.0000000001
 43
0.0000000001
 40
0.0
 40
0.0
 40
0.0
 40
0.0
 40
1.0
 40
1.0
 40
1.0
 40
1.0
 10
-22.219
 20
15.5897
 30
0.0
 10
-22.219
 20
15.5897
 30
0.0
 10
-14.546
 20
15.5897
 30
0.0
 10
-14.546
 20
15.5897
 30
0.0
  0
SPLINE
  5
51
330
1F
100
AcDbEntity
  8
AXIS
 62
   250
100
AcDbSpline
210
0.0
220
0.0
230
1.0
 70
    24
 71
     3
 72
     8
 73
     4
 74
     0
 42
0.0000000001
 43
0.0000000001
 40
0.0
 40
0.0
 40
0.0
 40
0.0
 40
1.0
 40
1.0
 40
1.0
 40
1.0
 10
23.5211
 20
-30.4395
 30
0.0
 10
23.5211
 20
-30.4395
 30
0.0
 10
-13.867
 20
-30.4395
 30
0.0
 10
-13.867
 20
-30.4395
 30
0.0
  0
SPLINE
  5
52
330
1F
100
AcDbEntity
  8
AXIS
 62
   250
100
AcDbSpline
210
0.0
220
0.0
230
1.0
 70
    24
 71
     3
 72
     8
 73
     4
 74
     0
 42
0.0000000001
 43
0.0000000001
 40
0.0
 40
0.0
 40
0.0
 40
0.0
 40
1.0
 40
1.0
 40
1.0
 40
1.0
 10
-21.6479
 20
15.2493
 30
0.0
 10
-21.6479
 20
15.2493
 30
0.0
 10
-21.6479
 20
-22.1388
 30
0.0
 10
-21.6479
 20
-22.1388
 30
0.0
  0
SPLINE
  5
53
330
1F
100
AcDbEntity
  8
AXIS
 62
   250
100
AcDbSpline
210
0.0
220
0.0
230
1.0
 70
    11
 71
     3
 72
    92
 73
    88
 74
     0
 42
0.0000000001
 43
0.0000000001
 40
0.0
 40
0.0
 40
0.0
 40
0.0
 40
0.0434782608695652
 40
0.0434782608695652
 40
0.0434782608695652
 40
0.0434782608695652
 40
0.0869565217391304
 40
0.0869565217391304
 40
0.0869565217391304
 40
0.0869565217391304
 40
0.1304347826086956
 40
0.1304347826086956
 40
0.1304347826086956
 40
0.1304347826086956
 40
0.1739130434782609
 40
0.1739130434782609
 40
0.1739130434782609
 40
0.1739130434782609
 40
0.2173913043478261
 40
0.2173913043478261
 40
0.2173913043478261
 40
0.2173913043478261
 40
0.2608695652173913
 40
0.2608695652173913
 40
0.2608695652173913
 40
0.2608695652173913
 40
0.3043478260869565
 40
0.3043478260869565
 40
0.3043478260869565
 40
0.3043478260869565
 40
0.3478260869565217
 40
0.3478260869565217
 40
0.3478260869565217
 40
0.3478260869565217
 40
0.391304347826087
 40
0.391304347826087
 40
0.391304347826087
 40
0.391304347826087
 40
0.4347826086956522
 40
0.4347826086956522
 40
0.4347826086956522
 40
0.4347826086956522
 40
0.4782608695652174
 40
0.4782608695652174
 40
0.4782608695652174
 40
0.4782608695652174
 40
0.5217391304347826
 40
0.5217391304347826
 40
0.5217391304347826
 40
0.5217391304347826
 40
0.5652173913043478
 40
0.5652173913043478
 40
0.5652173913043478
 40
0.5652173913043478
 40
0.6086956521739131
 40
0.6086956521739131
 40
0.6086956521739131
 40
0.6086956521739131
 40
0.6521739130434783
 40
0.6521739130434783
 40
0.6521739130434783
 40
0.6521739130434783
 40
0.6956521739130435
 40
0.6956521739130435
 40
0.6956521739130435
 40
0.6956521739130435
 40
0.7391304347826086
 40
0.7391304347826086
 40
0.7391304347826086
 40
0.7391304347826086
 40
0.782608695652174
 40
0.782608695652174
 40
0.782608695652174
 40
0.782608695652174
 40
0.8260869565217391
 40
0.8260869565217391
 40
0.8260869565217391
 40
0.8260869565217391
 40
0.8695652173913043
 40
0.8695652173913043
 40
0.8695652173913043
 40
0.8695652173913043
 40
0.9130434782608695
 40
0.9130434782608695
 40
0.9130434782608695
 40
0.9130434782608695
 40
1.0
 40
1.0
 40
1.0
 40
1.0
 10
3.4055
 20
-29.7061
 30
0.0
 10
3.4055
 20
-29.7061
 30
0.0
 10
3.4055
 20
-29.9446
 30
0.0
 10
3.4055
 20
-29.9446
 30
0.0
 10
3.4055
 20
-29.9446
 30
0.0
 10
3.4055
 20
-29.9446
 30
0.0
 10
2.0701
 20
-29.9446
 30
0.0
 10
2.0701
 20
-29.9446
 30
0.0
 10
2.0701
 20
-29.9446
 30
0.0
 10
2.0682
 20
-29.8849
 30
0.0
 10
2.0776
 20
-29.8275
 30
0.0
 10
2.0988
 20
-29.7724
 30
0.0
 10
2.0988
 20
-29.7724
 30
0.0
 10
2.1327
 20
-29.6812
 30
0.0
 10
2.1872
 20
-29.5918
 30
0.0
 10
2.262
 20
-29.5034
 30
0.0
 10
2.262
 20
-29.5034
 30
0.0
 10
2.3373
 20
-29.4154
 30
0.0
 10
2.4455
 20
-29.3134
 30
0.0
 10
2.5866
 20
-29.1977
 30
0.0
 10
2.5866
 20
-29.1977
 30
0.0
 10
2.8062
 20
-29.0175
 30
0.0
 10
2.9549
 20
-28.875
 30
0.0
 10
3.032
 20
-28.7696
 30
0.0
 10
3.032
 20
-28.7696
 30
0.0
 10
3.1091
 20
-28.6647
 30
0.0
 10
3.1477
 20
-28.565
 30
0.0
 10
3.1477
 20
-28.4714
 30
0.0
 10
3.1477
 20
-28.4714
 30
0.0
 10
3.1477
 20
-28.3731
 30
0.0
 10
3.1124
 20
-28.2903
 30
0.0
 10
3.0424
 20
-28.2226
 30
0.0
 10
3.0424
 20
-28.2226
 30
0.0
 10
2.9718
 20
-28.1553
 30
0.0
 10
2.8801
 20
-28.1215
 30
0.0
 10
2.7672
 20
-28.1215
 30
0.0
 10
2.7672
 20
-28.1215
 30
0.0
 10
2.6477
 20
-28.1215
 30
0.0
 10
2.5522
 20
-28.1572
 30
0.0
 10
2.4807
 20
-28.2292
 30
0.0
 10
2.4807
 20
-28.2292
 30
0.0
 10
2.4088
 20
-28.3007
 30
0.0
 10
2.3726
 20
-28.3999
 30
0.0
 10
2.3716
 20
-28.5264
 30
0.0
 10
2.3716
 20
-28.5264
 30
0.0
 10
2.3716
 20
-28.5264
 30
0.0
 10
2.1167
 20
-28.5006
 30
0.0
 10
2.1167
 20
-28.5006
 30
0.0
 10
2.1167
 20
-28.5006
 30
0.0
 10
2.1341
 20
-28.3101
 30
0.0
 10
2.1999
 20
-28.1652
 30
0.0
 10
2.3138
 20
-28.0655
 30
0.0
 10
2.3138
 20
-28.0655
 30
0.0
 10
2.4276
 20
-27.9658
 30
0.0
 10
2.5809
 20
-27.9159
 30
0.0
 10
2.7728
 20
-27.9159
 30
0.0
 10
2.7728
 20
-27.9159
 30
0.0
 10
2.9666
 20
-27.9159
 30
0.0
 10
3.12
 20
-27.97
 30
0.0
 10
3.2329
 20
-28.0772
 30
0.0
 10
3.2329
 20
-28.0772
 30
0.0
 10
3.3462
 20
-28.185
 30
0.0
 10
3.4027
 20
-28.3181
 30
0.0
 10
3.4027
 20
-28.4771
 30
0.0
 10
3.4027
 20
-28.4771
 30
0.0
 10
3.4027
 20
-28.558
 30
0.0
 10
3.3862
 20
-28.6375
 30
0.0
 10
3.3528
 20
-28.7155
 30
0.0
 10
3.3528
 20
-28.7155
 30
0.0
 10
3.3199
 20
-28.7936
 30
0.0
 10
3.2648
 20
-28.8759
 30
0.0
 10
3.1882
 20
-28.962
 30
0.0
 10
3.1882
 20
-28.962
 30
0.0
 10
3.1115
 20
-29.0486
 30
0.0
 10
2.984
 20
-29.1671
 30
0.0
 10
2.8058
 20
-29.3176
 30
0.0
 10
2.8058
 20
-29.3176
 30
0.0
 10
2.6571
 20
-29.4427
 30
0.0
 10
2.5616
 20
-29.5274
 30
0.0
 10
2.5193
 20
-29.5721
 30
0.0
 10
2.5193
 20
-29.5721
 30
0.0
 10
2.477
 20
-29.6163
 30
0.0
 10
2.4422
 20
-29.661
 30
0.0
 10
2.4144
 20
-29.7061
 30
0.0
 10
2.4144
 20
-29.7061
 30
0.0
 10
2.4144
 20
-29.7061
 30
0.0
 10
3.4055
 20
-29.7061
 30
0.0
 10
3.4055
 20
-29.7061
 30
0.0
  0
SPLINE
  5
54
330
1F
100
AcDbEntity
  8
AXIS
 62
   250
100
AcDbSpline
210
0.0
220
0.0
230
1.0
 70
    11
 71
     3
 72
    92
 73
    88
 74
     0
 42
0.0000000001
 43
0.0000000001
 40
0.0
 40
0.0
 40
0.0
 40
0.0
 40
0.0434782608695652
 40
0.0434782608695652
 40
0.0434782608695652
 40
0.0434782608695652
 40
0.0869565217391304
 40
0.0869565217391304
 40
0.0869565217391304
 40
0.0869565217391304
 40
0.1304347826086956
 40
0.1304347826086956
 40
0.1304347826086956
 40
0.1304347826086956
 40
0.1739130434782609
 40
0.1739130434782609
 40
0.1739130434782609
 40
0.1739130434782609
 40
0.2173913043478261
 40
0.2173913043478261
 40
0.2173913043478261
 40
0.2173913043478261
 40
0.2608695652173913
 40
0.2608695652173913
 40
0.2608695652173913
 40
0.2608695652173913
 40
0.3043478260869565
 40
0.3043478260869565
 40
0.3043478260869565
 40
0.3043478260869565
 40
0.3478260869565217
 40
0.3478260869565217
 40
0.3478260869565217
 40
0.3478260869565217
 40
0.391304347826087
 40
0.391304347826087
 40
0.391304347826087
 40
0.391304347826087
 40
0.4347826086956522
 40
0.4347826086956522
 40
0.4347826086956522
 40
0.4347826086956522
 40
0.4782608695652174
 40
0.4782608695652174
 40
0.4782608695652174
 40
0.4782608695652174
 40
0.5217391304347826
 40
0.5217391304347826
 40
0.5217391304347826
 40
0.5217391304347826
 40
0.5652173913043478
 40
0.5652173913043478
 40
0.5652173913043478
 40
0.5652173913043478
 40
0.6086956521739131
 40
0.6086956521739131
 40
0.6086956521739131
 40
0.6086956521739131
 40
0.6521739130434783
 40
0.6521739130434783
 40
0.6521739130434783
 40
0.6521739130434783
 40
0.6956521739130435
 40
0.6956521739130435
 40
0.6956521739130435
 40
0.6956521739130435
 40
0.7391304347826086
 40
0.7391304347826086
 40
0.7391304347826086
 40
0.7391304347826086
 40
0.782608695652174
 40
0.782608695652174
 40
0.782608695652174
 40
0.782608695652174
 40
0.8260869565217391
 40
0.8260869565217391
 40
0.8260869565217391
 40
0.8260869565217391
 40
0.8695652173913043
 40
0.8695652173913043
 40
0.8695652173913043
 40
0.8695652173913043
 40
0.9130434782608695
 40
0.9130434782608695
 40
0.9130434782608695
 40
0.9130434782608695
 40
1.0
 40
1.0
 40
1.0
 40
1.0
 10
4.9751
 20
-29.7061
 30
0.0
 10
4.9751
 20
-29.7061
 30
0.0
 10
4.9751
 20
-29.9446
 30
0.0
 10
4.9751
 20
-29.9446
 30
0.0
 10
4.9751
 20
-29.9446
 30
0.0
 10
4.9751
 20
-29.9446
 30
0.0
 10
3.6397
 20
-29.9446
 30
0.0
 10
3.6397
 20
-29.9446
 30
0.0
 10
3.6397
 20
-29.9446
 30
0.0
 10
3.6378
 20
-29.8849
 30
0.0
 10
3.6472
 20
-29.8275
 30
0.0
 10
3.6684
 20
-29.7724
 30
0.0
 10
3.6684
 20
-29.7724
 30
0.0
 10
3.7023
 20
-29.6812
 30
0.0
 10
3.7568
 20
-29.5918
 30
0.0
 10
3.8316
 20
-29.5034
 30
0.0
 10
3.8316
 20
-29.5034
 30
0.0
 10
3.9069
 20
-29.4154
 30
0.0
 10
4.0151
 20
-29.3134
 30
0.0
 10
4.1562
 20
-29.1977
 30
0.0
 10
4.1562
 20
-29.1977
 30
0.0
 10
4.3758
 20
-29.0175
 30
0.0
 10
4.5245
 20
-28.875
 30
0.0
 10
4.6016
 20
-28.7696
 30
0.0
 10
4.6016
 20
-28.7696
 30
0.0
 10
4.6787
 20
-28.6647
 30
0.0
 10
4.7173
 20
-28.565
 30
0.0
 10
4.7173
 20
-28.4714
 30
0.0
 10
4.7173
 20
-28.4714
 30
0.0
 10
4.7173
 20
-28.3731
 30
0.0
 10
4.682
 20
-28.2903
 30
0.0
 10
4.612
 20
-28.2226
 30
0.0
 10
4.612
 20
-28.2226
 30
0.0
 10
4.5414
 20
-28.1553
 30
0.0
 10
4.4497
 20
-28.1215
 30
0.0
 10
4.3368
 20
-28.1215
 30
0.0
 10
4.3368
 20
-28.1215
 30
0.0
 10
4.2173
 20
-28.1215
 30
0.0
 10
4.1218
 20
-28.1572
 30
0.0
 10
4.0503
 20
-28.2292
 30
0.0
 10
4.0503
 20
-28.2292
 30
0.0
 10
3.9784
 20
-28.3007
 30
0.0
 10
3.9422
 20
-28.3999
 30
0.0
 10
3.9412
 20
-28.5264
 30
0.0
 10
3.9412
 20
-28.5264
 30
0.0
 10
3.9412
 20
-28.5264
 30
0.0
 10
3.6863
 20
-28.5006
 30
0.0
 10
3.6863
 20
-28.5006
 30
0.0
 10
3.6863
 20
-28.5006
 30
0.0
 10
3.7037
 20
-28.3101
 30
0.0
 10
3.7695
 20
-28.1652
 30
0.0
 10
3.8834
 20
-28.0655
 30
0.0
 10
3.8834
 20
-28.0655
 30
0.0
 10
3.9972
 20
-27.9658
 30
0.0
 10
4.1505
 20
-27.9159
 30
0.0
 10
4.3424
 20
-27.9159
 30
0.0
 10
4.3424
 20
-27.9159
 30
0.0
 10
4.5362
 20
-27.9159
 30
0.0
 10
4.6896
 20
-27.97
 30
0.0
 10
4.8025
 20
-28.0772
 30
0.0
 10
4.8025
 20
-28.0772
 30
0.0
 10
4.9158
 20
-28.185
 30
0.0
 10
4.9723
 20
-28.3181
 30
0.0
 10
4.9723
 20
-28.4771
 30
0.0
 10
4.9723
 20
-28.4771
 30
0.0
 10
4.9723
 20
-28.558
 30
0.0
 10
4.9558
 20
-28.6375
 30
0.0
 10
4.9224
 20
-28.7155
 30
0.0
 10
4.9224
 20
-28.7155
 30
0.0
 10
4.8895
 20
-28.7936
 30
0.0
 10
4.8344
 20
-28.8759
 30
0.0
 10
4.7578
 20
-28.962
 30
0.0
 10
4.7578
 20
-28.962
 30
0.0
 10
4.6811
 20
-29.0486
 30
0.0
 10
4.5536
 20
-29.1671
 30
0.0
 10
4.3754
 20
-29.3176
 30
0.0
 10
4.3754
 20
-29.3176
 30
0.0
 10
4.2267
 20
-29.4427
 30
0.0
 10
4.1312
 20
-29.5274
 30
0.0
 10
4.0889
 20
-29.5721
 30
0.0
 10
4.0889
 20
-29.5721
 30
0.0
 10
4.0466
 20
-29.6163
 30
0.0
 10
4.0118
 20
-29.661
 30
0.0
 10
3.984
 20
-29.7061
 30
0.0
 10
3.984
 20
-29.7061
 30
0.0
 10
3.984
 20
-29.7061
 30
0.0
 10
4.9751
 20
-29.7061
 30
0.0
 10
4.9751
 20
-29.7061
 30
0.0
  0
SPLINE
  5
55
330
1F
100
AcDbEntity
  8
AXIS
 62
   250
100
AcDbSpline
210
0.0
220
0.0
230
1.0
 70
    11
 71
     3
 72
    52
 73
    48
 74
     0
 42
0.0000000001
 43
0.0000000001
 40
0.0
 40
0.0
 40
0.0
 40
0.0
 40
0.0769230769230769
 40
0.0769230769230769
 40
0.0769230769230769
 40
0.0769230769230769
 40
0.1538461538461539
 40
0.1538461538461539
 40
0.1538461538461539
 40
0.1538461538461539
 40
0.2307692307692308
 40
0.2307692307692308
 40
0.2307692307692308
 40
0.2307692307692308
 40
0.3076923076923077
 40
0.3076923076923077
 40
0.3076923076923077
 40
0.3076923076923077
 40
0.3846153846153846
 40
0.3846153846153846
 40
0.3846153846153846
 40
0.3846153846153846
 40
0.4615384615384616
 40
0.4615384615384616
 40
0.4615384615384616
 40
0.4615384615384616
 40
0.5384615384615384
 40
0.5384615384615384
 40
0.5384615384615384
 40
0.5384615384615384
 40
0.6153846153846154
 40
0.6153846153846154
 40
0.6153846153846154
 40
0.6153846153846154
 40
0.6923076923076923
 40
0.6923076923076923
 40
0.6923076923076923
 40
0.6923076923076923
 40
0.7692307692307693
 40
0.7692307692307693
 40
0.7692307692307693
 40
0.7692307692307693
 40
0.8461538461538461
 40
0.8461538461538461
 40
0.8461538461538461
 40
0.8461538461538461
 40
1.0
 40
1.0
 40
1.0
 40
1.0
 10
5.2408
 20
-28.9484
 30
0.0
 10
5.2408
 20
-28.7094
 30
0.0
 10
5.2653
 20
-28.517
 30
0.0
 10
5.3147
 20
-28.3717
 30
0.0
 10
5.3147
 20
-28.3717
 30
0.0
 10
5.3636
 20
-28.2259
 30
0.0
 10
5.437
 20
-28.1135
 30
0.0
 10
5.5339
 20
-28.0344
 30
0.0
 10
5.5339
 20
-28.0344
 30
0.0
 10
5.6308
 20
-27.9554
 30
0.0
 10
5.7526
 20
-27.9159
 30
0.0
 10
5.8993
 20
-27.9159
 30
0.0
 10
5.8993
 20
-27.9159
 30
0.0
 10
6.008
 20
-27.9159
 30
0.0
 10
6.103
 20
-27.938
 30
0.0
 10
6.1848
 20
-27.9818
 30
0.0
 10
6.1848
 20
-27.9818
 30
0.0
 10
6.2667
 20
-28.025
 30
0.0
 10
6.334
 20
-28.0881
 30
0.0
 10
6.3876
 20
-28.1704
 30
0.0
 10
6.3876
 20
-28.1704
 30
0.0
 10
6.4407
 20
-28.2527
 30
0.0
 10
6.4826
 20
-28.3529
 30
0.0
 10
6.5127
 20
-28.4709
 30
0.0
 10
6.5127
 20
-28.4709
 30
0.0
 10
6.5433
 20
-28.589
 30
0.0
 10
6.5583
 20
-28.748
 30
0.0
 10
6.5583
 20
-28.9484
 30
0.0
 10
6.5583
 20
-28.9484
 30
0.0
 10
6.5583
 20
-29.1854
 30
0.0
 10
6.5339
 20
-29.3764
 30
0.0
 10
6.4854
 20
-29.5222
 30
0.0
 10
6.4854
 20
-29.5222
 30
0.0
 10
6.4365
 20
-29.668
 30
0.0
 10
6.3636
 20
-29.7804
 30
0.0
 10
6.2667
 20
-29.8599
 30
0.0
 10
6.2667
 20
-29.8599
 30
0.0
 10
6.1698
 20
-29.9394
 30
0.0
 10
6.0475
 20
-29.9789
 30
0.0
 10
5.8993
 20
-29.9789
 30
0.0
 10
5.8993
 20
-29.9789
 30
0.0
 10
5.7046
 20
-29.9789
 30
0.0
 10
5.5517
 20
-29.9093
 30
0.0
 10
5.4407
 20
-29.7696
 30
0.0
 10
5.4407
 20
-29.7696
 30
0.0
 10
5.3076
 20
-29.6017
 30
0.0
 10
5.2408
 20
-29.3275
 30
0.0
 10
5.2408
 20
-28.9484
 30
0.0
  0
SPLINE
  5
56
330
1F
100
AcDbEntity
  8
AXIS
 62
   250
100
AcDbSpline
210
0.0
220
0.0
230
1.0
 70
    11
 71
     3
 72
    36
 73
    32
 74
     0
 42
0.0000000001
 43
0.0000000001
 40
0.0
 40
0.0
 40
0.0
 40
0.0
 40
0.1111111111111111
 40
0.1111111111111111
 40
0.1111111111111111
 40
0.1111111111111111
 40
0.2222222222222222
 40
0.2222222222222222
 40
0.2222222222222222
 40
0.2222222222222222
 40
0.3333333333333333
 40
0.3333333333333333
 40
0.3333333333333333
 40
0.3333333333333333
 40
0.4444444444444444
 40
0.4444444444444444
 40
0.4444444444444444
 40
0.4444444444444444
 40
0.5555555555555556
 40
0.5555555555555556
 40
0.5555555555555556
 40
0.5555555555555556
 40
0.6666666666666666
 40
0.6666666666666666
 40
0.6666666666666666
 40
0.6666666666666666
 40
0.7777777777777778
 40
0.7777777777777778
 40
0.7777777777777778
 40
0.7777777777777778
 40
1.0
 40
1.0
 40
1.0
 40
1.0
 10
5.4958
 20
-28.9484
 30
0.0
 10
5.4958
 20
-29.28
 30
0.0
 10
5.5348
 20
-29.5006
 30
0.0
 10
5.6124
 20
-29.6106
 30
0.0
 10
5.6124
 20
-29.6106
 30
0.0
 10
5.69
 20
-29.7202
 30
0.0
 10
5.7855
 20
-29.7753
 30
0.0
 10
5.8993
 20
-29.7753
 30
0.0
 10
5.8993
 20
-29.7753
 30
0.0
 10
6.0136
 20
-29.7753
 30
0.0
 10
6.1091
 20
-29.7198
 30
0.0
 10
6.1867
 20
-29.6097
 30
0.0
 10
6.1867
 20
-29.6097
 30
0.0
 10
6.2643
 20
-29.4996
 30
0.0
 10
6.3034
 20
-29.279
 30
0.0
 10
6.3034
 20
-28.9484
 30
0.0
 10
6.3034
 20
-28.9484
 30
0.0
 10
6.3034
 20
-28.6158
 30
0.0
 10
6.2643
 20
-28.3947
 30
0.0
 10
6.1867
 20
-28.2856
 30
0.0
 10
6.1867
 20
-28.2856
 30
0.0
 10
6.1091
 20
-28.176
 30
0.0
 10
6.0127
 20
-28.1215
 30
0.0
 10
5.897
 20
-28.1215
 30
0.0
 10
5.897
 20
-28.1215
 30
0.0
 10
5.7827
 20
-28.1215
 30
0.0
 10
5.6919
 20
-28.1699
 30
0.0
 10
5.6237
 20
-28.2663
 30
0.0
 10
5.6237
 20
-28.2663
 30
0.0
 10
5.5386
 20
-28.3891
 30
0.0
 10
5.4958
 20
-28.6168
 30
0.0
 10
5.4958
 20
-28.9484
 30
0.0
  0
SPLINE
  5
57
330
1F
100
AcDbEntity
  8
AXIS
 62
   250
100
AcDbSpline
210
0.0
220
0.0
230
1.0
 70
    11
 71
     3
 72
    92
 73
    88
 74
     0
 42
0.0000000001
 43
0.0000000001
 40
0.0
 40
0.0
 40
0.0
 40
0.0
 40
0.0434782608695652
 40
0.0434782608695652
 40
0.0434782608695652
 40
0.0434782608695652
 40
0.0869565217391304
 40
0.0869565217391304
 40
0.0869565217391304
 40
0.0869565217391304
 40
0.1304347826086956
 40
0.1304347826086956
 40
0.1304347826086956
 40
0.1304347826086956
 40
0.1739130434782609
 40
0.1739130434782609
 40
0.1739130434782609
 40
0.1739130434782609
 40
0.2173913043478261
 40
0.2173913043478261
 40
0.2173913043478261
 40
0.2173913043478261
 40
0.2608695652173913
 40
0.2608695652173913
 40
0.2608695652173913
 40
0.2608695652173913
 40
0.3043478260869565
 40
0.3043478260869565
 40
0.3043478260869565
 40
0.3043478260869565
 40
0.3478260869565217
 40
0.3478260869565217
 40
0.3478260869565217
 40
0.3478260869565217
 40
0.391304347826087
 40
0.391304347826087
 40
0.391304347826087
 40
0.391304347826087
 40
0.4347826086956522
 40
0.4347826086956522
 40
0.4347826086956522
 40
0.4347826086956522
 40
0.4782608695652174
 40
0.4782608695652174
 40
0.4782608695652174
 40
0.4782608695652174
 40
0.5217391304347826
 40
0.5217391304347826
 40
0.5217391304347826
 40
0.5217391304347826
 40
0.5652173913043478
 40
0.5652173913043478
 40
0.5652173913043478
 40
0.5652173913043478
 40
0.6086956521739131
 40
0.6086956521739131
 40
0.6086956521739131
 40
0.6086956521739131
 40
0.6521739130434783
 40
0.6521739130434783
 40
0.6521739130434783
 40
0.6521739130434783
 40
0.6956521739130435
 40
0.6956521739130435
 40
0.6956521739130435
 40
0.6956521739130435
 40
0.7391304347826086
 40
0.7391304347826086
 40
0.7391304347826086
 40
0.7391304347826086
 40
0.782608695652174
 40
0.782608695652174
 40
0.782608695652174
 40
0.782608695652174
 40
0.8260869565217391
 40
0.8260869565217391
 40
0.8260869565217391
 40
0.8260869565217391
 40
0.8695652173913043
 40
0.8695652173913043
 40
0.8695652173913043
 40
0.8695652173913043
 40
0.9130434782608695
 40
0.9130434782608695
 40
0.9130434782608695
 40
0.9130434782608695
 40
1.0
 40
1.0
 40
1.0
 40
1.0
 10
-22.3813
 20
-4.8663
 30
0.0
 10
-22.3813
 20
-4.8663
 30
0.0
 10
-22.1428
 20
-4.8663
 30
0.0
 10
-22.1428
 20
-4.8663
 30
0.0
 10
-22.1428
 20
-4.8663
 30
0.0
 10
-22.1428
 20
-4.8663
 30
0.0
 10
-22.1428
 20
-6.2017
 30
0.0
 10
-22.1428
 20
-6.2017
 30
0.0
 10
-22.1428
 20
-6.2017
 30
0.0
 10
-22.2025
 20
-6.2036
 30
0.0
 10
-22.2599
 20
-6.1942
 30
0.0
 10
-22.315
 20
-6.173
 30
0.0
 10
-22.315
 20
-6.173
 30
0.0
 10
-22.4062
 20
-6.1391
 30
0.0
 10
-22.4956
 20
-6.0846
 30
0.0
 10
-22.584
 20
-6.0098
 30
0.0
 10
-22.584
 20
-6.0098
 30
0.0
 10
-22.672
 20
-5.9345
 30
0.0
 10
-22.774
 20
-5.8263
 30
0.0
 10
-22.8897
 20
-5.6852
 30
0.0
 10
-22.8897
 20
-5.6852
 30
0.0
 10
-23.0699
 20
-5.4656
 30
0.0
 10
-23.2124
 20
-5.3169
 30
0.0
 10
-23.3178
 20
-5.2398
 30
0.0
 10
-23.3178
 20
-5.2398
 30
0.0
 10
-23.4227
 20
-5.1627
 30
0.0
 10
-23.5224
 20
-5.1241
 30
0.0
 10
-23.616
 20
-5.1241
 30
0.0
 10
-23.616
 20
-5.1241
 30
0.0
 10
-23.7143
 20
-5.1241
 30
0.0
 10
-23.7971
 20
-5.1594
 30
0.0
 10
-23.8648
 20
-5.2294
 30
0.0
 10
-23.8648
 20
-5.2294
 30
0.0
 10
-23.9321
 20
-5.3
 30
0.0
 10
-23.9659
 20
-5.3917
 30
0.0
 10
-23.9659
 20
-5.5046
 30
0.0
 10
-23.9659
 20
-5.5046
 30
0.0
 10
-23.9659
 20
-5.6241
 30
0.0
 10
-23.9302
 20
-5.7196
 30
0.0
 10
-23.8582
 20
-5.7911
 30
0.0
 10
-23.8582
 20
-5.7911
 30
0.0
 10
-23.7867
 20
-5.863
 30
0.0
 10
-23.6875
 20
-5.8992
 30
0.0
 10
-23.561
 20
-5.9002
 30
0.0
 10
-23.561
 20
-5.9002
 30
0.0
 10
-23.561
 20
-5.9002
 30
0.0
 10
-23.5868
 20
-6.1551
 30
0.0
 10
-23.5868
 20
-6.1551
 30
0.0
 10
-23.5868
 20
-6.1551
 30
0.0
 10
-23.7773
 20
-6.1377
 30
0.0
 10
-23.9222
 20
-6.0719
 30
0.0
 10
-24.0219
 20
-5.958
 30
0.0
 10
-24.0219
 20
-5.958
 30
0.0
 10
-24.1216
 20
-5.8442
 30
0.0
 10
-24.1715
 20
-5.6909
 30
0.0
 10
-24.1715
 20
-5.499
 30
0.0
 10
-24.1715
 20
-5.499
 30
0.0
 10
-24.1715
 20
-5.3052
 30
0.0
 10
-24.1174
 20
-5.1518
 30
0.0
 10
-24.0102
 20
-5.0389
 30
0.0
 10
-24.0102
 20
-5.0389
 30
0.0
 10
-23.9024
 20
-4.9256
 30
0.0
 10
-23.7693
 20
-4.8691
 30
0.0
 10
-23.6103
 20
-4.8691
 30
0.0
 10
-23.6103
 20
-4.8691
 30
0.0
 10
-23.5294
 20
-4.8691
 30
0.0
 10
-23.4499
 20
-4.8856
 30
0.0
 10
-23.3719
 20
-4.919
 30
0.0
 10
-23.3719
 20
-4.919
 30
0.0
 10
-23.2938
 20
-4.9519
 30
0.0
 10
-23.2115
 20
-5.007
 30
0.0
 10
-23.1254
 20
-5.0836
 30
0.0
 10
-23.1254
 20
-5.0836
 30
0.0
 10
-23.0388
 20
-5.1603
 30
0.0
 10
-22.9203
 20
-5.2878
 30
0.0
 10
-22.7698
 20
-5.466
 30
0.0
 10
-22.7698
 20
-5.466
 30
0.0
 10
-22.6447
 20
-5.6147
 30
0.0
 10
-22.56
 20
-5.7102
 30
0.0
 10
-22.5153
 20
-5.7525
 30
0.0
 10
-22.5153
 20
-5.7525
 30
0.0
 10
-22.4711
 20
-5.7948
 30
0.0
 10
-22.4264
 20
-5.8296
 30
0.0
 10
-22.3813
 20
-5.8574
 30
0.0
 10
-22.3813
 20
-5.8574
 30
0.0
 10
-22.3813
 20
-5.8574
 30
0.0
 10
-22.3813
 20
-4.8663
 30
0.0
 10
-22.3813
 20
-4.8663
 30
0.0
  0
SPLINE
  5
58
330
1F
100
AcDbEntity
  8
AXIS
 62
   250
100
AcDbSpline
210
0.0
220
0.0
230
1.0
 70
    11
 71
     3
 72
    92
 73
    88
 74
     0
 42
0.0000000001
 43
0.0000000001
 40
0.0
 40
0.0
 40
0.0
 40
0.0
 40
0.0434782608695652
 40
0.0434782608695652
 40
0.0434782608695652
 40
0.0434782608695652
 40
0.0869565217391304
 40
0.0869565217391304
 40
0.0869565217391304
 40
0.0869565217391304
 40
0.1304347826086956
 40
0.1304347826086956
 40
0.1304347826086956
 40
0.1304347826086956
 40
0.1739130434782609
 40
0.1739130434782609
 40
0.1739130434782609
 40
0.1739130434782609
 40
0.2173913043478261
 40
0.2173913043478261
 40
0.2173913043478261
 40
0.2173913043478261
 40
0.2608695652173913
 40
0.2608695652173913
 40
0.2608695652173913
 40
0.2608695652173913
 40
0.3043478260869565
 40
0.3043478260869565
 40
0.3043478260869565
 40
0.3043478260869565
 40
0.3478260869565217
 40
0.3478260869565217
 40
0.3478260869565217
 40
0.3478260869565217
 40
0.391304347826087
 40
0.391304347826087
 40
0.391304347826087
 40
0.391304347826087
 40
0.4347826086956522
 40
0.4347826086956522
 40
0.4347826086956522
 40
0.4347826086956522
 40
0.4782608695652174
 40
0.4782608695652174
 40
0.4782608695652174
 40
0.4782608695652174
 40
0.5217391304347826
 40
0.5217391304347826
 40
0.5217391304347826
 40
0.5217391304347826
 40
0.5652173913043478
 40
0.5652173913043478
 40
0.5652173913043478
 40
0.5652173913043478
 40
0.6086956521739131
 40
0.6086956521739131
 40
0.6086956521739131
 40
0.6086956521739131
 40
0.6521739130434783
 40
0.6521739130434783
 40
0.6521739130434783
 40
0.6521739130434783
 40
0.6956521739130435
 40
0.6956521739130435
 40
0.6956521739130435
 40
0.6956521739130435
 40
0.7391304347826086
 40
0.7391304347826086
 40
0.7391304347826086
 40
0.7391304347826086
 40
0.782608695652174
 40
0.782608695652174
 40
0.782608695652174
 40
0.782608695652174
 40
0.8260869565217391
 40
0.8260869565217391
 40
0.8260869565217391
 40
0.8260869565217391
 40
0.8695652173913043
 40
0.8695652173913043
 40
0.8695652173913043
 40
0.8695652173913043
 40
0.9130434782608695
 40
0.9130434782608695
 40
0.9130434782608695
 40
0.9130434782608695
 40
1.0
 40
1.0
 40
1.0
 40
1.0
 10
-22.3813
 20
-3.2967
 30
0.0
 10
-22.3813
 20
-3.2967
 30
0.0
 10
-22.1428
 20
-3.2967
 30
0.0
 10
-22.1428
 20
-3.2967
 30
0.0
 10
-22.1428
 20
-3.2967
 30
0.0
 10
-22.1428
 20
-3.2967
 30
0.0
 10
-22.1428
 20
-4.6321
 30
0.0
 10
-22.1428
 20
-4.6321
 30
0.0
 10
-22.1428
 20
-4.6321
 30
0.0
 10
-22.2025
 20
-4.634
 30
0.0
 10
-22.2599
 20
-4.6246
 30
0.0
 10
-22.315
 20
-4.6034
 30
0.0
 10
-22.315
 20
-4.6034
 30
0.0
 10
-22.4062
 20
-4.5695
 30
0.0
 10
-22.4956
 20
-4.515
 30
0.0
 10
-22.584
 20
-4.4402
 30
0.0
 10
-22.584
 20
-4.4402
 30
0.0
 10
-22.672
 20
-4.3649
 30
0.0
 10
-22.774
 20
-4.2567
 30
0.0
 10
-22.8897
 20
-4.1156
 30
0.0
 10
-22.8897
 20
-4.1156
 30
0.0
 10
-23.0699
 20
-3.896
 30
0.0
 10
-23.2124
 20
-3.7473
 30
0.0
 10
-23.3178
 20
-3.6702
 30
0.0
 10
-23.3178
 20
-3.6702
 30
0.0
 10
-23.4227
 20
-3.5931
 30
0.0
 10
-23.5224
 20
-3.5545
 30
0.0
 10
-23.616
 20
-3.5545
 30
0.0
 10
-23.616
 20
-3.5545
 30
0.0
 10
-23.7143
 20
-3.5545
 30
0.0
 10
-23.7971
 20
-3.5898
 30
0.0
 10
-23.8648
 20
-3.6598
 30
0.0
 10
-23.8648
 20
-3.6598
 30
0.0
 10
-23.9321
 20
-3.7304
 30
0.0
 10
-23.9659
 20
-3.8221
 30
0.0
 10
-23.9659
 20
-3.935
 30
0.0
 10
-23.9659
 20
-3.935
 30
0.0
 10
-23.9659
 20
-4.0545
 30
0.0
 10
-23.9302
 20
-4.15
 30
0.0
 10
-23.8582
 20
-4.2215
 30
0.0
 10
-23.8582
 20
-4.2215
 30
0.0
 10
-23.7867
 20
-4.2934
 30
0.0
 10
-23.6875
 20
-4.3296
 30
0.0
 10
-23.561
 20
-4.3306
 30
0.0
 10
-23.561
 20
-4.3306
 30
0.0
 10
-23.561
 20
-4.3306
 30
0.0
 10
-23.5868
 20
-4.5855
 30
0.0
 10
-23.5868
 20
-4.5855
 30
0.0
 10
-23.5868
 20
-4.5855
 30
0.0
 10
-23.7773
 20
-4.5681
 30
0.0
 10
-23.9222
 20
-4.5023
 30
0.0
 10
-24.0219
 20
-4.3884
 30
0.0
 10
-24.0219
 20
-4.3884
 30
0.0
 10
-24.1216
 20
-4.2746
 30
0.0
 10
-24.1715
 20
-4.1213
 30
0.0
 10
-24.1715
 20
-3.9294
 30
0.0
 10
-24.1715
 20
-3.9294
 30
0.0
 10
-24.1715
 20
-3.7356
 30
0.0
 10
-24.1174
 20
-3.5822
 30
0.0
 10
-24.0102
 20
-3.4693
 30
0.0
 10
-24.0102
 20
-3.4693
 30
0.0
 10
-23.9024
 20
-3.356
 30
0.0
 10
-23.7693
 20
-3.2995
 30
0.0
 10
-23.6103
 20
-3.2995
 30
0.0
 10
-23.6103
 20
-3.2995
 30
0.0
 10
-23.5294
 20
-3.2995
 30
0.0
 10
-23.4499
 20
-3.316
 30
0.0
 10
-23.3719
 20
-3.3494
 30
0.0
 10
-23.3719
 20
-3.3494
 30
0.0
 10
-23.2938
 20
-3.3823
 30
0.0
 10
-23.2115
 20
-3.4374
 30
0.0
 10
-23.1254
 20
-3.514
 30
0.0
 10
-23.1254
 20
-3.514
 30
0.0
 10
-23.0388
 20
-3.5907
 30
0.0
 10
-22.9203
 20
-3.7182
 30
0.0
 10
-22.7698
 20
-3.8964
 30
0.0
 10
-22.7698
 20
-3.8964
 30
0.0
 10
-22.6447
 20
-4.0451
 30
0.0
 10
-22.56
 20
-4.1406
 30
0.0
 10
-22.5153
 20
-4.1829
 30
0.0
 10
-22.5153
 20
-4.1829
 30
0.0
 10
-22.4711
 20
-4.2252
 30
0.0
 10
-22.4264
 20
-4.26
 30
0.0
 10
-22.3813
 20
-4.2878
 30
0.0
 10
-22.3813
 20
-4.2878
 30
0.0
 10
-22.3813
 20
-4.2878
 30
0.0
 10
-22.3813
 20
-3.2967
 30
0.0
 10
-22.3813
 20
-3.2967
 30
0.0
  0
SPLINE
  5
59
330
1F
100
AcDbEntity
  8
AXIS
 62
   250
100
AcDbSpline
210
0.0
220
0.0
230
1.0
 70
    11
 71
     3
 72
    52
 73
    48
 74
     0
 42
0.0000000001
 43
0.0000000001
 40
0.0
 40
0.0
 40
0.0
 40
0.0
 40
0.0769230769230769
 40
0.0769230769230769
 40
0.0769230769230769
 40
0.0769230769230769
 40
0.1538461538461539
 40
0.1538461538461539
 40
0.1538461538461539
 40
0.1538461538461539
 40
0.2307692307692308
 40
0.2307692307692308
 40
0.2307692307692308
 40
0.2307692307692308
 40
0.3076923076923077
 40
0.3076923076923077
 40
0.3076923076923077
 40
0.3076923076923077
 40
0.3846153846153846
 40
0.3846153846153846
 40
0.3846153846153846
 40
0.3846153846153846
 40
0.4615384615384616
 40
0.4615384615384616
 40
0.4615384615384616
 40
0.4615384615384616
 40
0.5384615384615384
 40
0.5384615384615384
 40
0.5384615384615384
 40
0.5384615384615384
 40
0.6153846153846154
 40
0.6153846153846154
 40
0.6153846153846154
 40
0.6153846153846154
 40
0.6923076923076923
 40
0.6923076923076923
 40
0.6923076923076923
 40
0.6923076923076923
 40
0.7692307692307693
 40
0.7692307692307693
 40
0.7692307692307693
 40
0.7692307692307693
 40
0.8461538461538461
 40
0.8461538461538461
 40
0.8461538461538461
 40
0.8461538461538461
 40
1.0
 40
1.0
 40
1.0
 40
1.0
 10
-23.139
 20
-3.031
 30
0.0
 10
-23.378
 20
-3.031
 30
0.0
 10
-23.5704
 20
-3.0065
 30
0.0
 10
-23.7157
 20
-2.9571
 30
0.0
 10
-23.7157
 20
-2.9571
 30
0.0
 10
-23.8615
 20
-2.9082
 30
0.0
 10
-23.9739
 20
-2.8348
 30
0.0
 10
-24.053
 20
-2.7379
 30
0.0
 10
-24.053
 20
-2.7379
 30
0.0
 10
-24.132
 20
-2.641
 30
0.0
 10
-24.1715
 20
-2.5192
 30
0.0
 10
-24.1715
 20
-2.3725
 30
0.0
 10
-24.1715
 20
-2.3725
 30
0.0
 10
-24.1715
 20
-2.2638
 30
0.0
 10
-24.1494
 20
-2.1688
 30
0.0
 10
-24.1056
 20
-2.087
 30
0.0
 10
-24.1056
 20
-2.087
 30
0.0
 10
-24.0624
 20
-2.0051
 30
0.0
 10
-23.9993
 20
-1.9378
 30
0.0
 10
-23.917
 20
-1.8842
 30
0.0
 10
-23.917
 20
-1.8842
 30
0.0
 10
-23.8347
 20
-1.8311
 30
0.0
 10
-23.7345
 20
-1.7892
 30
0.0
 10
-23.6165
 20
-1.7591
 30
0.0
 10
-23.6165
 20
-1.7591
 30
0.0
 10
-23.4984
 20
-1.7285
 30
0.0
 10
-23.3394
 20
-1.7135
 30
0.0
 10
-23.139
 20
-1.7135
 30
0.0
 10
-23.139
 20
-1.7135
 30
0.0
 10
-22.902
 20
-1.7135
 30
0.0
 10
-22.711
 20
-1.7379
 30
0.0
 10
-22.5652
 20
-1.7864
 30
0.0
 10
-22.5652
 20
-1.7864
 30
0.0
 10
-22.4194
 20
-1.8353
 30
0.0
 10
-22.307
 20
-1.9082
 30
0.0
 10
-22.2275
 20
-2.0051
 30
0.0
 10
-22.2275
 20
-2.0051
 30
0.0
 10
-22.148
 20
-2.102
 30
0.0
 10
-22.1085
 20
-2.2243
 30
0.0
 10
-22.1085
 20
-2.3725
 30
0.0
 10
-22.1085
 20
-2.3725
 30
0.0
 10
-22.1085
 20
-2.5672
 30
0.0
 10
-22.1781
 20
-2.7201
 30
0.0
 10
-22.3178
 20
-2.8311
 30
0.0
 10
-22.3178
 20
-2.8311
 30
0.0
 10
-22.4857
 20
-2.9642
 30
0.0
 10
-22.7599
 20
-3.031
 30
0.0
 10
-23.139
 20
-3.031
 30
0.0
  0
SPLINE
  5
5A
330
1F
100
AcDbEntity
  8
AXIS
 62
   250
100
AcDbSpline
210
0.0
220
0.0
230
1.0
 70
    11
 71
     3
 72
    36
 73
    32
 74
     0
 42
0.0000000001
 43
0.0000000001
 40
0.0
 40
0.0
 40
0.0
 40
0.0
 40
0.1111111111111111
 40
0.1111111111111111
 40
0.1111111111111111
 40
0.1111111111111111
 40
0.2222222222222222
 40
0.2222222222222222
 40
0.2222222222222222
 40
0.2222222222222222
 40
0.3333333333333333
 40
0.3333333333333333
 40
0.3333333333333333
 40
0.3333333333333333
 40
0.4444444444444444
 40
0.4444444444444444
 40
0.4444444444444444
 40
0.4444444444444444
 40
0.5555555555555556
 40
0.5555555555555556
 40
0.5555555555555556
 40
0.5555555555555556
 40
0.6666666666666666
 40
0.6666666666666666
 40
0.6666666666666666
 40
0.6666666666666666
 40
0.7777777777777778
 40
0.7777777777777778
 40
0.7777777777777778
 40
0.7777777777777778
 40
1.0
 40
1.0
 40
1.0
 40
1.0
 10
-23.139
 20
-2.776
 30
0.0
 10
-22.8074
 20
-2.776
 30
0.0
 10
-22.5868
 20
-2.737
 30
0.0
 10
-22.4768
 20
-2.6594
 30
0.0
 10
-22.4768
 20
-2.6594
 30
0.0
 10
-22.3672
 20
-2.5818
 30
0.0
 10
-22.3121
 20
-2.4863
 30
0.0
 10
-22.3121
 20
-2.3725
 30
0.0
 10
-22.3121
 20
-2.3725
 30
0.0
 10
-22.3121
 20
-2.2582
 30
0.0
 10
-22.3676
 20
-2.1627
 30
0.0
 10
-22.4777
 20
-2.0851
 30
0.0
 10
-22.4777
 20
-2.0851
 30
0.0
 10
-22.5878
 20
-2.0075
 30
0.0
 10
-22.8084
 20
-1.9684
 30
0.0
 10
-23.139
 20
-1.9684
 30
0.0
 10
-23.139
 20
-1.9684
 30
0.0
 10
-23.4716
 20
-1.9684
 30
0.0
 10
-23.6927
 20
-2.0075
 30
0.0
 10
-23.8018
 20
-2.0851
 30
0.0
 10
-23.8018
 20
-2.0851
 30
0.0
 10
-23.9114
 20
-2.1627
 30
0.0
 10
-23.9659
 20
-2.2591
 30
0.0
 10
-23.9659
 20
-2.3748
 30
0.0
 10
-23.9659
 20
-2.3748
 30
0.0
 10
-23.9659
 20
-2.4891
 30
0.0
 10
-23.9175
 20
-2.5799
 30
0.0
 10
-23.8211
 20
-2.6481
 30
0.0
 10
-23.8211
 20
-2.6481
 30
0.0
 10
-23.6983
 20
-2.7332
 30
0.0
 10
-23.4706
 20
-2.776
 30
0.0
 10
-23.139
 20
-2.776
 30
0.0
  0
SPLINE
  5
5B
330
1F
100
AcDbEntity
  8
AXIS
 62
   250
100
AcDbSpline
210
0.0
220
0.0
230
1.0
 70
    11
 71
     3
 72
    20
 73
    16
 74
     0
 42
0.0000000001
 43
0.0000000001
 40
0.0
 40
0.0
 40
0.0
 40
0.0
 40
0.2
 40
0.2
 40
0.2
 40
0.2
 40
0.4
 40
0.4
 40
0.4
 40
0.4
 40
0.6
 40
0.6
 40
0.6
 40
0.6
 40
1.0
 40
1.0
 40
1.0
 40
1.0
 10
21.3019
 20
-30.0683
 30
0.0
 10
21.3019
 20
-30.0683
 30
0.0
 10
23.8019
 20
-30.4212
 30
0.0
 10
23.8019
 20
-30.4212
 30
0.0
 10
23.8019
 20
-30.4212
 30
0.0
 10
23.8019
 20
-30.4212
 30
0.0
 10
23.8019
 20
-30.4995
 30
0.0
 10
23.8019
 20
-30.4995
 30
0.0
 10
23.8019
 20
-30.4995
 30
0.0
 10
23.8019
 20
-30.4995
 30
0.0
 10
21.3019
 20
-30.8758
 30
0.0
 10
21.3019
 20
-30.8758
 30
0.0
 10
21.3019
 20
-30.8758
 30
0.0
 10
21.3019
 20
-30.8758
 30
0.0
 10
21.3019
 20
-30.0683
 30
0.0
 10
21.3019
 20
-30.0683
 30
0.0
  0
SPLINE
  5
5C
330
1F
100
AcDbEntity
  8
AXIS
 62
   250
100
AcDbSpline
210
0.0
220
0.0
230
1.0
 70
    11
 71
     3
 72
    20
 73
    16
 74
     0
 42
0.0000000001
 43
0.0000000001
 40
0.0
 40
0.0
 40
0.0
 40
0.0
 40
0.2
 40
0.2
 40
0.2
 40
0.2
 40
0.4
 40
0.4
 40
0.4
 40
0.4
 40
0.6
 40
0.6
 40
0.6
 40
0.6
 40
1.0
 40
1.0
 40
1.0
 40
1.0
 10
-22.0191
 20
13.0301
 30
0.0
 10
-22.0191
 20
13.0301
 30
0.0
 10
-21.6662
 20
15.5301
 30
0.0
 10
-21.6662
 20
15.5301
 30
0.0
 10
-21.6662
 20
15.5301
 30
0.0
 10
-21.6662
 20
15.5301
 30
0.0
 10
-21.5879
 20
15.5301
 30
0.0
 10
-21.5879
 20
15.5301
 30
0.0
 10
-21.5879
 20
15.5301
 30
0.0
 10
-21.5879
 20
15.5301
 30
0.0
 10
-21.2116
 20
13.0301
 30
0.0
 10
-21.2116
 20
13.0301
 30
0.0
 10
-21.2116
 20
13.0301
 30
0.0
 10
-21.2116
 20
13.0301
 30
0.0
 10
-22.0191
 20
13.0301
 30
0.0
 10
-22.0191
 20
13.0301
 30
0.0
  0
SPLINE
  5
5D
330
1F
100
AcDbEntity
  8
AXIS
 62
   250
100
AcDbSpline
210
0.0
220
0.0
230
1.0
 70
    11
 71
     3
 72
    20
 73
    16
 74
     0
 42
0.0000000001
 43
0.0000000001
 40
0.0
 40
0.0
 40
0.0
 40
0.0
 40
0.2
 40
0.2
 40
0.2
 40
0.2
 40
0.4
 40
0.4
 40
0.4
 40
0.4
 40
0.6
 40
0.6
 40
0.6
 40
0.6
 40
1.0
 40
1.0
 40
1.0
 40
1.0
 10
-11.7009
 20
-30.8482
 30
0.0
 10
-11.7009
 20
-30.8482
 30
0.0
 10
-14.2009
 20
-30.4953
 30
0.0
 10
-14.2009
 20
-30.4953
 30
0.0
 10
-14.2009
 20
-30.4953
 30
0.0
 10
-14.2009
 20
-30.4953
 30
0.0
 10
-14.2009
 20
-30.417
 30
0.0
 10
-14.2009
 20
-30.417
 30
0.0
 10
-14.2009
 20
-30.417
 30
0.0
 10
-14.2009
 20
-30.417
 30
0.0
 10
-11.7009
 20
-30.0407
 30
0.0
 10
-11.7009
 20
-30.0407
 30
0.0
 10
-11.7009
 20
-30.0407
 30
0.0
 10
-11.7009
 20
-30.0407
 30
0.0
 10
-11.7009
 20
-30.8482
 30
0.0
 10
-11.7009
 20
-30.8482
 30
0.0
  0
SPLINE
  5
5E
330
1F
100
AcDbEntity
  8
AXIS
 62
   250
100
AcDbSpline
210
0.0
220
0.0
230
1.0
 70
    11
 71
     3
 72
    20
 73
    16
 74
     0
 42
0.0000000001
 43
0.0000000001
 40
0.0
 40
0.0
 40
0.0
 40
0.0
 40
0.2
 40
0.2
 40
0.2
 40
0.2
 40
0.4
 40
0.4
 40
0.4
 40
0.4
 40
0.6
 40
0.6
 40
0.6
 40
0.6
 40
1.0
 40
1.0
 40
1.0
 40
1.0
 10
-21.2392
 20
-19.9727
 30
0.0
 10
-21.2392
 20
-19.9727
 30
0.0
 10
-21.5921
 20
-22.4727
 30
0.0
 10
-21.5921
 20
-22.4727
 30
0.0
 10
-21.5921
 20
-22.4727
 30
0.0
 10
-21.5921
 20
-22.4727
 30
0.0
 10
-21.6704
 20
-22.4727
 30
0.0
 10
-21.6704
 20
-22.4727
 30
0.0
 10
-21.6704
 20
-22.4727
 30
0.0
 10
-21.6704
 20
-22.4727
 30
0.0
 10
-22.0467
 20
-19.9727
 30
0.0
 10
-22.0467
 20
-19.9727
 30
0.0
 10
-22.0467
 20
-19.9727
 30
0.0
 10
-22.0467
 20
-19.9727
 30
0.0
 10
-21.2392
 20
-19.9727
 30
0.0
 10
-21.2392
 20
-19.9727
 30
0.0
  0
SPLINE
  5
5F
330
1F
100
AcDbEntity
  8
AXIS
  6
NEW_LINE2
 62
   250
100
AcDbSpline
210
0.0
220
0.0
230
1.0
 70
    24
 71
     3
 72
     8
 73
     4
 74
     0
 42
0.0000000001
 43
0.0000000001
 40
0.0
 40
0.0
 40
0.0
 40
0.0
 40
1.0
 40
1.0
 40
1.0
 40
1.0
 10
24.5244
 20
-3.3831
 30
0.0
 10
24.5244
 20
-3.3831
 30
0.0
 10
-16.0562
 20
-3.3831
 30
0.0
 10
-16.0562
 20
-3.3831
 30
0.0
  0
SPLINE
  5
61
330
1F
100
AcDbEntity
  8
AXIS
 62
   250
100
AcDbSpline
210
0.0
220
0.0
230
1.0
 70
    24
 71
     3
 72
     8
 73
     4
 74
     0
 42
0.0000000001
 43
0.0000000001
 40
0.0
 40
0.0
 40
0.0
 40
0.0
 40
1.0
 40
1.0
 40
1.0
 40
1.0
 10
23.7811
 20
-21.8896
 30
0.0
 10
23.7811
 20
-21.8896
 30
0.0
 10
23.7811
 20
15.0909
 30
0.0
 10
23.7811
 20
15.0909
 30
0.0
  0
SPLINE
  5
62
330
1F
100
AcDbEntity
  8
AXIS
 62
   250
100
AcDbSpline
210
0.0
220
0.0
230
1.0
 70
    24
 71
     3
 72
     8
 73
     4
 74
     0
 42
0.0000000001
 43
0.0000000001
 40
0.0
 40
0.0
 40
0.0
 40
0.0
 40
1.0
 40
1.0
 40
1.0
 40
1.0
 10
-13.6762
 20
15.5676
 30
0.0
 10
-13.6762
 20
15.5676
 30
0.0
 10
23.3043
 20
15.5676
 30
0.0
 10
23.3043
 20
15.5676
 30
0.0
  0
SPLINE
  5
63
330
1F
100
AcDbEntity
  8
AXIS
 62
   250
100
AcDbSpline
210
0.0
220
0.0
230
1.0
 70
    24
 71
     3
 72
     8
 73
     4
 74
     0
 42
0.0000000001
 43
0.0000000001
 40
0.0
 40
0.0
 40
0.0
 40
0.0
 40
1.0
 40
1.0
 40
1.0
 40
1.0
 10
23.7811
 20
2.819
 30
0.0
 10
23.7811
 20
2.819
 30
0.0
 10
23.7811
 20
15.0504
 30
0.0
 10
23.7811
 20
15.0504
 30
0.0
  0
SPLINE
  5
64
330
1F
100
AcDbEntity
  8
AXIS
 62
   250
100
AcDbSpline
210
0.0
220
0.0
230
1.0
 70
    24
 71
     3
 72
     8
 73
     4
 74
     0
 42
0.0000000001
 43
0.0000000001
 40
0.0
 40
0.0
 40
0.0
 40
0.0
 40
1.0
 40
1.0
 40
1.0
 40
1.0
 10
-14.1529
 20
-21.8896
 30
0.0
 10
-14.1529
 20
-21.8896
 30
0.0
 10
-14.1529
 20
15.0909
 30
0.0
 10
-14.1529
 20
15.0909
 30
0.0
  0
SPLINE
  5
65
330
1F
100
AcDbEntity
  8
AXIS
 62
   250
100
AcDbSpline
210
0.0
220
0.0
230
1.0
 70
    24
 71
     3
 72
     8
 73
     4
 74
     0
 42
0.0000000001
 43
0.0000000001
 40
0.0
 40
0.0
 40
0.0
 40
0.0
 40
1.0
 40
1.0
 40
1.0
 40
1.0
 10
-14.1529
 20
2.5999
 30
0.0
 10
-14.1529
 20
2.5999
 30
0.0
 10
-14.1529
 20
15.0504
 30
0.0
 10
-14.1529
 20
15.0504
 30
0.0
  0
SPLINE
  5
66
330
1F
100
AcDbEntity
  8
AXIS
 62
   250
100
AcDbSpline
210
0.0
220
0.0
230
1.0
 70
    24
 71
     3
 72
     8
 73
     4
 74
     0
 42
0.0000000001
 43
0.0000000001
 40
0.0
 40
0.0
 40
0.0
 40
0.0
 40
1.0
 40
1.0
 40
1.0
 40
1.0
 10
-14.1529
 20
12.6358
 30
0.0
 10
-14.1529
 20
12.6358
 30
0.0
 10
-14.1529
 20
15.0504
 30
0.0
 10
-14.1529
 20
15.0504
 30
0.0
  0
SPLINE
  5
67
330
1F
100
AcDbEntity
  8
AXIS
 62
   250
100
AcDbSpline
210
0.0
220
0.0
230
1.0
 70
    24
 71
     3
 72
     8
 73
     4
 74
     0
 42
0.0000000001
 43
0.0000000001
 40
0.0
 40
0.0
 40
0.0
 40
0.0
 40
1.0
 40
1.0
 40
1.0
 40
1.0
 10
-14.1529
 20
-21.849
 30
0.0
 10
-14.1529
 20
-21.849
 30
0.0
 10
-14.1529
 20
15.0504
 30
0.0
 10
-14.1529
 20
15.0504
 30
0.0
  0
SPLINE
  5
68
330
1F
100
AcDbEntity
  8
AXIS
 62
   250
100
AcDbSpline
210
0.0
220
0.0
230
1.0
 70
    24
 71
     3
 72
     8
 73
     4
 74
     0
 42
0.0000000001
 43
0.0000000001
 40
0.0
 40
0.0
 40
0.0
 40
0.0
 40
1.0
 40
1.0
 40
1.0
 40
1.0
 10
-14.1529
 20
-7.0041
 30
0.0
 10
-14.1529
 20
-7.0041
 30
0.0
 10
-14.1529
 20
15.0504
 30
0.0
 10
-14.1529
 20
15.0504
 30
0.0
  0
SPLINE
  5
69
330
1F
100
AcDbEntity
  8
AXIS
 62
   250
100
AcDbSpline
210
0.0
220
0.0
230
1.0
 70
    24
 71
     3
 72
     8
 73
     4
 74
     0
 42
0.0000000001
 43
0.0000000001
 40
0.0
 40
0.0
 40
0.0
 40
0.0
 40
1.0
 40
1.0
 40
1.0
 40
1.0
 10
-13.6356
 20
-22.3662
 30
0.0
 10
-13.6356
 20
-22.3662
 30
0.0
 10
23.2638
 20
-22.3662
 30
0.0
 10
23.2638
 20
-22.3662
 30
0.0
  0
SPLINE
  5
6A
330
1F
100
AcDbEntity
  8
AXIS
 62
   250
100
AcDbSpline
210
0.0
220
0.0
230
1.0
 70
    24
 71
     3
 72
     8
 73
     4
 74
     0
 42
0.0000000001
 43
0.0000000001
 40
0.0
 40
0.0
 40
0.0
 40
0.0
 40
1.0
 40
1.0
 40
1.0
 40
1.0
 10
23.7811
 20
-21.849
 30
0.0
 10
23.7811
 20
-21.849
 30
0.0
 10
23.7811
 20
0.2054
 30
0.0
 10
23.7811
 20
0.2054
 30
0.0
  0
SPLINE
  5
6B
330
1F
100
AcDbEntity
  8
AXIS
 62
   250
100
AcDbSpline
210
0.0
220
0.0
230
1.0
 70
    24
 71
     3
 72
     8
 73
     4
 74
     0
 42
0.0000000001
 43
0.0000000001
 40
0.0
 40
0.0
 40
0.0
 40
0.0
 40
1.0
 40
1.0
 40
1.0
 40
1.0
 10
23.7811
 20
-21.849
 30
0.0
 10
23.7811
 20
-21.849
 30
0.0
 10
23.7811
 20
-9.5631
 30
0.0
 10
23.7811
 20
-9.5631
 30
0.0
  0
SPLINE
  5
6C
330
1F
100
AcDbEntity
  8
AXIS
 62
   250
100
AcDbSpline
210
0.0
220
0.0
230
1.0
 70
    24
 71
     3
 72
     8
 73
     4
 74
     0
 42
0.0000000001
 43
0.0000000001
 40
0.0
 40
0.0
 40
0.0
 40
0.0
 40
1.0
 40
1.0
 40
1.0
 40
1.0
 10
-14.1529
 20
-21.849
 30
0.0
 10
-14.1529
 20
-21.849
 30
0.0
 10
-14.1529
 20
-19.4194
 30
0.0
 10
-14.1529
 20
-19.4194
 30
0.0
  0
SPLINE
  5
6D
330
1F
100
AcDbEntity
  8
AXIS
 62
   250
100
AcDbSpline
210
0.0
220
0.0
230
1.0
 70
    24
 71
     3
 72
     8
 73
     4
 74
     0
 42
0.0000000001
 43
0.0000000001
 40
0.0
 40
0.0
 40
0.0
 40
0.0
 40
1.0
 40
1.0
 40
1.0
 40
1.0
 10
-14.1529
 20
-19.7392
 30
0.0
 10
-14.1529
 20
-19.7392
 30
0.0
 10
-14.1529
 20
-20.3372
 30
0.0
 10
-14.1529
 20
-20.3372
 30
0.0
  0
SPLINE
  5
6E
330
1F
100
AcDbEntity
  8
AXIS
 62
   250
100
AcDbSpline
210
0.0
220
0.0
230
1.0
 70
    24
 71
     3
 72
     8
 73
     4
 74
     0
 42
0.0000000001
 43
0.0000000001
 40
0.0
 40
0.0
 40
0.0
 40
0.0
 40
1.0
 40
1.0
 40
1.0
 40
1.0
 10
-14.1529
 20
-21.849
 30
0.0
 10
-14.1529
 20
-21.849
 30
0.0
 10
-14.1529
 20
-9.3752
 30
0.0
 10
-14.1529
 20
-9.3752
 30
0.0
  0
SPLINE
  5
6F
330
1F
100
AcDbEntity
  8
AXIS
 62
   250
100
AcDbSpline
210
0.0
220
0.0
230
1.0
 70
    24
 71
     3
 72
     8
 73
     4
 74
     0
 42
0.0000000001
 43
0.0000000001
 40
0.0
 40
0.0
 40
0.0
 40
0.0
 40
1.0
 40
1.0
 40
1.0
 40
1.0
 10
-14.1529
 20
12.9542
 30
0.0
 10
-14.1529
 20
12.9542
 30
0.0
 10
-14.1529
 20
13.5493
 30
0.0
 10
-14.1529
 20
13.5493
 30
0.0
  0
SPLINE
  5
70
330
1F
100
AcDbEntity
  8
AXIS
 62
   250
100
AcDbSpline
210
0.0
220
0.0
230
1.0
 70
    24
 71
     3
 72
     8
 73
     4
 74
     0
 42
0.0000000001
 43
0.0000000001
 40
0.0
 40
0.0
 40
0.0
 40
0.0
 40
1.0
 40
1.0
 40
1.0
 40
1.0
 10
23.7811
 20
12.9404
 30
0.0
 10
23.7811
 20
12.9404
 30
0.0
 10
23.7811
 20
12.5865
 30
0.0
 10
23.7811
 20
12.5865
 30
0.0
  0
SPLINE
  5
71
330
1F
100
AcDbEntity
  8
AXIS
 62
   250
100
AcDbSpline
210
0.0
220
0.0
230
1.0
 70
    24
 71
     3
 72
     8
 73
     4
 74
     0
 42
0.0000000001
 43
0.0000000001
 40
0.0
 40
0.0
 40
0.0
 40
0.0
 40
1.0
 40
1.0
 40
1.0
 40
1.0
 10
23.7811
 20
12.9404
 30
0.0
 10
23.7811
 20
12.9404
 30
0.0
 10
23.7811
 20
13.5385
 30
0.0
 10
23.7811
 20
13.5385
 30
0.0
  0
SPLINE
  5
72
330
1F
100
AcDbEntity
  8
AXIS
 62
   250
100
AcDbSpline
210
0.0
220
0.0
230
1.0
 70
    24
 71
     3
 72
     8
 73
     4
 74
     0
 42
0.0000000001
 43
0.0000000001
 40
0.0
 40
0.0
 40
0.0
 40
0.0
 40
1.0
 40
1.0
 40
1.0
 40
1.0
 10
23.7811
 20
3.1653
 30
0.0
 10
23.7811
 20
3.1653
 30
0.0
 10
23.7811
 20
3.4034
 30
0.0
 10
23.7811
 20
3.4034
 30
0.0
  0
SPLINE
  5
73
330
1F
100
AcDbEntity
  8
AXIS
 62
   250
100
AcDbSpline
210
0.0
220
0.0
230
1.0
 70
    24
 71
     3
 72
     8
 73
     4
 74
     0
 42
0.0000000001
 43
0.0000000001
 40
0.0
 40
0.0
 40
0.0
 40
0.0
 40
1.0
 40
1.0
 40
1.0
 40
1.0
 10
23.7811
 20
-9.9889
 30
0.0
 10
23.7811
 20
-9.9889
 30
0.0
 10
23.7811
 20
-10.2786
 30
0.0
 10
23.7811
 20
-10.2786
 30
0.0
  0
SPLINE
  5
74
330
1F
100
AcDbEntity
  8
AXIS
 62
   250
100
AcDbSpline
210
0.0
220
0.0
230
1.0
 70
    24
 71
     3
 72
     8
 73
     4
 74
     0
 42
0.0000000001
 43
0.0000000001
 40
0.0
 40
0.0
 40
0.0
 40
0.0
 40
1.0
 40
1.0
 40
1.0
 40
1.0
 10
23.7811
 20
-7.0196
 30
0.0
 10
23.7811
 20
-7.0196
 30
0.0
 10
23.7811
 20
-7.4219
 30
0.0
 10
23.7811
 20
-7.4219
 30
0.0
  0
SPLINE
  5
75
330
1F
100
AcDbEntity
  8
AXIS
 62
   250
100
AcDbSpline
210
0.0
220
0.0
230
1.0
 70
    24
 71
     3
 72
     8
 73
     4
 74
     0
 42
0.0000000001
 43
0.0000000001
 40
0.0
 40
0.0
 40
0.0
 40
0.0
 40
1.0
 40
1.0
 40
1.0
 40
1.0
 10
-14.1529
 20
-10.3166
 30
0.0
 10
-14.1529
 20
-10.3166
 30
0.0
 10
-14.1529
 20
-9.9639
 30
0.0
 10
-14.1529
 20
-9.9639
 30
0.0
  0
SPLINE
  5
76
330
1F
100
AcDbEntity
  8
AXIS
 62
   250
100
AcDbSpline
210
0.0
220
0.0
230
1.0
 70
    24
 71
     3
 72
     8
 73
     4
 74
     0
 42
0.0000000001
 43
0.0000000001
 40
0.0
 40
0.0
 40
0.0
 40
0.0
 40
1.0
 40
1.0
 40
1.0
 40
1.0
 10
-14.1529
 20
0.8187
 30
0.0
 10
-14.1529
 20
0.8187
 30
0.0
 10
-14.1529
 20
0.2209
 30
0.0
 10
-14.1529
 20
0.2209
 30
0.0
  0
SPLINE
  5
77
330
1F
100
AcDbEntity
  8
AXIS
 62
   250
100
AcDbSpline
210
0.0
220
0.0
230
1.0
 70
    24
 71
     3
 72
     8
 73
     4
 74
     0
 42
0.0000000001
 43
0.0000000001
 40
0.0
 40
0.0
 40
0.0
 40
0.0
 40
1.0
 40
1.0
 40
1.0
 40
1.0
 10
-14.1529
 20
3.5437
 30
0.0
 10
-14.1529
 20
3.5437
 30
0.0
 10
-14.1529
 20
3.1902
 30
0.0
 10
-14.1529
 20
3.1902
 30
0.0
  0
SPLINE
  5
78
330
1F
100
AcDbEntity
  8
AXIS
 62
   250
100
AcDbSpline
210
0.0
220
0.0
230
1.0
 70
    24
 71
     3
 72
     8
 73
     4
 74
     0
 42
0.0000000001
 43
0.0000000001
 40
0.0
 40
0.0
 40
0.0
 40
0.0
 40
1.0
 40
1.0
 40
1.0
 40
1.0
 10
-14.1529
 20
-7.5997
 30
0.0
 10
-14.1529
 20
-7.5997
 30
0.0
 10
-14.1529
 20
-7.0041
 30
0.0
 10
-14.1529
 20
-7.0041
 30
0.0
  0
SPLINE
  5
79
330
1F
100
AcDbEntity
  8
AXIS
 62
   250
100
AcDbSpline
210
0.0
220
0.0
230
1.0
 70
    24
 71
     3
 72
     8
 73
     4
 74
     0
 42
0.0000000001
 43
0.0000000001
 40
0.0
 40
0.0
 40
0.0
 40
0.0
 40
1.0
 40
1.0
 40
1.0
 40
1.0
 10
-11.394
 20
12.8087
 30
0.0
 10
-11.394
 20
12.8087
 30
0.0
 10
-11.394
 20
-19.6062
 30
0.0
 10
-11.394
 20
-19.6062
 30
0.0
  0
SPLINE
  5
7A
330
1F
100
AcDbEntity
  8
AXIS
 62
   250
100
AcDbSpline
210
0.0
220
0.0
230
1.0
 70
    24
 71
     3
 72
     8
 73
     4
 74
     0
 42
0.0000000001
 43
0.0000000001
 40
0.0
 40
0.0
 40
0.0
 40
0.0
 40
1.0
 40
1.0
 40
1.0
 40
1.0
 10
21.0222
 20
-19.6075
 30
0.0
 10
21.0222
 20
-19.6075
 30
0.0
 10
-11.394
 20
-19.6075
 30
0.0
 10
-11.394
 20
-19.6075
 30
0.0
  0
SPLINE
  5
7B
330
1F
100
AcDbEntity
  8
AXIS
 62
   250
100
AcDbSpline
210
0.0
220
0.0
230
1.0
 70
    24
 71
     3
 72
     8
 73
     4
 74
     0
 42
0.0000000001
 43
0.0000000001
 40
0.0
 40
0.0
 40
0.0
 40
0.0
 40
1.0
 40
1.0
 40
1.0
 40
1.0
 10
-11.394
 20
12.8087
 30
0.0
 10
-11.394
 20
12.8087
 30
0.0
 10
-11.394
 20
12.8059
 30
0.0
 10
-11.394
 20
12.8059
 30
0.0
  0
SPLINE
  5
7C
330
1F
100
AcDbEntity
  8
AXIS
 62
   250
100
AcDbSpline
210
0.0
220
0.0
230
1.0
 70
    24
 71
     3
 72
     8
 73
     4
 74
     0
 42
0.0000000001
 43
0.0000000001
 40
0.0
 40
0.0
 40
0.0
 40
0.0
 40
1.0
 40
1.0
 40
1.0
 40
1.0
 10
-11.394
 20
12.8087
 30
0.0
 10
-11.394
 20
12.8087
 30
0.0
 10
21.0222
 20
12.8087
 30
0.0
 10
21.0222
 20
12.8087
 30
0.0
  0
SPLINE
  5
7D
330
1F
100
AcDbEntity
  8
AXIS
 62
   250
100
AcDbSpline
210
0.0
220
0.0
230
1.0
 70
    24
 71
     3
 72
     8
 73
     4
 74
     0
 42
0.0000000001
 43
0.0000000001
 40
0.0
 40
0.0
 40
0.0
 40
0.0
 40
1.0
 40
1.0
 40
1.0
 40
1.0
 10
21.0222
 20
-19.6075
 30
0.0
 10
21.0222
 20
-19.6075
 30
0.0
 10
21.0222
 20
12.8076
 30
0.0
 10
21.0222
 20
12.8076
 30
0.0
  0
SPLINE
  5
7E
330
1F
100
AcDbEntity
  8
AXIS
 62
   250
100
AcDbSpline
210
0.0
220
0.0
230
1.0
 70
    24
 71
     3
 72
     8
 73
     4
 74
     0
 42
0.0000000001
 43
0.0000000001
 40
0.0
 40
0.0
 40
0.0
 40
0.0
 40
1.0
 40
1.0
 40
1.0
 40
1.0
 10
20.8498
 20
12.6363
 30
0.0
 10
20.8498
 20
12.6363
 30
0.0
 10
-11.2217
 20
12.6363
 30
0.0
 10
-11.2217
 20
12.6363
 30
0.0
  0
SPLINE
  5
7F
330
1F
100
AcDbEntity
  8
AXIS
 62
   250
100
AcDbSpline
210
0.0
220
0.0
230
1.0
 70
    24
 71
     3
 72
     8
 73
     4
 74
     0
 42
0.0000000001
 43
0.0000000001
 40
0.0
 40
0.0
 40
0.0
 40
0.0
 40
1.0
 40
1.0
 40
1.0
 40
1.0
 10
19.1255
 20
-17.7107
 30
0.0
 10
19.1255
 20
-17.7107
 30
0.0
 10
-9.4974
 20
-17.7107
 30
0.0
 10
-9.4974
 20
-17.7107
 30
0.0
  0
SPLINE
  5
80
330
1F
100
AcDbEntity
  8
AXIS
 62
   250
100
AcDbSpline
210
0.0
220
0.0
230
1.0
 70
    24
 71
     3
 72
     8
 73
     4
 74
     0
 42
0.0000000001
 43
0.0000000001
 40
0.0
 40
0.0
 40
0.0
 40
0.0
 40
1.0
 40
1.0
 40
1.0
 40
1.0
 10
-9.4974
 20
-17.7107
 30
0.0
 10
-9.4974
 20
-17.7107
 30
0.0
 10
-9.4974
 20
10.9121
 30
0.0
 10
-9.4974
 20
10.9121
 30
0.0
  0
SPLINE
  5
81
330
1F
100
AcDbEntity
  8
AXIS
 62
   250
100
AcDbSpline
210
0.0
220
0.0
230
1.0
 70
    24
 71
     3
 72
     8
 73
     4
 74
     0
 42
0.0000000001
 43
0.0000000001
 40
0.0
 40
0.0
 40
0.0
 40
0.0
 40
1.0
 40
1.0
 40
1.0
 40
1.0
 10
-9.4974
 20
10.9121
 30
0.0
 10
-9.4974
 20
10.9121
 30
0.0
 10
19.1255
 20
10.9121
 30
0.0
 10
19.1255
 20
10.9121
 30
0.0
  0
SPLINE
  5
82
330
1F
100
AcDbEntity
  8
AXIS
 62
   250
100
AcDbSpline
210
0.0
220
0.0
230
1.0
 70
    24
 71
     3
 72
     8
 73
     4
 74
     0
 42
0.0000000001
 43
0.0000000001
 40
0.0
 40
0.0
 40
0.0
 40
0.0
 40
1.0
 40
1.0
 40
1.0
 40
1.0
 10
-9.4941
 20
10.9091
 30
0.0
 10
-9.4941
 20
10.9091
 30
0.0
 10
-9.4974
 20
10.9108
 30
0.0
 10
-9.4974
 20
10.9108
 30
0.0
  0
SPLINE
  5
83
330
1F
100
AcDbEntity
  8
AXIS
 62
   250
100
AcDbSpline
210
0.0
220
0.0
230
1.0
 70
    24
 71
     3
 72
     8
 73
     4
 74
     0
 42
0.0000000001
 43
0.0000000001
 40
0.0
 40
0.0
 40
0.0
 40
0.0
 40
1.0
 40
1.0
 40
1.0
 40
1.0
 10
19.1255
 20
10.9121
 30
0.0
 10
19.1255
 20
10.9121
 30
0.0
 10
19.1255
 20
-17.7107
 30
0.0
 10
19.1255
 20
-17.7107
 30
0.0
  0
SPLINE
  5
84
330
1F
100
AcDbEntity
  8
AXIS
 62
   250
100
AcDbSpline
210
0.0
220
0.0
230
1.0
 70
    24
 71
     3
 72
     8
 73
     4
 74
     0
 42
0.0000000001
 43
0.0000000001
 40
0.0
 40
0.0
 40
0.0
 40
0.0
 40
1.0
 40
1.0
 40
1.0
 40
1.0
 10
18.9543
 20
-17.5395
 30
0.0
 10
18.9543
 20
-17.5395
 30
0.0
 10
-9.3249
 20
-17.5384
 30
0.0
 10
-9.3249
 20
-17.5384
 30
0.0
  0
SPLINE
  5
85
330
1F
100
AcDbEntity
  8
AXIS
 62
   250
100
AcDbSpline
210
0.0
220
0.0
230
1.0
 70
    24
 71
     3
 72
     8
 73
     4
 74
     0
 42
0.0000000001
 43
0.0000000001
 40
0.0
 40
0.0
 40
0.0
 40
0.0
 40
1.0
 40
1.0
 40
1.0
 40
1.0
 10
-9.4945
 20
-17.7076
 30
0.0
 10
-9.4945
 20
-17.7076
 30
0.0
 10
-9.4961
 20
-17.7107
 30
0.0
 10
-9.4961
 20
-17.7107
 30
0.0
  0
SPLINE
  5
86
330
1F
100
AcDbEntity
  8
AXIS
 62
   250
100
AcDbSpline
210
0.0
220
0.0
230
1.0
 70
    24
 71
     3
 72
     8
 73
     4
 74
     0
 42
0.0000000001
 43
0.0000000001
 40
0.0
 40
0.0
 40
0.0
 40
0.0
 40
1.0
 40
1.0
 40
1.0
 40
1.0
 10
19.1223
 20
-17.7078
 30
0.0
 10
19.1223
 20
-17.7078
 30
0.0
 10
19.1255
 20
-17.7096
 30
0.0
 10
19.1255
 20
-17.7096
 30
0.0
  0
SPLINE
  5
87
330
1F
100
AcDbEntity
  8
AXIS
 62
   250
100
AcDbSpline
210
0.0
220
0.0
230
1.0
 70
    24
 71
     3
 72
     8
 73
     4
 74
     0
 42
0.0000000001
 43
0.0000000001
 40
0.0
 40
0.0
 40
0.0
 40
0.0
 40
1.0
 40
1.0
 40
1.0
 40
1.0
 10
19.1223
 20
10.9091
 30
0.0
 10
19.1223
 20
10.9091
 30
0.0
 10
19.1255
 20
10.9108
 30
0.0
 10
19.1255
 20
10.9108
 30
0.0
  0
SPLINE
  5
88
330
1F
100
AcDbEntity
  8
AXIS
 62
   250
100
AcDbSpline
210
0.0
220
0.0
230
1.0
 70
    24
 71
     3
 72
     8
 73
     4
 74
     0
 42
0.0000000001
 43
0.0000000001
 40
0.0
 40
0.0
 40
0.0
 40
0.0
 40
1.0
 40
1.0
 40
1.0
 40
1.0
 10
-9.4719
 20
-17.6856
 30
0.0
 10
-9.4719
 20
-17.6856
 30
0.0
 10
-9.4848
 20
-17.6982
 30
0.0
 10
-9.4848
 20
-17.6982
 30
0.0
  0
SPLINE
  5
89
330
1F
100
AcDbEntity
  8
AXIS
 62
   250
100
AcDbSpline
210
0.0
220
0.0
230
1.0
 70
    24
 71
     3
 72
     8
 73
     4
 74
     0
 42
0.0000000001
 43
0.0000000001
 40
0.0
 40
0.0
 40
0.0
 40
0.0
 40
1.0
 40
1.0
 40
1.0
 40
1.0
 10
19.1139
 20
-17.6993
 30
0.0
 10
19.1139
 20
-17.6993
 30
0.0
 10
19.1002
 20
-17.6853
 30
0.0
 10
19.1002
 20
-17.6853
 30
0.0
  0
SPLINE
  5
8A
330
1F
100
AcDbEntity
  8
AXIS
 62
   250
100
AcDbSpline
210
0.0
220
0.0
230
1.0
 70
    24
 71
     3
 72
     8
 73
     4
 74
     0
 42
0.0000000001
 43
0.0000000001
 40
0.0
 40
0.0
 40
0.0
 40
0.0
 40
1.0
 40
1.0
 40
1.0
 40
1.0
 10
17.2288
 20
-15.814
 30
0.0
 10
17.2288
 20
-15.814
 30
0.0
 10
-7.6007
 20
-15.814
 30
0.0
 10
-7.6007
 20
-15.814
 30
0.0
  0
SPLINE
  5
8B
330
1F
100
AcDbEntity
  8
AXIS
 62
   250
100
AcDbSpline
210
0.0
220
0.0
230
1.0
 70
    24
 71
     3
 72
     8
 73
     4
 74
     0
 42
0.0000000001
 43
0.0000000001
 40
0.0
 40
0.0
 40
0.0
 40
0.0
 40
1.0
 40
1.0
 40
1.0
 40
1.0
 10
-7.6007
 20
-15.814
 30
0.0
 10
-7.6007
 20
-15.814
 30
0.0
 10
-7.6007
 20
9.0154
 30
0.0
 10
-7.6007
 20
9.0154
 30
0.0
  0
SPLINE
  5
8C
330
1F
100
AcDbEntity
  8
AXIS
 62
   250
100
AcDbSpline
210
0.0
220
0.0
230
1.0
 70
    24
 71
     3
 72
     8
 73
     4
 74
     0
 42
0.0000000001
 43
0.0000000001
 40
0.0
 40
0.0
 40
0.0
 40
0.0
 40
1.0
 40
1.0
 40
1.0
 40
1.0
 10
17.2288
 20
9.0154
 30
0.0
 10
17.2288
 20
9.0154
 30
0.0
 10
-7.6007
 20
9.0154
 30
0.0
 10
-7.6007
 20
9.0154
 30
0.0
  0
SPLINE
  5
8D
330
1F
100
AcDbEntity
  8
AXIS
 62
   250
100
AcDbSpline
210
0.0
220
0.0
230
1.0
 70
    24
 71
     3
 72
     8
 73
     4
 74
     0
 42
0.0000000001
 43
0.0000000001
 40
0.0
 40
0.0
 40
0.0
 40
0.0
 40
1.0
 40
1.0
 40
1.0
 40
1.0
 10
17.2288
 20
9.0154
 30
0.0
 10
17.2288
 20
9.0154
 30
0.0
 10
17.2288
 20
-15.814
 30
0.0
 10
17.2288
 20
-15.814
 30
0.0
  0
SPLINE
  5
8E
330
1F
100
AcDbEntity
  8
AXIS
 62
   250
100
AcDbSpline
210
0.0
220
0.0
230
1.0
 70
    24
 71
     3
 72
     8
 73
     4
 74
     0
 42
0.0000000001
 43
0.0000000001
 40
0.0
 40
0.0
 40
0.0
 40
0.0
 40
1.0
 40
1.0
 40
1.0
 40
1.0
 10
17.2261
 20
9.0128
 30
0.0
 10
17.2261
 20
9.0128
 30
0.0
 10
17.2162
 20
9.0028
 30
0.0
 10
17.2162
 20
9.0028
 30
0.0
  0
SPLINE
  5
8F
330
1F
100
AcDbEntity
  8
AXIS
 62
   250
100
AcDbSpline
210
0.0
220
0.0
230
1.0
 70
    24
 71
     3
 72
     8
 73
     4
 74
     0
 42
0.0000000001
 43
0.0000000001
 40
0.0
 40
0.0
 40
0.0
 40
0.0
 40
1.0
 40
1.0
 40
1.0
 40
1.0
 10
-7.5882
 20
9.0028
 30
0.0
 10
-7.5882
 20
9.0028
 30
0.0
 10
-7.598
 20
9.0128
 30
0.0
 10
-7.598
 20
9.0128
 30
0.0
  0
SPLINE
  5
90
330
1F
100
AcDbEntity
  8
AXIS
 62
   250
100
AcDbSpline
210
0.0
220
0.0
230
1.0
 70
    24
 71
     3
 72
     8
 73
     4
 74
     0
 42
0.0000000001
 43
0.0000000001
 40
0.0
 40
0.0
 40
0.0
 40
0.0
 40
1.0
 40
1.0
 40
1.0
 40
1.0
 10
-7.5882
 20
9.0028
 30
0.0
 10
-7.5882
 20
9.0028
 30
0.0
 10
-7.598
 20
9.0128
 30
0.0
 10
-7.598
 20
9.0128
 30
0.0
  0
SPLINE
  5
91
330
1F
100
AcDbEntity
  8
AXIS
 62
   250
100
AcDbSpline
210
0.0
220
0.0
230
1.0
 70
    24
 71
     3
 72
     8
 73
     4
 74
     0
 42
0.0000000001
 43
0.0000000001
 40
0.0
 40
0.0
 40
0.0
 40
0.0
 40
1.0
 40
1.0
 40
1.0
 40
1.0
 10
-7.5882
 20
-15.8016
 30
0.0
 10
-7.5882
 20
-15.8016
 30
0.0
 10
-7.598
 20
-15.8115
 30
0.0
 10
-7.598
 20
-15.8115
 30
0.0
  0
SPLINE
  5
92
330
1F
100
AcDbEntity
  8
AXIS
 62
   250
100
AcDbSpline
210
0.0
220
0.0
230
1.0
 70
    24
 71
     3
 72
     8
 73
     4
 74
     0
 42
0.0000000001
 43
0.0000000001
 40
0.0
 40
0.0
 40
0.0
 40
0.0
 40
1.0
 40
1.0
 40
1.0
 40
1.0
 10
-7.5882
 20
-15.8016
 30
0.0
 10
-7.5882
 20
-15.8016
 30
0.0
 10
-7.598
 20
-15.8115
 30
0.0
 10
-7.598
 20
-15.8115
 30
0.0
  0
SPLINE
  5
93
330
1F
100
AcDbEntity
  8
AXIS
 62
   250
100
AcDbSpline
210
0.0
220
0.0
230
1.0
 70
    24
 71
     3
 72
     8
 73
     4
 74
     0
 42
0.0000000001
 43
0.0000000001
 40
0.0
 40
0.0
 40
0.0
 40
0.0
 40
1.0
 40
1.0
 40
1.0
 40
1.0
 10
15.3321
 20
-13.9174
 30
0.0
 10
15.3321
 20
-13.9174
 30
0.0
 10
-5.7039
 20
-13.9174
 30
0.0
 10
-5.7039
 20
-13.9174
 30
0.0
  0
SPLINE
  5
94
330
1F
100
AcDbEntity
  8
AXIS
 62
   250
100
AcDbSpline
210
0.0
220
0.0
230
1.0
 70
    24
 71
     3
 72
     8
 73
     4
 74
     0
 42
0.0000000001
 43
0.0000000001
 40
0.0
 40
0.0
 40
0.0
 40
0.0
 40
1.0
 40
1.0
 40
1.0
 40
1.0
 10
-5.7039
 20
7.1187
 30
0.0
 10
-5.7039
 20
7.1187
 30
0.0
 10
-5.7039
 20
-13.9174
 30
0.0
 10
-5.7039
 20
-13.9174
 30
0.0
  0
SPLINE
  5
95
330
1F
100
AcDbEntity
  8
AXIS
 62
   250
100
AcDbSpline
210
0.0
220
0.0
230
1.0
 70
    24
 71
     3
 72
     8
 73
     4
 74
     0
 42
0.0000000001
 43
0.0000000001
 40
0.0
 40
0.0
 40
0.0
 40
0.0
 40
1.0
 40
1.0
 40
1.0
 40
1.0
 10
-5.7039
 20
7.1187
 30
0.0
 10
-5.7039
 20
7.1187
 30
0.0
 10
15.3321
 20
7.1187
 30
0.0
 10
15.3321
 20
7.1187
 30
0.0
  0
SPLINE
  5
96
330
1F
100
AcDbEntity
  8
AXIS
 62
   250
100
AcDbSpline
210
0.0
220
0.0
230
1.0
 70
    24
 71
     3
 72
     8
 73
     4
 74
     0
 42
0.0000000001
 43
0.0000000001
 40
0.0
 40
0.0
 40
0.0
 40
0.0
 40
1.0
 40
1.0
 40
1.0
 40
1.0
 10
15.16
 20
6.9466
 30
0.0
 10
15.16
 20
6.9466
 30
0.0
 10
15.1596
 20
-13.745
 30
0.0
 10
15.1596
 20
-13.745
 30
0.0
  0
SPLINE
  5
97
330
1F
100
AcDbEntity
  8
AXIS
 62
   250
100
AcDbSpline
210
0.0
220
0.0
230
1.0
 70
    24
 71
     3
 72
     8
 73
     4
 74
     0
 42
0.0000000001
 43
0.0000000001
 40
0.0
 40
0.0
 40
0.0
 40
0.0
 40
1.0
 40
1.0
 40
1.0
 40
1.0
 10
15.3321
 20
7.1187
 30
0.0
 10
15.3321
 20
7.1187
 30
0.0
 10
15.3321
 20
-13.9174
 30
0.0
 10
15.3321
 20
-13.9174
 30
0.0
  0
SPLINE
  5
98
330
1F
100
AcDbEntity
  8
AXIS
 62
   250
100
AcDbSpline
210
0.0
220
0.0
230
1.0
 70
    24
 71
     3
 72
     8
 73
     4
 74
     0
 42
0.0000000001
 43
0.0000000001
 40
0.0
 40
0.0
 40
0.0
 40
0.0
 40
1.0
 40
1.0
 40
1.0
 40
1.0
 10
-5.6809
 20
7.0955
 30
0.0
 10
-5.6809
 20
7.0955
 30
0.0
 10
-5.7013
 20
7.1161
 30
0.0
 10
-5.7013
 20
7.1161
 30
0.0
  0
SPLINE
  5
99
330
1F
100
AcDbEntity
  8
AXIS
 62
   250
100
AcDbSpline
210
0.0
220
0.0
230
1.0
 70
    24
 71
     3
 72
     8
 73
     4
 74
     0
 42
0.0000000001
 43
0.0000000001
 40
0.0
 40
0.0
 40
0.0
 40
0.0
 40
1.0
 40
1.0
 40
1.0
 40
1.0
 10
15.246
 20
7.0324
 30
0.0
 10
15.246
 20
7.0324
 30
0.0
 10
15.2038
 20
6.9904
 30
0.0
 10
15.2038
 20
6.9904
 30
0.0
  0
SPLINE
  5
9A
330
1F
100
AcDbEntity
  8
AXIS
 62
   250
100
AcDbSpline
210
0.0
220
0.0
230
1.0
 70
    24
 71
     3
 72
     8
 73
     4
 74
     0
 42
0.0000000001
 43
0.0000000001
 40
0.0
 40
0.0
 40
0.0
 40
0.0
 40
1.0
 40
1.0
 40
1.0
 40
1.0
 10
-5.7013
 20
7.1161
 30
0.0
 10
-5.7013
 20
7.1161
 30
0.0
 10
-5.7028
 20
7.1187
 30
0.0
 10
-5.7028
 20
7.1187
 30
0.0
  0
SPLINE
  5
9B
330
1F
100
AcDbEntity
  8
AXIS
 62
   250
100
AcDbSpline
210
0.0
220
0.0
230
1.0
 70
    24
 71
     3
 72
     8
 73
     4
 74
     0
 42
0.0000000001
 43
0.0000000001
 40
0.0
 40
0.0
 40
0.0
 40
0.0
 40
1.0
 40
1.0
 40
1.0
 40
1.0
 10
-5.5757
 20
6.9904
 30
0.0
 10
-5.5757
 20
6.9904
 30
0.0
 10
-5.6178
 20
7.0326
 30
0.0
 10
-5.6178
 20
7.0326
 30
0.0
  0
SPLINE
  5
9C
330
1F
100
AcDbEntity
  8
AXIS
 62
   250
100
AcDbSpline
210
0.0
220
0.0
230
1.0
 70
    24
 71
     3
 72
     8
 73
     4
 74
     0
 42
0.0000000001
 43
0.0000000001
 40
0.0
 40
0.0
 40
0.0
 40
0.0
 40
1.0
 40
1.0
 40
1.0
 40
1.0
 10
22.9189
 20
14.7055
 30
0.0
 10
22.9189
 20
14.7055
 30
0.0
 10
-13.2908
 20
14.7055
 30
0.0
 10
-13.2908
 20
14.7055
 30
0.0
  0
SPLINE
  5
9D
330
1F
100
AcDbEntity
  8
AXIS
 62
   250
100
AcDbSpline
210
0.0
220
0.0
230
1.0
 70
    24
 71
     3
 72
     8
 73
     4
 74
     0
 42
0.0000000001
 43
0.0000000001
 40
0.0
 40
0.0
 40
0.0
 40
0.0
 40
1.0
 40
1.0
 40
1.0
 40
1.0
 10
22.9189
 20
-21.5042
 30
0.0
 10
22.9189
 20
-21.5042
 30
0.0
 10
-13.2908
 20
-21.5042
 30
0.0
 10
-13.2908
 20
-21.5042
 30
0.0
  0
SPLINE
  5
9E
330
1F
100
AcDbEntity
  8
AXIS
 62
   250
100
AcDbSpline
210
0.0
220
0.0
230
1.0
 70
    24
 71
     3
 72
     8
 73
     4
 74
     0
 42
0.0000000001
 43
0.0000000001
 40
0.0
 40
0.0
 40
0.0
 40
0.0
 40
1.0
 40
1.0
 40
1.0
 40
1.0
 10
22.9189
 20
14.7055
 30
0.0
 10
22.9189
 20
14.7055
 30
0.0
 10
22.9189
 20
-21.5042
 30
0.0
 10
22.9189
 20
-21.5042
 30
0.0
  0
SPLINE
  5
9F
330
1F
100
AcDbEntity
  8
AXIS
 62
   250
100
AcDbSpline
210
0.0
220
0.0
230
1.0
 70
    24
 71
     3
 72
     8
 73
     4
 74
     0
 42
0.0000000001
 43
0.0000000001
 40
0.0
 40
0.0
 40
0.0
 40
0.0
 40
1.0
 40
1.0
 40
1.0
 40
1.0
 10
23.4236
 20
-22.341
 30
0.0
 10
23.4236
 20
-22.341
 30
0.0
 10
23.3845
 20
-22.3521
 30
0.0
 10
23.3845
 20
-22.3521
 30
0.0
  0
SPLINE
  5
A0
330
1F
100
AcDbEntity
  8
AXIS
 62
   250
100
AcDbSpline
210
0.0
220
0.0
230
1.0
 70
     8
 71
     3
 72
     8
 73
     4
 74
     0
 42
0.0000000001
 43
0.0000000001
 40
0.0
 40
0.0
 40
0.0
 40
0.0
 40
1.0
 40
1.0
 40
1.0
 40
1.0
 10
20.7577
 20
-22.3662
 30
0.0
 10
21.6065
 20
-22.3662
 30
0.0
 10
22.4554
 20
-22.3676
 30
0.0
 10
23.3043
 20
-22.3662
 30
0.0
  0
SPLINE
  5
A1
330
1F
100
AcDbEntity
  8
AXIS
 62
   250
100
AcDbSpline
210
0.0
220
0.0
230
1.0
 70
    24
 71
     3
 72
     8
 73
     4
 74
     0
 42
0.0000000001
 43
0.0000000001
 40
0.0
 40
0.0
 40
0.0
 40
0.0
 40
1.0
 40
1.0
 40
1.0
 40
1.0
 10
23.4236
 20
15.5423
 30
0.0
 10
23.4236
 20
15.5423
 30
0.0
 10
23.3845
 20
15.5533
 30
0.0
 10
23.3845
 20
15.5533
 30
0.0
  0
SPLINE
  5
A2
330
1F
100
AcDbEntity
  8
AXIS
 62
   250
100
AcDbSpline
210
0.0
220
0.0
230
1.0
 70
    24
 71
     3
 72
     8
 73
     4
 74
     0
 42
0.0000000001
 43
0.0000000001
 40
0.0
 40
0.0
 40
0.0
 40
0.0
 40
1.0
 40
1.0
 40
1.0
 40
1.0
 10
23.534
 20
15.4914
 30
0.0
 10
23.534
 20
15.4914
 30
0.0
 10
23.4986
 20
15.5113
 30
0.0
 10
23.4986
 20
15.5113
 30
0.0
  0
SPLINE
  5
A3
330
1F
100
AcDbEntity
  8
AXIS
 62
   250
100
AcDbSpline
210
0.0
220
0.0
230
1.0
 70
    24
 71
     3
 72
     8
 73
     4
 74
     0
 42
0.0000000001
 43
0.0000000001
 40
0.0
 40
0.0
 40
0.0
 40
0.0
 40
1.0
 40
1.0
 40
1.0
 40
1.0
 10
23.7246
 20
15.2851
 30
0.0
 10
23.7246
 20
15.2851
 30
0.0
 10
23.7047
 20
15.3205
 30
0.0
 10
23.7047
 20
15.3205
 30
0.0
  0
SPLINE
  5
A4
330
1F
100
AcDbEntity
  8
AXIS
 62
   250
100
AcDbSpline
210
0.0
220
0.0
230
1.0
 70
    24
 71
     3
 72
     8
 73
     4
 74
     0
 42
0.0000000001
 43
0.0000000001
 40
0.0
 40
0.0
 40
0.0
 40
0.0
 40
1.0
 40
1.0
 40
1.0
 40
1.0
 10
23.7557
 20
15.2102
 30
0.0
 10
23.7557
 20
15.2102
 30
0.0
 10
23.7667
 20
15.1711
 30
0.0
 10
23.7667
 20
15.1711
 30
0.0
  0
SPLINE
  5
A5
330
1F
100
AcDbEntity
  8
AXIS
 62
   250
100
AcDbSpline
210
0.0
220
0.0
230
1.0
 70
    24
 71
     3
 72
     8
 73
     4
 74
     0
 42
0.0000000001
 43
0.0000000001
 40
0.0
 40
0.0
 40
0.0
 40
0.0
 40
1.0
 40
1.0
 40
1.0
 40
1.0
 10
-14.1276
 20
15.2102
 30
0.0
 10
-14.1276
 20
15.2102
 30
0.0
 10
-14.1386
 20
15.1711
 30
0.0
 10
-14.1386
 20
15.1711
 30
0.0
  0
SPLINE
  5
A6
330
1F
100
AcDbEntity
  8
AXIS
 62
   250
100
AcDbSpline
210
0.0
220
0.0
230
1.0
 70
    24
 71
     3
 72
     8
 73
     4
 74
     0
 42
0.0000000001
 43
0.0000000001
 40
0.0
 40
0.0
 40
0.0
 40
0.0
 40
1.0
 40
1.0
 40
1.0
 40
1.0
 10
-14.0767
 20
15.3205
 30
0.0
 10
-14.0767
 20
15.3205
 30
0.0
 10
-14.0965
 20
15.2851
 30
0.0
 10
-14.0965
 20
15.2851
 30
0.0
  0
SPLINE
  5
A7
330
1F
100
AcDbEntity
  8
AXIS
 62
   250
100
AcDbSpline
210
0.0
220
0.0
230
1.0
 70
    24
 71
     3
 72
     8
 73
     4
 74
     0
 42
0.0000000001
 43
0.0000000001
 40
0.0
 40
0.0
 40
0.0
 40
0.0
 40
1.0
 40
1.0
 40
1.0
 40
1.0
 10
-13.8705
 20
15.5113
 30
0.0
 10
-13.8705
 20
15.5113
 30
0.0
 10
-13.906
 20
15.4914
 30
0.0
 10
-13.906
 20
15.4914
 30
0.0
  0
SPLINE
  5
A8
330
1F
100
AcDbEntity
  8
AXIS
 62
   250
100
AcDbSpline
210
0.0
220
0.0
230
1.0
 70
    24
 71
     3
 72
     8
 73
     4
 74
     0
 42
0.0000000001
 43
0.0000000001
 40
0.0
 40
0.0
 40
0.0
 40
0.0
 40
1.0
 40
1.0
 40
1.0
 40
1.0
 10
-13.7564
 20
15.5533
 30
0.0
 10
-13.7564
 20
15.5533
 30
0.0
 10
-13.7954
 20
15.5423
 30
0.0
 10
-13.7954
 20
15.5423
 30
0.0
  0
SPLINE
  5
A9
330
1F
100
AcDbEntity
  8
AXIS
 62
   250
100
AcDbSpline
210
0.0
220
0.0
230
1.0
 70
    24
 71
     3
 72
     8
 73
     4
 74
     0
 42
0.0000000001
 43
0.0000000001
 40
0.0
 40
0.0
 40
0.0
 40
0.0
 40
1.0
 40
1.0
 40
1.0
 40
1.0
 10
-13.7954
 20
-22.341
 30
0.0
 10
-13.7954
 20
-22.341
 30
0.0
 10
-13.7564
 20
-22.3521
 30
0.0
 10
-13.7564
 20
-22.3521
 30
0.0
  0
SPLINE
  5
AA
330
1F
100
AcDbEntity
  8
AXIS
 62
   250
100
AcDbSpline
210
0.0
220
0.0
230
1.0
 70
     8
 71
     3
 72
     8
 73
     4
 74
     0
 42
0.0000000001
 43
0.0000000001
 40
0.0
 40
0.0
 40
0.0
 40
0.0
 40
1.0
 40
1.0
 40
1.0
 40
1.0
 10
-13.6762
 20
-22.3662
 30
0.0
 10
-12.8145
 20
-22.3676
 30
0.0
 10
-11.9529
 20
-22.3662
 30
0.0
 10
-11.0912
 20
-22.3662
 30
0.0
  0
SPLINE
  5
AB
330
1F
100
AcDbEntity
  8
AXIS
 62
   250
100
AcDbSpline
210
0.0
220
0.0
230
1.0
 70
    24
 71
     3
 72
     8
 73
     4
 74
     0
 42
0.0000000001
 43
0.0000000001
 40
0.0
 40
0.0
 40
0.0
 40
0.0
 40
1.0
 40
1.0
 40
1.0
 40
1.0
 10
23.534
 20
-22.2901
 30
0.0
 10
23.534
 20
-22.2901
 30
0.0
 10
23.4986
 20
-22.3099
 30
0.0
 10
23.4986
 20
-22.3099
 30
0.0
  0
SPLINE
  5
AC
330
1F
100
AcDbEntity
  8
AXIS
 62
   250
100
AcDbSpline
210
0.0
220
0.0
230
1.0
 70
    24
 71
     3
 72
     8
 73
     4
 74
     0
 42
0.0000000001
 43
0.0000000001
 40
0.0
 40
0.0
 40
0.0
 40
0.0
 40
1.0
 40
1.0
 40
1.0
 40
1.0
 10
23.7246
 20
-22.0838
 30
0.0
 10
23.7246
 20
-22.0838
 30
0.0
 10
23.7047
 20
-22.1193
 30
0.0
 10
23.7047
 20
-22.1193
 30
0.0
  0
SPLINE
  5
AD
330
1F
100
AcDbEntity
  8
AXIS
 62
   250
100
AcDbSpline
210
0.0
220
0.0
230
1.0
 70
    24
 71
     3
 72
     8
 73
     4
 74
     0
 42
0.0000000001
 43
0.0000000001
 40
0.0
 40
0.0
 40
0.0
 40
0.0
 40
1.0
 40
1.0
 40
1.0
 40
1.0
 10
23.7667
 20
-21.9697
 30
0.0
 10
23.7667
 20
-21.9697
 30
0.0
 10
23.7557
 20
-22.0089
 30
0.0
 10
23.7557
 20
-22.0089
 30
0.0
  0
SPLINE
  5
AE
330
1F
100
AcDbEntity
  8
AXIS
 62
   250
100
AcDbSpline
210
0.0
220
0.0
230
1.0
 70
    24
 71
     3
 72
     8
 73
     4
 74
     0
 42
0.0000000001
 43
0.0000000001
 40
0.0
 40
0.0
 40
0.0
 40
0.0
 40
1.0
 40
1.0
 40
1.0
 40
1.0
 10
-13.906
 20
-22.2901
 30
0.0
 10
-13.906
 20
-22.2901
 30
0.0
 10
-13.8705
 20
-22.3099
 30
0.0
 10
-13.8705
 20
-22.3099
 30
0.0
  0
SPLINE
  5
AF
330
1F
100
AcDbEntity
  8
AXIS
 62
   250
100
AcDbSpline
210
0.0
220
0.0
230
1.0
 70
    24
 71
     3
 72
     8
 73
     4
 74
     0
 42
0.0000000001
 43
0.0000000001
 40
0.0
 40
0.0
 40
0.0
 40
0.0
 40
1.0
 40
1.0
 40
1.0
 40
1.0
 10
-14.0965
 20
-22.0838
 30
0.0
 10
-14.0965
 20
-22.0838
 30
0.0
 10
-14.0767
 20
-22.1193
 30
0.0
 10
-14.0767
 20
-22.1193
 30
0.0
  0
SPLINE
  5
B0
330
1F
100
AcDbEntity
  8
AXIS
 62
   250
100
AcDbSpline
210
0.0
220
0.0
230
1.0
 70
    24
 71
     3
 72
     8
 73
     4
 74
     0
 42
0.0000000001
 43
0.0000000001
 40
0.0
 40
0.0
 40
0.0
 40
0.0
 40
1.0
 40
1.0
 40
1.0
 40
1.0
 10
-14.1386
 20
-21.9697
 30
0.0
 10
-14.1386
 20
-21.9697
 30
0.0
 10
-14.1276
 20
-22.0089
 30
0.0
 10
-14.1276
 20
-22.0089
 30
0.0
  0
SPLINE
  5
B1
330
1F
100
AcDbEntity
  8
AXIS
 62
   250
100
AcDbSpline
210
0.0
220
0.0
230
1.0
 70
     8
 71
     3
 72
     8
 73
     4
 74
     0
 42
0.0000000001
 43
0.0000000001
 40
0.0
 40
0.0
 40
0.0
 40
0.0
 40
1.0
 40
1.0
 40
1.0
 40
1.0
 10
-11.2652
 20
-19.4782
 30
0.0
 10
-11.149
 20
-19.3678
 30
0.0
 10
-11.2219
 20
-19.3989
 30
0.0
 10
-11.2219
 20
-19.0905
 30
0.0
  0
SPLINE
  5
B2
330
1F
100
AcDbEntity
  8
AXIS
 62
   250
100
AcDbSpline
210
0.0
220
0.0
230
1.0
 70
     8
 71
     3
 72
    12
 73
     8
 74
     0
 42
0.0000000001
 43
0.0000000001
 40
0.0
 40
0.0
 40
0.0
 40
0.0
 40
0.3333333333333333
 40
0.3333333333333333
 40
0.3333333333333333
 40
0.3333333333333333
 40
1.0
 40
1.0
 40
1.0
 40
1.0
 10
-11.2219
 20
-19.0905
 30
0.0
 10
-11.2219
 20
-19.0905
 30
0.0
 10
-11.2217
 20
12.2915
 30
0.0
 10
-11.2217
 20
12.2915
 30
0.0
 10
-11.2217
 20
12.2915
 30
0.0
 10
-11.2217
 20
12.2915
 30
0.0
 10
-11.2217
 20
12.6363
 30
0.0
 10
-11.2217
 20
12.6363
 30
0.0
  0
SPLINE
  5
B3
330
1F
100
AcDbEntity
  8
AXIS
 62
   250
100
AcDbSpline
210
0.0
220
0.0
230
1.0
 70
     8
 71
     3
 72
     8
 73
     4
 74
     0
 42
0.0000000001
 43
0.0000000001
 40
0.0
 40
0.0
 40
0.0
 40
0.0
 40
1.0
 40
1.0
 40
1.0
 40
1.0
 10
-11.2217
 20
12.6363
 30
0.0
 10
-11.2371
 20
12.6494
 30
0.0
 10
-11.2507
 20
12.6654
 30
0.0
 10
-11.2653
 20
12.6795
 30
0.0
  0
SPLINE
  5
B4
330
1F
100
AcDbEntity
  8
AXIS
 62
   250
100
AcDbSpline
210
0.0
220
0.0
230
1.0
 70
    24
 71
     3
 72
     8
 73
     4
 74
     0
 42
0.0000000001
 43
0.0000000001
 40
0.0
 40
0.0
 40
0.0
 40
0.0
 40
1.0
 40
1.0
 40
1.0
 40
1.0
 10
-11.3684
 20
12.7835
 30
0.0
 10
-11.3684
 20
12.7835
 30
0.0
 10
-11.3302
 20
12.7445
 30
0.0
 10
-11.3302
 20
12.7445
 30
0.0
  0
SPLINE
  5
B5
330
1F
100
AcDbEntity
  8
AXIS
 62
   250
100
AcDbSpline
210
0.0
220
0.0
230
1.0
 70
     8
 71
     3
 72
     8
 73
     4
 74
     0
 42
0.0000000001
 43
0.0000000001
 40
0.0
 40
0.0
 40
0.0
 40
0.0
 40
1.0
 40
1.0
 40
1.0
 40
1.0
 10
20.8933
 20
12.6795
 30
0.0
 10
20.8785
 20
12.6654
 30
0.0
 10
20.8642
 20
12.6508
 30
0.0
 10
20.8498
 20
12.6363
 30
0.0
  0
SPLINE
  5
B6
330
1F
100
AcDbEntity
  8
AXIS
 62
   250
100
AcDbSpline
210
0.0
220
0.0
230
1.0
 70
    24
 71
     3
 72
    16
 73
    12
 74
     0
 42
0.0000000001
 43
0.0000000001
 40
0.0
 40
0.0
 40
0.0
 40
0.0
 40
0.25
 40
0.25
 40
0.25
 40
0.25
 40
0.5
 40
0.5
 40
0.5
 40
0.5
 40
1.0
 40
1.0
 40
1.0
 40
1.0
 10
20.8498
 20
12.6363
 30
0.0
 10
20.8498
 20
12.6363
 30
0.0
 10
20.8498
 20
12.2915
 30
0.0
 10
20.8498
 20
12.2915
 30
0.0
 10
20.8498
 20
12.2915
 30
0.0
 10
20.8498
 20
12.2915
 30
0.0
 10
20.8498
 20
-19.0902
 30
0.0
 10
20.8498
 20
-19.0902
 30
0.0
 10
20.8498
 20
-19.0902
 30
0.0
 10
20.8498
 20
-19.0902
 30
0.0
 10
20.8498
 20
-19.435
 30
0.0
 10
20.8498
 20
-19.435
 30
0.0
  0
SPLINE
  5
B7
330
1F
100
AcDbEntity
  8
AXIS
 62
   250
100
AcDbSpline
210
0.0
220
0.0
230
1.0
 70
    24
 71
     3
 72
    12
 73
     8
 74
     0
 42
0.0000000001
 43
0.0000000001
 40
0.0
 40
0.0
 40
0.0
 40
0.0
 40
0.3333333333333333
 40
0.3333333333333333
 40
0.3333333333333333
 40
0.3333333333333333
 40
1.0
 40
1.0
 40
1.0
 40
1.0
 10
-11.2217
 20
-19.435
 30
0.0
 10
-11.2217
 20
-19.435
 30
0.0
 10
-10.8768
 20
-19.435
 30
0.0
 10
-10.8768
 20
-19.435
 30
0.0
 10
-10.8768
 20
-19.435
 30
0.0
 10
-10.8768
 20
-19.435
 30
0.0
 10
20.5049
 20
-19.435
 30
0.0
 10
20.5049
 20
-19.435
 30
0.0
  0
SPLINE
  5
B8
330
1F
100
AcDbEntity
  8
AXIS
 62
   250
100
AcDbSpline
210
0.0
220
0.0
230
1.0
 70
     8
 71
     3
 72
     8
 73
     4
 74
     0
 42
0.0000000001
 43
0.0000000001
 40
0.0
 40
0.0
 40
0.0
 40
0.0
 40
1.0
 40
1.0
 40
1.0
 40
1.0
 10
20.5049
 20
-19.435
 30
0.0
 10
20.8732
 20
-19.435
 30
0.0
 10
20.7724
 20
-19.3619
 30
0.0
 10
20.8934
 20
-19.4782
 30
0.0
  0
SPLINE
  5
B9
330
1F
100
AcDbEntity
  8
AXIS
 62
   250
100
AcDbSpline
210
0.0
220
0.0
230
1.0
 70
    24
 71
     3
 72
     8
 73
     4
 74
     0
 42
0.0000000001
 43
0.0000000001
 40
0.0
 40
0.0
 40
0.0
 40
0.0
 40
1.0
 40
1.0
 40
1.0
 40
1.0
 10
20.9583
 20
-19.5432
 30
0.0
 10
20.9583
 20
-19.5432
 30
0.0
 10
20.9964
 20
-19.5822
 30
0.0
 10
20.9964
 20
-19.5822
 30
0.0
  0
SPLINE
  5
BA
330
1F
100
AcDbEntity
  8
AXIS
 62
   250
100
AcDbSpline
210
0.0
220
0.0
230
1.0
 70
    24
 71
     3
 72
     8
 73
     4
 74
     0
 42
0.0000000001
 43
0.0000000001
 40
0.0
 40
0.0
 40
0.0
 40
0.0
 40
1.0
 40
1.0
 40
1.0
 40
1.0
 10
-11.3688
 20
-19.5817
 30
0.0
 10
-11.3688
 20
-19.5817
 30
0.0
 10
-11.3302
 20
-19.5435
 30
0.0
 10
-11.3302
 20
-19.5435
 30
0.0
  0
SPLINE
  5
BB
330
1F
100
AcDbEntity
  8
AXIS
 62
   250
100
AcDbSpline
210
0.0
220
0.0
230
1.0
 70
    24
 71
     3
 72
     8
 73
     4
 74
     0
 42
0.0000000001
 43
0.0000000001
 40
0.0
 40
0.0
 40
0.0
 40
0.0
 40
1.0
 40
1.0
 40
1.0
 40
1.0
 10
20.9579
 20
12.7448
 30
0.0
 10
20.9579
 20
12.7448
 30
0.0
 10
20.9969
 20
12.7831
 30
0.0
 10
20.9969
 20
12.7831
 30
0.0
  0
SPLINE
  5
BC
330
1F
100
AcDbEntity
  8
AXIS
 62
   250
100
AcDbSpline
210
0.0
220
0.0
230
1.0
 70
     8
 71
     3
 72
     8
 73
     4
 74
     0
 42
0.0000000001
 43
0.0000000001
 40
0.0
 40
0.0
 40
0.0
 40
0.0
 40
1.0
 40
1.0
 40
1.0
 40
1.0
 10
-11.2652
 20
-19.4782
 30
0.0
 10
-11.3037
 20
-19.5177
 30
0.0
 10
-11.3452
 20
-19.5549
 30
0.0
 10
-11.382
 20
-19.5959
 30
0.0
  0
SPLINE
  5
BD
330
1F
100
AcDbEntity
  8
AXIS
 62
   250
100
AcDbSpline
210
0.0
220
0.0
230
1.0
 70
     8
 71
     3
 72
     8
 73
     4
 74
     0
 42
0.0000000001
 43
0.0000000001
 40
0.0
 40
0.0
 40
0.0
 40
0.0
 40
1.0
 40
1.0
 40
1.0
 40
1.0
 10
21.0103
 20
-19.5959
 30
0.0
 10
20.972
 20
-19.5561
 30
0.0
 10
20.9314
 20
-19.5182
 30
0.0
 10
20.8934
 20
-19.4782
 30
0.0
  0
SPLINE
  5
BE
330
1F
100
AcDbEntity
  8
AXIS
 62
   250
100
AcDbSpline
210
0.0
220
0.0
230
1.0
 70
     8
 71
     3
 72
     8
 73
     4
 74
     0
 42
0.0000000001
 43
0.0000000001
 40
0.0
 40
0.0
 40
0.0
 40
0.0
 40
1.0
 40
1.0
 40
1.0
 40
1.0
 10
-11.2653
 20
12.6795
 30
0.0
 10
-11.3034
 20
12.7196
 30
0.0
 10
-11.3439
 20
12.7573
 30
0.0
 10
-11.3822
 20
12.7973
 30
0.0
  0
SPLINE
  5
BF
330
1F
100
AcDbEntity
  8
AXIS
 62
   250
100
AcDbSpline
210
0.0
220
0.0
230
1.0
 70
     8
 71
     3
 72
     8
 73
     4
 74
     0
 42
0.0000000001
 43
0.0000000001
 40
0.0
 40
0.0
 40
0.0
 40
0.0
 40
1.0
 40
1.0
 40
1.0
 40
1.0
 10
21.0102
 20
12.7973
 30
0.0
 10
20.9732
 20
12.7563
 30
0.0
 10
20.9318
 20
12.719
 30
0.0
 10
20.8933
 20
12.6795
 30
0.0
  0
SPLINE
  5
C0
330
1F
100
AcDbEntity
  8
AXIS
 62
   250
100
AcDbSpline
210
0.0
220
0.0
230
1.0
 70
    24
 71
     3
 72
    12
 73
     8
 74
     0
 42
0.0000000001
 43
0.0000000001
 40
0.0
 40
0.0
 40
0.0
 40
0.0
 40
0.3333333333333333
 40
0.3333333333333333
 40
0.3333333333333333
 40
0.3333333333333333
 40
1.0
 40
1.0
 40
1.0
 40
1.0
 10
-9.3249
 20
10.7397
 30
0.0
 10
-9.3249
 20
10.7397
 30
0.0
 10
-9.3249
 20
10.3947
 30
0.0
 10
-9.3249
 20
10.3947
 30
0.0
 10
-9.3249
 20
10.3947
 30
0.0
 10
-9.3249
 20
10.3947
 30
0.0
 10
-9.3249
 20
-17.1935
 30
0.0
 10
-9.3249
 20
-17.1935
 30
0.0
  0
SPLINE
  5
C1
330
1F
100
AcDbEntity
  8
AXIS
 62
   250
100
AcDbSpline
210
0.0
220
0.0
230
1.0
 70
     8
 71
     3
 72
     8
 73
     4
 74
     0
 42
0.0000000001
 43
0.0000000001
 40
0.0
 40
0.0
 40
0.0
 40
0.0
 40
1.0
 40
1.0
 40
1.0
 40
1.0
 10
-9.3249
 20
-17.1935
 30
0.0
 10
-9.3249
 20
-17.5235
 30
0.0
 10
-9.2502
 20
-17.4654
 30
0.0
 10
-9.3646
 20
-17.5781
 30
0.0
  0
SPLINE
  5
C2
330
1F
100
AcDbEntity
  8
AXIS
 62
   250
100
AcDbSpline
210
0.0
220
0.0
230
1.0
 70
     8
 71
     3
 72
     8
 73
     4
 74
     0
 42
0.0000000001
 43
0.0000000001
 40
0.0
 40
0.0
 40
0.0
 40
0.0
 40
1.0
 40
1.0
 40
1.0
 40
1.0
 10
19.0394
 20
10.8259
 30
0.0
 10
19.0596
 20
10.846
 30
0.0
 10
19.0801
 20
10.8662
 30
0.0
 10
19.1002
 20
10.8867
 30
0.0
  0
SPLINE
  5
C3
330
1F
100
AcDbEntity
  8
AXIS
 62
   250
100
AcDbSpline
210
0.0
220
0.0
230
1.0
 70
     8
 71
     3
 72
    16
 73
    12
 74
     0
 42
0.0000000001
 43
0.0000000001
 40
0.0
 40
0.0
 40
0.0
 40
0.0
 40
0.25
 40
0.25
 40
0.25
 40
0.25
 40
0.5
 40
0.5
 40
0.5
 40
0.5
 40
1.0
 40
1.0
 40
1.0
 40
1.0
 10
18.9927
 20
-17.5781
 30
0.0
 10
18.9927
 20
-17.5781
 30
0.0
 10
18.953
 20
-17.5384
 30
0.0
 10
18.953
 20
-17.5384
 30
0.0
 10
18.953
 20
-17.5384
 30
0.0
 10
18.953
 20
-17.5384
 30
0.0
 10
18.953
 20
-17.1935
 30
0.0
 10
18.953
 20
-17.1935
 30
0.0
 10
18.953
 20
-17.1935
 30
0.0
 10
18.953
 20
-17.1935
 30
0.0
 10
18.9542
 20
10.396
 30
0.0
 10
18.9542
 20
10.396
 30
0.0
  0
SPLINE
  5
C4
330
1F
100
AcDbEntity
  8
AXIS
 62
   250
100
AcDbSpline
210
0.0
220
0.0
230
1.0
 70
     8
 71
     3
 72
     8
 73
     4
 74
     0
 42
0.0000000001
 43
0.0000000001
 40
0.0
 40
0.0
 40
0.0
 40
0.0
 40
1.0
 40
1.0
 40
1.0
 40
1.0
 10
18.9542
 20
10.396
 30
0.0
 10
18.9543
 20
10.6962
 30
0.0
 10
18.8813
 20
10.6734
 30
0.0
 10
18.9965
 20
10.7828
 30
0.0
  0
SPLINE
  5
C5
330
1F
100
AcDbEntity
  8
AXIS
 62
   250
100
AcDbSpline
210
0.0
220
0.0
230
1.0
 70
    24
 71
     3
 72
    12
 73
     8
 74
     0
 42
0.0000000001
 43
0.0000000001
 40
0.0
 40
0.0
 40
0.0
 40
0.0
 40
0.3333333333333333
 40
0.3333333333333333
 40
0.3333333333333333
 40
0.3333333333333333
 40
1.0
 40
1.0
 40
1.0
 40
1.0
 10
18.953
 20
10.7397
 30
0.0
 10
18.953
 20
10.7397
 30
0.0
 10
18.6082
 20
10.7397
 30
0.0
 10
18.6082
 20
10.7397
 30
0.0
 10
18.6082
 20
10.7397
 30
0.0
 10
18.6082
 20
10.7397
 30
0.0
 10
-8.9801
 20
10.7397
 30
0.0
 10
-8.9801
 20
10.7397
 30
0.0
  0
SPLINE
  5
C6
330
1F
100
AcDbEntity
  8
AXIS
 62
   250
100
AcDbSpline
210
0.0
220
0.0
230
1.0
 70
     8
 71
     3
 72
     8
 73
     4
 74
     0
 42
0.0000000001
 43
0.0000000001
 40
0.0
 40
0.0
 40
0.0
 40
0.0
 40
1.0
 40
1.0
 40
1.0
 40
1.0
 10
-8.9801
 20
10.7397
 30
0.0
 10
-9.3104
 20
10.7397
 30
0.0
 10
-9.2519
 20
10.6648
 30
0.0
 10
-9.3646
 20
10.7794
 30
0.0
  0
SPLINE
  5
C7
330
1F
100
AcDbEntity
  8
AXIS
 62
   250
100
AcDbSpline
210
0.0
220
0.0
230
1.0
 70
     8
 71
     3
 72
     8
 73
     4
 74
     0
 42
0.0000000001
 43
0.0000000001
 40
0.0
 40
0.0
 40
0.0
 40
0.0
 40
1.0
 40
1.0
 40
1.0
 40
1.0
 10
-9.411
 20
10.8259
 30
0.0
 10
-9.4313
 20
10.8462
 30
0.0
 10
-9.4515
 20
10.8666
 30
0.0
 10
-9.4719
 20
10.8868
 30
0.0
  0
SPLINE
  5
C8
330
1F
100
AcDbEntity
  8
AXIS
 62
   250
100
AcDbSpline
210
0.0
220
0.0
230
1.0
 70
     8
 71
     3
 72
     8
 73
     4
 74
     0
 42
0.0000000001
 43
0.0000000001
 40
0.0
 40
0.0
 40
0.0
 40
0.0
 40
1.0
 40
1.0
 40
1.0
 40
1.0
 10
-9.4722
 20
-17.6854
 30
0.0
 10
-9.4519
 20
-17.6649
 30
0.0
 10
-9.4315
 20
-17.6448
 30
0.0
 10
-9.4112
 20
-17.6244
 30
0.0
  0
SPLINE
  5
C9
330
1F
100
AcDbEntity
  8
AXIS
 62
   250
100
AcDbSpline
210
0.0
220
0.0
230
1.0
 70
     8
 71
     3
 72
     8
 73
     4
 74
     0
 42
0.0000000001
 43
0.0000000001
 40
0.0
 40
0.0
 40
0.0
 40
0.0
 40
1.0
 40
1.0
 40
1.0
 40
1.0
 10
19.0393
 20
-17.6247
 30
0.0
 10
19.0595
 20
-17.645
 30
0.0
 10
19.0799
 20
-17.6651
 30
0.0
 10
19.1002
 20
-17.6853
 30
0.0
  0
SPLINE
  5
CA
330
1F
100
AcDbEntity
  8
AXIS
 62
   250
100
AcDbSpline
210
0.0
220
0.0
230
1.0
 70
     8
 71
     3
 72
     8
 73
     4
 74
     0
 42
0.0000000001
 43
0.0000000001
 40
0.0
 40
0.0
 40
0.0
 40
0.0
 40
1.0
 40
1.0
 40
1.0
 40
1.0
 10
19.0391
 20
-17.6246
 30
0.0
 10
19.0238
 20
-17.609
 30
0.0
 10
19.0087
 20
-17.5929
 30
0.0
 10
18.9927
 20
-17.5781
 30
0.0
  0
SPLINE
  5
CB
330
1F
100
AcDbEntity
  8
AXIS
 62
   250
100
AcDbSpline
210
0.0
220
0.0
230
1.0
 70
     8
 71
     3
 72
     8
 73
     4
 74
     0
 42
0.0000000001
 43
0.0000000001
 40
0.0
 40
0.0
 40
0.0
 40
0.0
 40
1.0
 40
1.0
 40
1.0
 40
1.0
 10
19.0819
 20
-17.6676
 30
0.0
 10
19.0952
 20
-17.6802
 30
0.0
 10
19.1081
 20
-17.6933
 30
0.0
 10
19.121
 20
-17.7063
 30
0.0
  0
SPLINE
  5
CC
330
1F
100
AcDbEntity
  8
AXIS
 62
   250
100
AcDbSpline
210
0.0
220
0.0
230
1.0
 70
     8
 71
     3
 72
     8
 73
     4
 74
     0
 42
0.0000000001
 43
0.0000000001
 40
0.0
 40
0.0
 40
0.0
 40
0.0
 40
1.0
 40
1.0
 40
1.0
 40
1.0
 10
-9.4543
 20
-17.6673
 30
0.0
 10
-9.4669
 20
-17.6805
 30
0.0
 10
-9.48
 20
-17.6933
 30
0.0
 10
-9.4928
 20
-17.7063
 30
0.0
  0
SPLINE
  5
CD
330
1F
100
AcDbEntity
  8
AXIS
 62
   250
100
AcDbSpline
210
0.0
220
0.0
230
1.0
 70
     8
 71
     3
 72
     8
 73
     4
 74
     0
 42
0.0000000001
 43
0.0000000001
 40
0.0
 40
0.0
 40
0.0
 40
0.0
 40
1.0
 40
1.0
 40
1.0
 40
1.0
 10
-9.4112
 20
-17.6244
 30
0.0
 10
-9.3957
 20
-17.609
 30
0.0
 10
-9.3796
 20
-17.594
 30
0.0
 10
-9.3646
 20
-17.5781
 30
0.0
  0
SPLINE
  5
CE
330
1F
100
AcDbEntity
  8
AXIS
 62
   250
100
AcDbSpline
210
0.0
220
0.0
230
1.0
 70
     8
 71
     3
 72
     8
 73
     4
 74
     0
 42
0.0000000001
 43
0.0000000001
 40
0.0
 40
0.0
 40
0.0
 40
0.0
 40
1.0
 40
1.0
 40
1.0
 40
1.0
 10
-9.4538
 20
10.8689
 30
0.0
 10
-9.4671
 20
10.8815
 30
0.0
 10
-9.48
 20
10.8946
 30
0.0
 10
-9.4928
 20
10.9076
 30
0.0
  0
SPLINE
  5
CF
330
1F
100
AcDbEntity
  8
AXIS
 62
   250
100
AcDbSpline
210
0.0
220
0.0
230
1.0
 70
     8
 71
     3
 72
     8
 73
     4
 74
     0
 42
0.0000000001
 43
0.0000000001
 40
0.0
 40
0.0
 40
0.0
 40
0.0
 40
1.0
 40
1.0
 40
1.0
 40
1.0
 10
-9.411
 20
10.8259
 30
0.0
 10
-9.3957
 20
10.8104
 30
0.0
 10
-9.3806
 20
10.7941
 30
0.0
 10
-9.3646
 20
10.7794
 30
0.0
  0
SPLINE
  5
D0
330
1F
100
AcDbEntity
  8
AXIS
 62
   250
100
AcDbSpline
210
0.0
220
0.0
230
1.0
 70
     8
 71
     3
 72
     8
 73
     4
 74
     0
 42
0.0000000001
 43
0.0000000001
 40
0.0
 40
0.0
 40
0.0
 40
0.0
 40
1.0
 40
1.0
 40
1.0
 40
1.0
 10
19.0394
 20
10.8259
 30
0.0
 10
19.025
 20
10.8116
 30
0.0
 10
19.0107
 20
10.7973
 30
0.0
 10
18.9965
 20
10.7828
 30
0.0
  0
SPLINE
  5
D1
330
1F
100
AcDbEntity
  8
AXIS
 62
   250
100
AcDbSpline
210
0.0
220
0.0
230
1.0
 70
     8
 71
     3
 72
     8
 73
     4
 74
     0
 42
0.0000000001
 43
0.0000000001
 40
0.0
 40
0.0
 40
0.0
 40
0.0
 40
1.0
 40
1.0
 40
1.0
 40
1.0
 10
19.1223
 20
10.9091
 30
0.0
 10
19.1091
 20
10.8957
 30
0.0
 10
19.0959
 20
10.8817
 30
0.0
 10
19.0821
 20
10.8689
 30
0.0
  0
SPLINE
  5
D2
330
1F
100
AcDbEntity
  8
AXIS
 62
   250
100
AcDbSpline
210
0.0
220
0.0
230
1.0
 70
    24
 71
     3
 72
    12
 73
     8
 74
     0
 42
0.0000000001
 43
0.0000000001
 40
0.0
 40
0.0
 40
0.0
 40
0.0
 40
0.3333333333333333
 40
0.3333333333333333
 40
0.3333333333333333
 40
0.3333333333333333
 40
1.0
 40
1.0
 40
1.0
 40
1.0
 10
-7.4283
 20
8.843
 30
0.0
 10
-7.4283
 20
8.843
 30
0.0
 10
-7.4283
 20
8.4981
 30
0.0
 10
-7.4283
 20
8.4981
 30
0.0
 10
-7.4283
 20
8.4981
 30
0.0
 10
-7.4283
 20
8.4981
 30
0.0
 10
-7.4283
 20
-15.2967
 30
0.0
 10
-7.4283
 20
-15.2967
 30
0.0
  0
SPLINE
  5
D3
330
1F
100
AcDbEntity
  8
AXIS
 62
   250
100
AcDbSpline
210
0.0
220
0.0
230
1.0
 70
     8
 71
     3
 72
     8
 73
     4
 74
     0
 42
0.0000000001
 43
0.0000000001
 40
0.0
 40
0.0
 40
0.0
 40
0.0
 40
1.0
 40
1.0
 40
1.0
 40
1.0
 10
-7.4283
 20
-15.2967
 30
0.0
 10
-7.4283
 20
-15.6463
 30
0.0
 10
-7.3593
 20
-15.5732
 30
0.0
 10
-7.4919
 20
-15.7055
 30
0.0
  0
SPLINE
  5
D4
330
1F
100
AcDbEntity
  8
AXIS
 62
   250
100
AcDbSpline
210
0.0
220
0.0
230
1.0
 70
     8
 71
     3
 72
     8
 73
     4
 74
     0
 42
0.0000000001
 43
0.0000000001
 40
0.0
 40
0.0
 40
0.0
 40
0.0
 40
1.0
 40
1.0
 40
1.0
 40
1.0
 10
17.0998
 20
-15.6848
 30
0.0
 10
16.981
 20
-15.5688
 30
0.0
 10
17.0674
 20
-15.6417
 30
0.0
 10
16.7116
 20
-15.6417
 30
0.0
  0
SPLINE
  5
D5
330
1F
100
AcDbEntity
  8
AXIS
 62
   250
100
AcDbSpline
210
0.0
220
0.0
230
1.0
 70
    24
 71
     3
 72
    12
 73
     8
 74
     0
 42
0.0000000001
 43
0.0000000001
 40
0.0
 40
0.0
 40
0.0
 40
0.0
 40
0.3333333333333333
 40
0.3333333333333333
 40
0.3333333333333333
 40
0.3333333333333333
 40
1.0
 40
1.0
 40
1.0
 40
1.0
 10
16.7116
 20
-15.6417
 30
0.0
 10
16.7116
 20
-15.6417
 30
0.0
 10
-7.0834
 20
-15.6417
 30
0.0
 10
-7.0834
 20
-15.6417
 30
0.0
 10
-7.0834
 20
-15.6417
 30
0.0
 10
-7.0834
 20
-15.6417
 30
0.0
 10
-7.4283
 20
-15.6417
 30
0.0
 10
-7.4283
 20
-15.6417
 30
0.0
  0
SPLINE
  5
D6
330
1F
100
AcDbEntity
  8
AXIS
 62
   250
100
AcDbSpline
210
0.0
220
0.0
230
1.0
 70
     8
 71
     3
 72
     8
 73
     4
 74
     0
 42
0.0000000001
 43
0.0000000001
 40
0.0
 40
0.0
 40
0.0
 40
0.0
 40
1.0
 40
1.0
 40
1.0
 40
1.0
 10
-7.4717
 20
8.8861
 30
0.0
 10
-7.3538
 20
8.7709
 30
0.0
 10
-7.4327
 20
8.8442
 30
0.0
 10
-7.0847
 20
8.8441
 30
0.0
  0
SPLINE
  5
D7
330
1F
100
AcDbEntity
  8
AXIS
 62
   250
100
AcDbSpline
210
0.0
220
0.0
230
1.0
 70
     8
 71
     3
 72
    12
 73
     8
 74
     0
 42
0.0000000001
 43
0.0000000001
 40
0.0
 40
0.0
 40
0.0
 40
0.0
 40
0.3333333333333333
 40
0.3333333333333333
 40
0.3333333333333333
 40
0.3333333333333333
 40
1.0
 40
1.0
 40
1.0
 40
1.0
 10
-7.0847
 20
8.8441
 30
0.0
 10
-7.0847
 20
8.8441
 30
0.0
 10
16.7116
 20
8.843
 30
0.0
 10
16.7116
 20
8.843
 30
0.0
 10
16.7116
 20
8.843
 30
0.0
 10
16.7116
 20
8.843
 30
0.0
 10
17.0564
 20
8.843
 30
0.0
 10
17.0564
 20
8.843
 30
0.0
  0
SPLINE
  5
D8
330
1F
100
AcDbEntity
  8
AXIS
 62
   250
100
AcDbSpline
210
0.0
220
0.0
230
1.0
 70
     8
 71
     3
 72
     8
 73
     4
 74
     0
 42
0.0000000001
 43
0.0000000001
 40
0.0
 40
0.0
 40
0.0
 40
0.0
 40
1.0
 40
1.0
 40
1.0
 40
1.0
 10
17.2261
 20
-15.8115
 30
0.0
 10
17.2061
 20
-15.7914
 30
0.0
 10
17.1861
 20
-15.7714
 30
0.0
 10
17.1661
 20
-15.7513
 30
0.0
  0
SPLINE
  5
D9
330
1F
100
AcDbEntity
  8
AXIS
 62
   250
100
AcDbSpline
210
0.0
220
0.0
230
1.0
 70
    24
 71
     3
 72
    12
 73
     8
 74
     0
 42
0.0000000001
 43
0.0000000001
 40
0.0
 40
0.0
 40
0.0
 40
0.0
 40
0.3333333333333333
 40
0.3333333333333333
 40
0.3333333333333333
 40
0.3333333333333333
 40
1.0
 40
1.0
 40
1.0
 40
1.0
 10
17.0564
 20
-15.6417
 30
0.0
 10
17.0564
 20
-15.6417
 30
0.0
 10
17.0564
 20
-15.2967
 30
0.0
 10
17.0564
 20
-15.2967
 30
0.0
 10
17.0564
 20
-15.2967
 30
0.0
 10
17.0564
 20
-15.2967
 30
0.0
 10
17.0564
 20
8.4981
 30
0.0
 10
17.0564
 20
8.4981
 30
0.0
  0
SPLINE
  5
DA
330
1F
100
AcDbEntity
  8
AXIS
 62
   250
100
AcDbSpline
210
0.0
220
0.0
230
1.0
 70
     8
 71
     3
 72
     8
 73
     4
 74
     0
 42
0.0000000001
 43
0.0000000001
 40
0.0
 40
0.0
 40
0.0
 40
0.0
 40
1.0
 40
1.0
 40
1.0
 40
1.0
 10
17.0564
 20
8.4981
 30
0.0
 10
17.0564
 20
8.8332
 30
0.0
 10
16.9856
 20
8.77
 30
0.0
 10
17.0995
 20
8.8864
 30
0.0
  0
SPLINE
  5
DB
330
1F
100
AcDbEntity
  8
AXIS
 62
   250
100
AcDbSpline
210
0.0
220
0.0
230
1.0
 70
     8
 71
     3
 72
     8
 73
     4
 74
     0
 42
0.0000000001
 43
0.0000000001
 40
0.0
 40
0.0
 40
0.0
 40
0.0
 40
1.0
 40
1.0
 40
1.0
 40
1.0
 10
17.1643
 20
8.9515
 30
0.0
 10
17.1816
 20
8.9685
 30
0.0
 10
17.1988
 20
8.9858
 30
0.0
 10
17.2162
 20
9.0028
 30
0.0
  0
SPLINE
  5
DC
330
1F
100
AcDbEntity
  8
AXIS
 62
   250
100
AcDbSpline
210
0.0
220
0.0
230
1.0
 70
     8
 71
     3
 72
     8
 73
     4
 74
     0
 42
0.0000000001
 43
0.0000000001
 40
0.0
 40
0.0
 40
0.0
 40
0.0
 40
1.0
 40
1.0
 40
1.0
 40
1.0
 10
-7.5882
 20
9.0028
 30
0.0
 10
-7.5711
 20
8.9854
 30
0.0
 10
-7.5539
 20
8.9682
 30
0.0
 10
-7.5368
 20
8.9509
 30
0.0
  0
SPLINE
  5
DD
330
1F
100
AcDbEntity
  8
AXIS
 62
   250
100
AcDbSpline
210
0.0
220
0.0
230
1.0
 70
     8
 71
     3
 72
     8
 73
     4
 74
     0
 42
0.0000000001
 43
0.0000000001
 40
0.0
 40
0.0
 40
0.0
 40
0.0
 40
1.0
 40
1.0
 40
1.0
 40
1.0
 10
-7.5362
 20
-15.7502
 30
0.0
 10
-7.5535
 20
-15.7673
 30
0.0
 10
-7.5711
 20
-15.7841
 30
0.0
 10
-7.5882
 20
-15.8016
 30
0.0
  0
SPLINE
  5
DE
330
1F
100
AcDbEntity
  8
AXIS
 62
   250
100
AcDbSpline
210
0.0
220
0.0
230
1.0
 70
     8
 71
     3
 72
     8
 73
     4
 74
     0
 42
0.0000000001
 43
0.0000000001
 40
0.0
 40
0.0
 40
0.0
 40
0.0
 40
1.0
 40
1.0
 40
1.0
 40
1.0
 10
17.1661
 20
-15.7513
 30
0.0
 10
17.1443
 20
-15.7293
 30
0.0
 10
17.1213
 20
-15.7073
 30
0.0
 10
17.0998
 20
-15.6848
 30
0.0
  0
SPLINE
  5
DF
330
1F
100
AcDbEntity
  8
AXIS
 62
   250
100
AcDbSpline
210
0.0
220
0.0
230
1.0
 70
     8
 71
     3
 72
     8
 73
     4
 74
     0
 42
0.0000000001
 43
0.0000000001
 40
0.0
 40
0.0
 40
0.0
 40
0.0
 40
1.0
 40
1.0
 40
1.0
 40
1.0
 10
17.1847
 20
-15.7699
 30
0.0
 10
17.1992
 20
-15.7845
 30
0.0
 10
17.2133
 20
-15.8001
 30
0.0
 10
17.2288
 20
-15.8138
 30
0.0
  0
SPLINE
  5
E0
330
1F
100
AcDbEntity
  8
AXIS
 62
   250
100
AcDbSpline
210
0.0
220
0.0
230
1.0
 70
     8
 71
     3
 72
     8
 73
     4
 74
     0
 42
0.0000000001
 43
0.0000000001
 40
0.0
 40
0.0
 40
0.0
 40
0.0
 40
1.0
 40
1.0
 40
1.0
 40
1.0
 10
17.217
 20
9.0039
 30
0.0
 10
17.2066
 20
8.9931
 30
0.0
 10
17.1961
 20
8.9827
 30
0.0
 10
17.1854
 20
8.9722
 30
0.0
  0
SPLINE
  5
E1
330
1F
100
AcDbEntity
  8
AXIS
 62
   250
100
AcDbSpline
210
0.0
220
0.0
230
1.0
 70
     8
 71
     3
 72
    12
 73
     8
 74
     0
 42
0.0000000001
 43
0.0000000001
 40
0.0
 40
0.0
 40
0.0
 40
0.0
 40
0.3333333333333333
 40
0.3333333333333333
 40
0.3333333333333333
 40
0.3333333333333333
 40
1.0
 40
1.0
 40
1.0
 40
1.0
 10
17.1006
 20
8.8871
 30
0.0
 10
17.1006
 20
8.8871
 30
0.0
 10
17.1192
 20
8.9056
 30
0.0
 10
17.1192
 20
8.9056
 30
0.0
 10
17.1192
 20
8.9056
 30
0.0
 10
17.1192
 20
8.9056
 30
0.0
 10
17.1643
 20
8.9515
 30
0.0
 10
17.1643
 20
8.9515
 30
0.0
  0
SPLINE
  5
E2
330
1F
100
AcDbEntity
  8
AXIS
 62
   250
100
AcDbSpline
210
0.0
220
0.0
230
1.0
 70
     8
 71
     3
 72
     8
 73
     4
 74
     0
 42
0.0000000001
 43
0.0000000001
 40
0.0
 40
0.0
 40
0.0
 40
0.0
 40
1.0
 40
1.0
 40
1.0
 40
1.0
 10
-7.5565
 20
8.9712
 30
0.0
 10
-7.5671
 20
8.9817
 30
0.0
 10
-7.5777
 20
8.9923
 30
0.0
 10
-7.5882
 20
9.0028
 30
0.0
  0
SPLINE
  5
E3
330
1F
100
AcDbEntity
  8
AXIS
 62
   250
100
AcDbSpline
210
0.0
220
0.0
230
1.0
 70
     8
 71
     3
 72
     8
 73
     4
 74
     0
 42
0.0000000001
 43
0.0000000001
 40
0.0
 40
0.0
 40
0.0
 40
0.0
 40
1.0
 40
1.0
 40
1.0
 40
1.0
 10
-7.538
 20
8.9526
 30
0.0
 10
-7.5162
 20
8.9305
 30
0.0
 10
-7.4932
 20
8.9086
 30
0.0
 10
-7.4717
 20
8.8861
 30
0.0
  0
SPLINE
  5
E4
330
1F
100
AcDbEntity
  8
AXIS
 62
   250
100
AcDbSpline
210
0.0
220
0.0
230
1.0
 70
     8
 71
     3
 72
     8
 73
     4
 74
     0
 42
0.0000000001
 43
0.0000000001
 40
0.0
 40
0.0
 40
0.0
 40
0.0
 40
1.0
 40
1.0
 40
1.0
 40
1.0
 10
-7.5565
 20
-15.7699
 30
0.0
 10
-7.5671
 20
-15.7804
 30
0.0
 10
-7.5776
 20
-15.791
 30
0.0
 10
-7.5882
 20
-15.8016
 30
0.0
  0
SPLINE
  5
E5
330
1F
100
AcDbEntity
  8
AXIS
 62
   250
100
AcDbSpline
210
0.0
220
0.0
230
1.0
 70
     8
 71
     3
 72
     8
 73
     4
 74
     0
 42
0.0000000001
 43
0.0000000001
 40
0.0
 40
0.0
 40
0.0
 40
0.0
 40
1.0
 40
1.0
 40
1.0
 40
1.0
 10
-7.538
 20
-15.7513
 30
0.0
 10
-7.516
 20
-15.7297
 30
0.0
 10
-7.4939
 20
-15.7065
 30
0.0
 10
-7.4713
 20
-15.685
 30
0.0
  0
SPLINE
  5
E6
330
1F
100
AcDbEntity
  8
AXIS
 62
   250
100
AcDbSpline
210
0.0
220
0.0
230
1.0
 70
     8
 71
     3
 72
     8
 73
     4
 74
     0
 42
0.0000000001
 43
0.0000000001
 40
0.0
 40
0.0
 40
0.0
 40
0.0
 40
1.0
 40
1.0
 40
1.0
 40
1.0
 10
-5.5749
 20
6.9894
 30
0.0
 10
-5.4576
 20
6.8739
 30
0.0
 10
-5.5316
 20
6.9375
 30
0.0
 10
-5.5316
 20
6.6014
 30
0.0
  0
SPLINE
  5
E7
330
1F
100
AcDbEntity
  8
AXIS
 62
   250
100
AcDbSpline
210
0.0
220
0.0
230
1.0
 70
    24
 71
     3
 72
     8
 73
     4
 74
     0
 42
0.0000000001
 43
0.0000000001
 40
0.0
 40
0.0
 40
0.0
 40
0.0
 40
1.0
 40
1.0
 40
1.0
 40
1.0
 10
-5.5316
 20
6.6014
 30
0.0
 10
-5.5316
 20
6.6014
 30
0.0
 10
-5.5316
 20
-13.4002
 30
0.0
 10
-5.5316
 20
-13.4002
 30
0.0
  0
SPLINE
  5
E8
330
1F
100
AcDbEntity
  8
AXIS
 62
   250
100
AcDbSpline
210
0.0
220
0.0
230
1.0
 70
     8
 71
     3
 72
     8
 73
     4
 74
     0
 42
0.0000000001
 43
0.0000000001
 40
0.0
 40
0.0
 40
0.0
 40
0.0
 40
1.0
 40
1.0
 40
1.0
 40
1.0
 10
-5.5316
 20
-13.4002
 30
0.0
 10
-5.5316
 20
-13.7561
 30
0.0
 10
-5.4591
 20
-13.6701
 30
0.0
 10
-5.5747
 20
-13.7882
 30
0.0
  0
SPLINE
  5
E9
330
1F
100
AcDbEntity
  8
AXIS
 62
   250
100
AcDbSpline
210
0.0
220
0.0
230
1.0
 70
     8
 71
     3
 72
     8
 73
     4
 74
     0
 42
0.0000000001
 43
0.0000000001
 40
0.0
 40
0.0
 40
0.0
 40
0.0
 40
1.0
 40
1.0
 40
1.0
 40
1.0
 10
15.203
 20
-13.7881
 30
0.0
 10
15.0849
 20
-13.6724
 30
0.0
 10
15.1699
 20
-13.745
 30
0.0
 10
14.8148
 20
-13.745
 30
0.0
  0
SPLINE
  5
EA
330
1F
100
AcDbEntity
  8
AXIS
 62
   250
100
AcDbSpline
210
0.0
220
0.0
230
1.0
 70
    24
 71
     3
 72
    12
 73
     8
 74
     0
 42
0.0000000001
 43
0.0000000001
 40
0.0
 40
0.0
 40
0.0
 40
0.0
 40
0.3333333333333333
 40
0.3333333333333333
 40
0.3333333333333333
 40
0.3333333333333333
 40
1.0
 40
1.0
 40
1.0
 40
1.0
 10
14.8148
 20
-13.745
 30
0.0
 10
14.8148
 20
-13.745
 30
0.0
 10
-5.1867
 20
-13.745
 30
0.0
 10
-5.1867
 20
-13.745
 30
0.0
 10
-5.1867
 20
-13.745
 30
0.0
 10
-5.1867
 20
-13.745
 30
0.0
 10
-5.5316
 20
-13.745
 30
0.0
 10
-5.5316
 20
-13.745
 30
0.0
  0
SPLINE
  5
EB
330
1F
100
AcDbEntity
  8
AXIS
 62
   250
100
AcDbSpline
210
0.0
220
0.0
230
1.0
 70
     8
 71
     3
 72
     8
 73
     4
 74
     0
 42
0.0000000001
 43
0.0000000001
 40
0.0
 40
0.0
 40
0.0
 40
0.0
 40
1.0
 40
1.0
 40
1.0
 40
1.0
 10
-5.6178
 20
-13.8311
 30
0.0
 10
-5.6456
 20
-13.859
 30
0.0
 10
-5.6735
 20
-13.8868
 30
0.0
 10
-5.7013
 20
-13.9148
 30
0.0
  0
SPLINE
  5
EC
330
1F
100
AcDbEntity
  8
AXIS
 62
   250
100
AcDbSpline
210
0.0
220
0.0
230
1.0
 70
     8
 71
     3
 72
     8
 73
     4
 74
     0
 42
0.0000000001
 43
0.0000000001
 40
0.0
 40
0.0
 40
0.0
 40
0.0
 40
1.0
 40
1.0
 40
1.0
 40
1.0
 10
-5.6914
 20
7.1061
 30
0.0
 10
-5.667
 20
7.0814
 30
0.0
 10
-5.6423
 20
7.0571
 30
0.0
 10
-5.6178
 20
7.0326
 30
0.0
  0
SPLINE
  5
ED
330
1F
100
AcDbEntity
  8
AXIS
 62
   250
100
AcDbSpline
210
0.0
220
0.0
230
1.0
 70
     8
 71
     3
 72
     8
 73
     4
 74
     0
 42
0.0000000001
 43
0.0000000001
 40
0.0
 40
0.0
 40
0.0
 40
0.0
 40
1.0
 40
1.0
 40
1.0
 40
1.0
 10
15.2028
 20
6.9896
 30
0.0
 10
15.1884
 20
6.975
 30
0.0
 10
15.174
 20
6.9606
 30
0.0
 10
15.1596
 20
6.9463
 30
0.0
  0
SPLINE
  5
EE
330
1F
100
AcDbEntity
  8
AXIS
 62
   250
100
AcDbSpline
210
0.0
220
0.0
230
1.0
 70
    24
 71
     3
 72
    16
 73
    12
 74
     0
 42
0.0000000001
 43
0.0000000001
 40
0.0
 40
0.0
 40
0.0
 40
0.0
 40
0.25
 40
0.25
 40
0.25
 40
0.25
 40
0.5
 40
0.5
 40
0.5
 40
0.5
 40
1.0
 40
1.0
 40
1.0
 40
1.0
 10
15.1596
 20
6.9463
 30
0.0
 10
15.1596
 20
6.9463
 30
0.0
 10
14.8148
 20
6.9463
 30
0.0
 10
14.8148
 20
6.9463
 30
0.0
 10
14.8148
 20
6.9463
 30
0.0
 10
14.8148
 20
6.9463
 30
0.0
 10
-5.1867
 20
6.9463
 30
0.0
 10
-5.1867
 20
6.9463
 30
0.0
 10
-5.1867
 20
6.9463
 30
0.0
 10
-5.1867
 20
6.9463
 30
0.0
 10
-5.5316
 20
6.9463
 30
0.0
 10
-5.5316
 20
6.9463
 30
0.0
  0
SPLINE
  5
EF
330
1F
100
AcDbEntity
  8
AXIS
 62
   250
100
AcDbSpline
210
0.0
220
0.0
230
1.0
 70
     8
 71
     3
 72
     8
 73
     4
 74
     0
 42
0.0000000001
 43
0.0000000001
 40
0.0
 40
0.0
 40
0.0
 40
0.0
 40
1.0
 40
1.0
 40
1.0
 40
1.0
 10
15.246
 20
7.0324
 30
0.0
 10
15.2703
 20
7.0571
 30
0.0
 10
15.2949
 20
7.0817
 30
0.0
 10
15.3195
 20
7.1061
 30
0.0
  0
SPLINE
  5
F0
330
1F
100
AcDbEntity
  8
AXIS
 62
   250
100
AcDbSpline
210
0.0
220
0.0
230
1.0
 70
     8
 71
     3
 72
     8
 73
     4
 74
     0
 42
0.0000000001
 43
0.0000000001
 40
0.0
 40
0.0
 40
0.0
 40
0.0
 40
1.0
 40
1.0
 40
1.0
 40
1.0
 10
15.2459
 20
-13.8312
 30
0.0
 10
15.2739
 20
-13.8589
 30
0.0
 10
15.3016
 20
-13.887
 30
0.0
 10
15.3294
 20
-13.9148
 30
0.0
  0
SPLINE
  5
F1
330
1F
100
AcDbEntity
  8
AXIS
 62
   250
100
AcDbSpline
210
0.0
220
0.0
230
1.0
 70
     8
 71
     3
 72
     8
 73
     4
 74
     0
 42
0.0000000001
 43
0.0000000001
 40
0.0
 40
0.0
 40
0.0
 40
0.0
 40
1.0
 40
1.0
 40
1.0
 40
1.0
 10
15.2458
 20
-13.8312
 30
0.0
 10
15.2319
 20
-13.8172
 30
0.0
 10
15.2178
 20
-13.8031
 30
0.0
 10
15.2038
 20
-13.7892
 30
0.0
  0
SPLINE
  5
F2
330
1F
100
AcDbEntity
  8
AXIS
 62
   250
100
AcDbSpline
210
0.0
220
0.0
230
1.0
 70
     8
 71
     3
 72
     8
 73
     4
 74
     0
 42
0.0000000001
 43
0.0000000001
 40
0.0
 40
0.0
 40
0.0
 40
0.0
 40
1.0
 40
1.0
 40
1.0
 40
1.0
 10
15.289
 20
-13.8741
 30
0.0
 10
15.3032
 20
-13.8885
 30
0.0
 10
15.3169
 20
-13.9037
 30
0.0
 10
15.3321
 20
-13.9171
 30
0.0
  0
SPLINE
  5
F3
330
1F
100
AcDbEntity
  8
AXIS
 62
   250
100
AcDbSpline
210
0.0
220
0.0
230
1.0
 70
     8
 71
     3
 72
    12
 73
     8
 74
     0
 42
0.0000000001
 43
0.0000000001
 40
0.0
 40
0.0
 40
0.0
 40
0.0
 40
0.3333333333333333
 40
0.3333333333333333
 40
0.3333333333333333
 40
0.3333333333333333
 40
1.0
 40
1.0
 40
1.0
 40
1.0
 10
15.3294
 20
7.1161
 30
0.0
 10
15.3294
 20
7.1161
 30
0.0
 10
15.3195
 20
7.1061
 30
0.0
 10
15.3195
 20
7.1061
 30
0.0
 10
15.3195
 20
7.1061
 30
0.0
 10
15.3195
 20
7.1061
 30
0.0
 10
15.3275
 20
7.1141
 30
0.0
 10
15.3275
 20
7.1141
 30
0.0
  0
SPLINE
  5
F4
330
1F
100
AcDbEntity
  8
AXIS
 62
   250
100
AcDbSpline
210
0.0
220
0.0
230
1.0
 70
     8
 71
     3
 72
     8
 73
     4
 74
     0
 42
0.0000000001
 43
0.0000000001
 40
0.0
 40
0.0
 40
0.0
 40
0.0
 40
1.0
 40
1.0
 40
1.0
 40
1.0
 10
15.2888
 20
7.0756
 30
0.0
 10
15.2991
 20
7.0856
 30
0.0
 10
15.3094
 20
7.0959
 30
0.0
 10
15.3195
 20
7.1061
 30
0.0
  0
SPLINE
  5
F5
330
1F
100
AcDbEntity
  8
AXIS
 62
   250
100
AcDbSpline
210
0.0
220
0.0
230
1.0
 70
     8
 71
     3
 72
     8
 73
     4
 74
     0
 42
0.0000000001
 43
0.0000000001
 40
0.0
 40
0.0
 40
0.0
 40
0.0
 40
1.0
 40
1.0
 40
1.0
 40
1.0
 10
-5.6607
 20
-13.8742
 30
0.0
 10
-5.675
 20
-13.8885
 30
0.0
 10
-5.6903
 20
-13.9023
 30
0.0
 10
-5.7037
 20
-13.9174
 30
0.0
  0
SPLINE
  5
F6
330
1F
100
AcDbEntity
  8
AXIS
 62
   250
100
AcDbSpline
210
0.0
220
0.0
230
1.0
 70
     8
 71
     3
 72
     8
 73
     4
 74
     0
 42
0.0000000001
 43
0.0000000001
 40
0.0
 40
0.0
 40
0.0
 40
0.0
 40
1.0
 40
1.0
 40
1.0
 40
1.0
 10
-5.5757
 20
-13.7892
 30
0.0
 10
-5.5897
 20
-13.8031
 30
0.0
 10
-5.6037
 20
-13.8172
 30
0.0
 10
-5.6178
 20
-13.8311
 30
0.0
  0
SPLINE
  5
F7
330
1F
100
AcDbEntity
  8
AXIS
 62
   250
100
AcDbSpline
210
0.0
220
0.0
230
1.0
 70
     8
 71
     3
 72
     8
 73
     4
 74
     0
 42
0.0000000001
 43
0.0000000001
 40
0.0
 40
0.0
 40
0.0
 40
0.0
 40
1.0
 40
1.0
 40
1.0
 40
1.0
 10
-5.6609
 20
7.0754
 30
0.0
 10
-5.6675
 20
7.0822
 30
0.0
 10
-5.6744
 20
7.0886
 30
0.0
 10
-5.6809
 20
7.0955
 30
0.0
  0
SPLINE
  5
F8
330
1F
100
AcDbEntity
  8
AXIS
 62
   250
100
AcDbSpline
210
0.0
220
0.0
230
1.0
 70
     8
 71
     3
 72
     8
 73
     4
 74
     0
 42
0.0000000001
 43
0.0000000001
 40
0.0
 40
0.0
 40
0.0
 40
0.0
 40
1.0
 40
1.0
 40
1.0
 40
1.0
 10
-13.1625
 20
14.5772
 30
0.0
 10
-13.0435
 20
14.4581
 30
0.0
 10
-13.1183
 20
14.5376
 30
0.0
 10
-13.1183
 20
14.1882
 30
0.0
  0
SPLINE
  5
F9
330
1F
100
AcDbEntity
  8
AXIS
 62
   250
100
AcDbSpline
210
0.0
220
0.0
230
1.0
 70
    24
 71
     3
 72
    12
 73
     8
 74
     0
 42
0.0000000001
 43
0.0000000001
 40
0.0
 40
0.0
 40
0.0
 40
0.0
 40
0.3333333333333333
 40
0.3333333333333333
 40
0.3333333333333333
 40
0.3333333333333333
 40
1.0
 40
1.0
 40
1.0
 40
1.0
 10
-13.1183
 20
14.1882
 30
0.0
 10
-13.1183
 20
14.1882
 30
0.0
 10
-13.1183
 20
-20.9869
 30
0.0
 10
-13.1183
 20
-20.9869
 30
0.0
 10
-13.1183
 20
-20.9869
 30
0.0
 10
-13.1183
 20
-20.9869
 30
0.0
 10
-13.1183
 20
-21.3318
 30
0.0
 10
-13.1183
 20
-21.3318
 30
0.0
  0
SPLINE
  5
FA
330
1F
100
AcDbEntity
  8
AXIS
 62
   250
100
AcDbSpline
210
0.0
220
0.0
230
1.0
 70
    24
 71
     3
 72
    16
 73
    12
 74
     0
 42
0.0000000001
 43
0.0000000001
 40
0.0
 40
0.0
 40
0.0
 40
0.0
 40
0.25
 40
0.25
 40
0.25
 40
0.25
 40
0.5
 40
0.5
 40
0.5
 40
0.5
 40
1.0
 40
1.0
 40
1.0
 40
1.0
 10
22.7464
 20
-21.3318
 30
0.0
 10
22.7464
 20
-21.3318
 30
0.0
 10
22.4016
 20
-21.3318
 30
0.0
 10
22.4016
 20
-21.3318
 30
0.0
 10
22.4016
 20
-21.3318
 30
0.0
 10
22.4016
 20
-21.3318
 30
0.0
 10
-12.7734
 20
-21.3318
 30
0.0
 10
-12.7734
 20
-21.3318
 30
0.0
 10
-12.7734
 20
-21.3318
 30
0.0
 10
-12.7734
 20
-21.3318
 30
0.0
 10
-13.1183
 20
-21.3318
 30
0.0
 10
-13.1183
 20
-21.3318
 30
0.0
  0
SPLINE
  5
FB
330
1F
100
AcDbEntity
  8
AXIS
 62
   250
100
AcDbSpline
210
0.0
220
0.0
230
1.0
 70
     8
 71
     3
 72
     8
 73
     4
 74
     0
 42
0.0000000001
 43
0.0000000001
 40
0.0
 40
0.0
 40
0.0
 40
0.0
 40
1.0
 40
1.0
 40
1.0
 40
1.0
 10
-13.1183
 20
-21.3318
 30
0.0
 10
-13.1338
 20
-21.3448
 30
0.0
 10
-13.1473
 20
-21.3608
 30
0.0
 10
-13.1619
 20
-21.3748
 30
0.0
  0
SPLINE
  5
FC
330
1F
100
AcDbEntity
  8
AXIS
 62
   250
100
AcDbSpline
210
0.0
220
0.0
230
1.0
 70
    24
 71
     3
 72
    20
 73
    16
 74
     0
 42
0.0000000001
 43
0.0000000001
 40
0.0
 40
0.0
 40
0.0
 40
0.0
 40
0.2
 40
0.2
 40
0.2
 40
0.2
 40
0.4
 40
0.4
 40
0.4
 40
0.4
 40
0.6
 40
0.6
 40
0.6
 40
0.6
 40
1.0
 40
1.0
 40
1.0
 40
1.0
 10
-13.2908
 20
14.7025
 30
0.0
 10
-13.2908
 20
14.7025
 30
0.0
 10
-13.2908
 20
14.7055
 30
0.0
 10
-13.2908
 20
14.7055
 30
0.0
 10
-13.2908
 20
14.7055
 30
0.0
 10
-13.2908
 20
14.7055
 30
0.0
 10
-13.2908
 20
14.3606
 30
0.0
 10
-13.2908
 20
14.3606
 30
0.0
 10
-13.2908
 20
14.3606
 30
0.0
 10
-13.2908
 20
14.3606
 30
0.0
 10
-13.2908
 20
-21.1593
 30
0.0
 10
-13.2908
 20
-21.1593
 30
0.0
 10
-13.2908
 20
-21.1593
 30
0.0
 10
-13.2908
 20
-21.1593
 30
0.0
 10
-13.2908
 20
-21.5042
 30
0.0
 10
-13.2908
 20
-21.5042
 30
0.0
  0
SPLINE
  5
FD
330
1F
100
AcDbEntity
  8
AXIS
 62
   250
100
AcDbSpline
210
0.0
220
0.0
230
1.0
 70
     8
 71
     3
 72
     8
 73
     4
 74
     0
 42
0.0000000001
 43
0.0000000001
 40
0.0
 40
0.0
 40
0.0
 40
0.0
 40
1.0
 40
1.0
 40
1.0
 40
1.0
 10
-13.2908
 20
-21.5013
 30
0.0
 10
-13.2668
 20
-21.484
 30
0.0
 10
-13.2472
 20
-21.4607
 30
0.0
 10
-13.226
 20
-21.4403
 30
0.0
  0
SPLINE
  5
FE
330
1F
100
AcDbEntity
  8
AXIS
 62
   250
100
AcDbSpline
210
0.0
220
0.0
230
1.0
 70
     8
 71
     3
 72
     8
 73
     4
 74
     0
 42
0.0000000001
 43
0.0000000001
 40
0.0
 40
0.0
 40
0.0
 40
0.0
 40
1.0
 40
1.0
 40
1.0
 40
1.0
 10
22.79
 20
14.5761
 30
0.0
 10
22.7754
 20
14.5621
 30
0.0
 10
22.762
 20
14.5462
 30
0.0
 10
22.7464
 20
14.533
 30
0.0
  0
SPLINE
  5
FF
330
1F
100
AcDbEntity
  8
AXIS
 62
   250
100
AcDbSpline
210
0.0
220
0.0
230
1.0
 70
    24
 71
     3
 72
    16
 73
    12
 74
     0
 42
0.0000000001
 43
0.0000000001
 40
0.0
 40
0.0
 40
0.0
 40
0.0
 40
0.25
 40
0.25
 40
0.25
 40
0.25
 40
0.5
 40
0.5
 40
0.5
 40
0.5
 40
1.0
 40
1.0
 40
1.0
 40
1.0
 10
22.7464
 20
14.533
 30
0.0
 10
22.7464
 20
14.533
 30
0.0
 10
22.4016
 20
14.533
 30
0.0
 10
22.4016
 20
14.533
 30
0.0
 10
22.4016
 20
14.533
 30
0.0
 10
22.4016
 20
14.533
 30
0.0
 10
-12.7734
 20
14.533
 30
0.0
 10
-12.7734
 20
14.533
 30
0.0
 10
-12.7734
 20
14.533
 30
0.0
 10
-12.7734
 20
14.533
 30
0.0
 10
-13.1183
 20
14.533
 30
0.0
 10
-13.1183
 20
14.533
 30
0.0
  0
SPLINE
  5
100
330
1F
100
AcDbEntity
  8
AXIS
 62
   250
100
AcDbSpline
210
0.0
220
0.0
230
1.0
 70
     8
 71
     3
 72
     8
 73
     4
 74
     0
 42
0.0000000001
 43
0.0000000001
 40
0.0
 40
0.0
 40
0.0
 40
0.0
 40
1.0
 40
1.0
 40
1.0
 40
1.0
 10
-13.2908
 20
14.7025
 30
0.0
 10
-13.2662
 20
14.6885
 30
0.0
 10
-13.2466
 20
14.6611
 30
0.0
 10
-13.2267
 20
14.6415
 30
0.0
  0
SPLINE
  5
101
330
1F
100
AcDbEntity
  8
AXIS
 62
   250
100
AcDbSpline
210
0.0
220
0.0
230
1.0
 70
     8
 71
     3
 72
     8
 73
     4
 74
     0
 42
0.0000000001
 43
0.0000000001
 40
0.0
 40
0.0
 40
0.0
 40
0.0
 40
1.0
 40
1.0
 40
1.0
 40
1.0
 10
22.7907
 20
-21.3759
 30
0.0
 10
22.6716
 20
-21.2569
 30
0.0
 10
22.7464
 20
-21.3365
 30
0.0
 10
22.7464
 20
-20.9869
 30
0.0
  0
SPLINE
  5
102
330
1F
100
AcDbEntity
  8
AXIS
 62
   250
100
AcDbSpline
210
0.0
220
0.0
230
1.0
 70
    24
 71
     3
 72
    12
 73
     8
 74
     0
 42
0.0000000001
 43
0.0000000001
 40
0.0
 40
0.0
 40
0.0
 40
0.0
 40
0.3333333333333333
 40
0.3333333333333333
 40
0.3333333333333333
 40
0.3333333333333333
 40
1.0
 40
1.0
 40
1.0
 40
1.0
 10
22.7464
 20
-20.9869
 30
0.0
 10
22.7464
 20
-20.9869
 30
0.0
 10
22.7464
 20
14.1882
 30
0.0
 10
22.7464
 20
14.1882
 30
0.0
 10
22.7464
 20
14.1882
 30
0.0
 10
22.7464
 20
14.1882
 30
0.0
 10
22.7464
 20
14.533
 30
0.0
 10
22.7464
 20
14.533
 30
0.0
  0
SPLINE
  5
103
330
1F
100
AcDbEntity
  8
AXIS
 62
   250
100
AcDbSpline
210
0.0
220
0.0
230
1.0
 70
     8
 71
     3
 72
     8
 73
     4
 74
     0
 42
0.0000000001
 43
0.0000000001
 40
0.0
 40
0.0
 40
0.0
 40
0.0
 40
1.0
 40
1.0
 40
1.0
 40
1.0
 10
22.8549
 20
14.6413
 30
0.0
 10
22.8758
 20
14.662
 30
0.0
 10
22.8951
 20
14.6854
 30
0.0
 10
22.9189
 20
14.7025
 30
0.0
  0
SPLINE
  5
104
330
1F
100
AcDbEntity
  8
AXIS
 62
   250
100
AcDbSpline
210
0.0
220
0.0
230
1.0
 70
     8
 71
     3
 72
     8
 73
     4
 74
     0
 42
0.0000000001
 43
0.0000000001
 40
0.0
 40
0.0
 40
0.0
 40
0.0
 40
1.0
 40
1.0
 40
1.0
 40
1.0
 10
22.9189
 20
-21.5013
 30
0.0
 10
22.8948
 20
-21.4875
 30
0.0
 10
22.8738
 20
-21.4595
 30
0.0
 10
22.8548
 20
-21.4403
 30
0.0
  0
SPLINE
  5
105
330
1F
100
AcDbEntity
  8
AXIS
 62
   250
100
AcDbSpline
210
0.0
220
0.0
230
1.0
 70
     8
 71
     3
 72
     8
 73
     4
 74
     0
 42
0.0000000001
 43
0.0000000001
 40
0.0
 40
0.0
 40
0.0
 40
0.0
 40
1.0
 40
1.0
 40
1.0
 40
1.0
 10
-13.1625
 20
14.5772
 30
0.0
 10
-13.1843
 20
14.5981
 30
0.0
 10
-13.2053
 20
14.6196
 30
0.0
 10
-13.2269
 20
14.6406
 30
0.0
  0
SPLINE
  5
106
330
1F
100
AcDbEntity
  8
AXIS
 62
   250
100
AcDbSpline
210
0.0
220
0.0
230
1.0
 70
     8
 71
     3
 72
     8
 73
     4
 74
     0
 42
0.0000000001
 43
0.0000000001
 40
0.0
 40
0.0
 40
0.0
 40
0.0
 40
1.0
 40
1.0
 40
1.0
 40
1.0
 10
22.8542
 20
14.6415
 30
0.0
 10
22.8328
 20
14.6197
 30
0.0
 10
22.8112
 20
14.5982
 30
0.0
 10
22.79
 20
14.5761
 30
0.0
  0
SPLINE
  5
107
330
1F
100
AcDbEntity
  8
AXIS
 62
   250
100
AcDbSpline
210
0.0
220
0.0
230
1.0
 70
     8
 71
     3
 72
     8
 73
     4
 74
     0
 42
0.0000000001
 43
0.0000000001
 40
0.0
 40
0.0
 40
0.0
 40
0.0
 40
1.0
 40
1.0
 40
1.0
 40
1.0
 10
-13.1619
 20
-21.3748
 30
0.0
 10
-13.183
 20
-21.397
 30
0.0
 10
-13.2046
 20
-21.4184
 30
0.0
 10
-13.226
 20
-21.4403
 30
0.0
  0
SPLINE
  5
108
330
1F
100
AcDbEntity
  8
AXIS
 62
   250
100
AcDbSpline
210
0.0
220
0.0
230
1.0
 70
    24
 71
     3
 72
     8
 73
     4
 74
     0
 42
0.0000000001
 43
0.0000000001
 40
0.0
 40
0.0
 40
0.0
 40
0.0
 40
1.0
 40
1.0
 40
1.0
 40
1.0
 10
22.8548
 20
-21.4403
 30
0.0
 10
22.8548
 20
-21.4403
 30
0.0
 10
22.7907
 20
-21.3759
 30
0.0
 10
22.7907
 20
-21.3759
 30
0.0
  0
SPLINE
  5
109
330
1F
100
AcDbEntity
  8
AXIS
 62
   250
100
AcDbSpline
210
0.0
220
0.0
230
1.0
 70
     8
 71
     3
 72
    12
 73
     8
 74
     0
 42
0.0000000001
 43
0.0000000001
 40
0.0
 40
0.0
 40
0.0
 40
0.0
 40
0.3333333333333333
 40
0.3333333333333333
 40
0.3333333333333333
 40
0.3333333333333333
 40
1.0
 40
1.0
 40
1.0
 40
1.0
 10
-13.6762
 20
15.5676
 30
0.0
 10
-13.7303
 20
15.5591
 30
0.0
 10
-13.7828
 20
15.5494
 30
0.0
 10
-13.8335
 20
15.5282
 30
0.0
 10
-13.8335
 20
15.5282
 30
0.0
 10
-14.0205
 20
15.4508
 30
0.0
 10
-14.1224
 20
15.2843
 30
0.0
 10
-14.1529
 20
15.0909
 30
0.0
  0
SPLINE
  5
10A
330
1F
100
AcDbEntity
  8
AXIS
 62
   250
100
AcDbSpline
210
0.0
220
0.0
230
1.0
 70
     8
 71
     3
 72
    12
 73
     8
 74
     0
 42
0.0000000001
 43
0.0000000001
 40
0.0
 40
0.0
 40
0.0
 40
0.0
 40
0.3333333333333333
 40
0.3333333333333333
 40
0.3333333333333333
 40
0.3333333333333333
 40
1.0
 40
1.0
 40
1.0
 40
1.0
 10
-13.6762
 20
-22.3662
 30
0.0
 10
-13.7303
 20
-22.3578
 30
0.0
 10
-13.7828
 20
-22.348
 30
0.0
 10
-13.8335
 20
-22.3269
 30
0.0
 10
-13.8335
 20
-22.3269
 30
0.0
 10
-14.0205
 20
-22.2495
 30
0.0
 10
-14.1224
 20
-22.0831
 30
0.0
 10
-14.1529
 20
-21.8896
 30
0.0
  0
SPLINE
  5
10B
330
1F
100
AcDbEntity
  8
AXIS
 62
   250
100
AcDbSpline
210
0.0
220
0.0
230
1.0
 70
     8
 71
     3
 72
    12
 73
     8
 74
     0
 42
0.0000000001
 43
0.0000000001
 40
0.0
 40
0.0
 40
0.0
 40
0.0
 40
0.3333333333333333
 40
0.3333333333333333
 40
0.3333333333333333
 40
0.3333333333333333
 40
1.0
 40
1.0
 40
1.0
 40
1.0
 10
23.7811
 20
-21.8896
 30
0.0
 10
23.7504
 20
-22.0831
 30
0.0
 10
23.6487
 20
-22.2495
 30
0.0
 10
23.4617
 20
-22.3269
 30
0.0
 10
23.4617
 20
-22.3269
 30
0.0
 10
23.4108
 20
-22.348
 30
0.0
 10
23.3585
 20
-22.3578
 30
0.0
 10
23.3043
 20
-22.3662
 30
0.0
  0
SPLINE
  5
10C
330
1F
100
AcDbEntity
  8
AXIS
 62
   250
100
AcDbSpline
210
0.0
220
0.0
230
1.0
 70
     8
 71
     3
 72
    12
 73
     8
 74
     0
 42
0.0000000001
 43
0.0000000001
 40
0.0
 40
0.0
 40
0.0
 40
0.0
 40
0.3333333333333333
 40
0.3333333333333333
 40
0.3333333333333333
 40
0.3333333333333333
 40
1.0
 40
1.0
 40
1.0
 40
1.0
 10
23.7811
 20
15.0909
 30
0.0
 10
23.7504
 20
15.2843
 30
0.0
 10
23.6487
 20
15.4508
 30
0.0
 10
23.4617
 20
15.5282
 30
0.0
 10
23.4617
 20
15.5282
 30
0.0
 10
23.4108
 20
15.5494
 30
0.0
 10
23.3585
 20
15.5591
 30
0.0
 10
23.3043
 20
15.5676
 30
0.0
  0
SPLINE
  5
10D
330
1F
100
AcDbEntity
  8
AXIS
 62
   250
100
AcDbSpline
210
0.0
220
0.0
230
1.0
 70
    11
 71
     3
 72
    76
 73
    72
 74
     0
 42
0.0000000001
 43
0.0000000001
 40
0.0
 40
0.0
 40
0.0
 40
0.0
 40
0.0526315789473684
 40
0.0526315789473684
 40
0.0526315789473684
 40
0.0526315789473684
 40
0.1052631578947368
 40
0.1052631578947368
 40
0.1052631578947368
 40
0.1052631578947368
 40
0.1578947368421053
 40
0.1578947368421053
 40
0.1578947368421053
 40
0.1578947368421053
 40
0.2105263157894737
 40
0.2105263157894737
 40
0.2105263157894737
 40
0.2105263157894737
 40
0.2631578947368421
 40
0.2631578947368421
 40
0.2631578947368421
 40
0.2631578947368421
 40
0.3157894736842105
 40
0.3157894736842105
 40
0.3157894736842105
 40
0.3157894736842105
 40
0.3684210526315789
 40
0.3684210526315789
 40
0.3684210526315789
 40
0.3684210526315789
 40
0.4210526315789473
 40
0.4210526315789473
 40
0.4210526315789473
 40
0.4210526315789473
 40
0.4736842105263158
 40
0.4736842105263158
 40
0.4736842105263158
 40
0.4736842105263158
 40
0.5263157894736842
 40
0.5263157894736842
 40
0.5263157894736842
 40
0.5263157894736842
 40
0.5789473684210527
 40
0.5789473684210527
 40
0.5789473684210527
 40
0.5789473684210527
 40
0.631578947368421
 40
0.631578947368421
 40
0.631578947368421
 40
0.631578947368421
 40
0.6842105263157895
 40
0.6842105263157895
 40
0.6842105263157895
 40
0.6842105263157895
 40
0.7368421052631579
 40
0.7368421052631579
 40
0.7368421052631579
 40
0.7368421052631579
 40
0.7894736842105263
 40
0.7894736842105263
 40
0.7894736842105263
 40
0.7894736842105263
 40
0.8421052631578947
 40
0.8421052631578947
 40
0.8421052631578947
 40
0.8421052631578947
 40
0.8947368421052632
 40
0.8947368421052632
 40
0.8947368421052632
 40
0.8947368421052632
 40
1.0
 40
1.0
 40
1.0
 40
1.0
 10
-4.2835
 20
-3.3993
 30
0.0
 10
-4.2701
 20
-3.893
 30
0.0
 10
-4.2436
 20
-4.3829
 30
0.0
 10
-4.1636
 20
-4.8712
 30
0.0
 10
-4.1636
 20
-4.8712
 30
0.0
 10
-3.9908
 20
-5.9253
 30
0.0
 10
-3.6279
 20
-6.9459
 30
0.0
 10
-3.1025
 20
-7.8752
 30
0.0
 10
-3.1025
 20
-7.8752
 30
0.0
 10
-2.5354
 20
-8.8783
 30
0.0
 10
-1.7818
 20
-9.7655
 30
0.0
 10
-0.8835
 20
-10.4875
 30
0.0
 10
-0.8835
 20
-10.4875
 30
0.0
 10
0.0146
 20
-11.2094
 30
0.0
 10
1.043
 20
-11.7547
 30
0.0
 10
2.1446
 20
-12.0929
 30
0.0
 10
2.1446
 20
-12.0929
 30
0.0
 10
3.1653
 20
-12.4063
 30
0.0
 10
4.2399
 20
-12.5414
 30
0.0
 10
5.3066
 20
-12.4835
 30
0.0
 10
5.3066
 20
-12.4835
 30
0.0
 10
6.2888
 20
-12.4303
 30
0.0
 10
7.2677
 20
-12.2149
 30
0.0
 10
8.1814
 20
-11.8508
 30
0.0
 10
8.1814
 20
-11.8508
 30
0.0
 10
9.4007
 20
-11.3649
 30
0.0
 10
10.5162
 20
-10.6086
 30
0.0
 10
11.4188
 20
-9.6558
 30
0.0
 10
11.4188
 20
-9.6558
 30
0.0
 10
12.4349
 20
-8.5831
 30
0.0
 10
13.1848
 20
-7.2568
 30
0.0
 10
13.58
 20
-5.8332
 30
0.0
 10
13.58
 20
-5.8332
 30
0.0
 10
13.8658
 20
-4.8039
 30
0.0
 10
13.9649
 20
-3.7253
 30
0.0
 10
13.8783
 20
-2.6612
 30
0.0
 10
13.8783
 20
-2.6612
 30
0.0
 10
13.7714
 20
-1.3483
 30
0.0
 10
13.3789
 20
-0.0703
 30
0.0
 10
12.7307
 20
1.0765
 30
0.0
 10
12.7307
 20
1.0765
 30
0.0
 10
12.0823
 20
2.2231
 30
0.0
 10
11.1895
 20
3.2184
 30
0.0
 10
10.1196
 20
3.9869
 30
0.0
 10
10.1196
 20
3.9869
 30
0.0
 10
8.9851
 20
4.8017
 30
0.0
 10
7.6654
 20
5.3522
 30
0.0
 10
6.2859
 20
5.5783
 30
0.0
 10
6.2859
 20
5.5783
 30
0.0
 10
5.7976
 20
5.6584
 30
0.0
 10
5.3079
 20
5.6848
 30
0.0
 10
4.814
 20
5.6981
 30
0.0
 10
4.814
 20
5.6981
 30
0.0
 10
4.4854
 20
5.6894
 30
0.0
 10
4.1576
 20
5.6805
 30
0.0
 10
3.8304
 20
5.6448
 30
0.0
 10
3.8304
 20
5.6448
 30
0.0
 10
3.0158
 20
5.5562
 30
0.0
 10
2.208
 20
5.3554
 30
0.0
 10
1.4466
 20
5.0521
 30
0.0
 10
1.4466
 20
5.0521
 30
0.0
 10
-1.0113
 20
4.0726
 30
0.0
 10
-2.9624
 20
2.013
 30
0.0
 10
-3.8073
 20
-0.4945
 30
0.0
 10
-3.8073
 20
-0.4945
 30
0.0
 10
-4.0165
 20
-1.1157
 30
0.0
 10
-4.1593
 20
-1.7641
 30
0.0
 10
-4.2302
 20
-2.4157
 30
0.0
 10
-4.2302
 20
-2.4157
 30
0.0
 10
-4.2658
 20
-2.7429
 30
0.0
 10
-4.2746
 20
-3.0707
 30
0.0
 10
-4.2835
 20
-3.3993
 30
0.0
  0
SPLINE
  5
10E
330
1F
100
AcDbEntity
  8
AXIS
 62
   250
100
AcDbSpline
210
0.0
220
0.0
230
1.0
 70
    24
 71
     3
 72
     8
 73
     4
 74
     0
 42
0.0000000001
 43
0.0000000001
 40
0.0
 40
0.0
 40
0.0
 40
0.0
 40
1.0
 40
1.0
 40
1.0
 40
1.0
 10
-4.2383
 20
-3.3993
 30
0.0
 10
-4.2383
 20
-3.3993
 30
0.0
 10
-4.219
 20
-2.8073
 30
0.0
 10
-4.219
 20
-2.8073
 30
0.0
  0
SPLINE
  5
10F
330
1F
100
AcDbEntity
  8
AXIS
 62
   250
100
AcDbSpline
210
0.0
220
0.0
230
1.0
 70
     8
 71
     3
 72
    80
 73
    76
 74
     0
 42
0.0000000001
 43
0.0000000001
 40
0.0
 40
0.0
 40
0.0
 40
0.0
 40
0.05
 40
0.05
 40
0.05
 40
0.05
 40
0.1
 40
0.1
 40
0.1
 40
0.1
 40
0.15
 40
0.15
 40
0.15
 40
0.15
 40
0.2
 40
0.2
 40
0.2
 40
0.2
 40
0.25
 40
0.25
 40
0.25
 40
0.25
 40
0.3
 40
0.3
 40
0.3
 40
0.3
 40
0.35
 40
0.35
 40
0.35
 40
0.35
 40
0.4
 40
0.4
 40
0.4
 40
0.4
 40
0.45
 40
0.45
 40
0.45
 40
0.45
 40
0.5
 40
0.5
 40
0.5
 40
0.5
 40
0.55
 40
0.55
 40
0.55
 40
0.55
 40
0.6
 40
0.6
 40
0.6
 40
0.6
 40
0.65
 40
0.65
 40
0.65
 40
0.65
 40
0.7
 40
0.7
 40
0.7
 40
0.7
 40
0.75
 40
0.75
 40
0.75
 40
0.75
 40
0.8
 40
0.8
 40
0.8
 40
0.8
 40
0.85
 40
0.85
 40
0.85
 40
0.85
 40
0.9
 40
0.9
 40
0.9
 40
0.9
 40
1.0
 40
1.0
 40
1.0
 40
1.0
 10
-4.219
 20
-2.8073
 30
0.0
 10
-4.1933
 20
-2.4149
 30
0.0
 10
-4.1411
 20
-2.019
 30
0.0
 10
-4.0644
 20
-1.6332
 30
0.0
 10
-4.0644
 20
-1.6332
 30
0.0
 10
-3.8138
 20
-0.373
 30
0.0
 10
-3.288
 20
0.8273
 30
0.0
 10
-2.5402
 20
1.8706
 30
0.0
 10
-2.5402
 20
1.8706
 30
0.0
 10
-1.7323
 20
2.9981
 30
0.0
 10
-0.6743
 20
3.926
 30
0.0
 10
0.5491
 20
4.5798
 30
0.0
 10
0.5491
 20
4.5798
 30
0.0
 10
1.5973
 20
5.1403
 30
0.0
 10
2.7444
 20
5.4881
 30
0.0
 10
3.9272
 20
5.6047
 30
0.0
 10
3.9272
 20
5.6047
 30
0.0
 10
5.1102
 20
5.7212
 30
0.0
 10
6.303
 20
5.6037
 30
0.0
 10
7.4405
 20
5.2587
 30
0.0
 10
7.4405
 20
5.2587
 30
0.0
 10
8.4795
 20
4.9434
 30
0.0
 10
9.4624
 20
4.4441
 30
0.0
 10
10.3248
 20
3.7824
 30
0.0
 10
10.3248
 20
3.7824
 30
0.0
 10
11.1059
 20
3.183
 30
0.0
 10
11.7939
 20
2.4485
 30
0.0
 10
12.3408
 20
1.6299
 30
0.0
 10
12.3408
 20
1.6299
 30
0.0
 10
13.2178
 20
0.3176
 30
0.0
 10
13.7439
 20
-1.2323
 30
0.0
 10
13.8471
 20
-2.8073
 30
0.0
 10
13.8471
 20
-2.8073
 30
0.0
 10
13.9373
 20
-4.1842
 30
0.0
 10
13.7055
 20
-5.5887
 30
0.0
 10
13.1774
 20
-6.8636
 30
0.0
 10
13.1774
 20
-6.8636
 30
0.0
 10
12.8006
 20
-7.7731
 30
0.0
 10
12.2692
 20
-8.6278
 30
0.0
 10
11.62
 20
-9.3681
 30
0.0
 10
11.62
 20
-9.3681
 30
0.0
 10
10.9708
 20
-10.1083
 30
0.0
 10
10.1929
 20
-10.7467
 30
0.0
 10
9.3403
 20
-11.2389
 30
0.0
 10
9.3403
 20
-11.2389
 30
0.0
 10
8.3166
 20
-11.83
 30
0.0
 10
7.1676
 20
-12.22
 30
0.0
 10
5.9956
 20
-12.3743
 30
0.0
 10
5.9956
 20
-12.3743
 30
0.0
 10
5.6029
 20
-12.426
 30
0.0
 10
5.2094
 20
-12.4389
 30
0.0
 10
4.814
 20
-12.4517
 30
0.0
 10
4.814
 20
-12.4517
 30
0.0
 10
4.4187
 20
-12.4389
 30
0.0
 10
4.0252
 20
-12.426
 30
0.0
 10
3.6325
 20
-12.3743
 30
0.0
 10
3.6325
 20
-12.3743
 30
0.0
 10
3.0471
 20
-12.2972
 30
0.0
 10
2.4633
 20
-12.1611
 30
0.0
 10
1.9043
 20
-11.9714
 30
0.0
 10
1.9043
 20
-11.9714
 30
0.0
 10
0.5975
 20
-11.5277
 30
0.0
 10
-0.6113
 20
-10.7762
 30
0.0
 10
-1.5869
 20
-9.8004
 30
0.0
 10
-1.5869
 20
-9.8004
 30
0.0
 10
-2.5627
 20
-8.8246
 30
0.0
 10
-3.3144
 20
-7.6158
 30
0.0
 10
-3.7579
 20
-6.3091
 30
0.0
 10
-3.7579
 20
-6.3091
 30
0.0
 10
-3.9477
 20
-5.7501
 30
0.0
 10
-4.0838
 20
-5.1663
 30
0.0
 10
-4.1609
 20
-4.5809
 30
0.0
 10
-4.1609
 20
-4.5809
 30
0.0
 10
-4.2125
 20
-4.1882
 30
0.0
 10
-4.2255
 20
-3.7946
 30
0.0
 10
-4.2383
 20
-3.3993
 30
0.0
  0
SPLINE
  5
110
330
1F
100
AcDbEntity
  8
AXIS
 62
   250
100
AcDbSpline
210
0.0
220
0.0
230
1.0
 70
    24
 71
     3
 72
     8
 73
     4
 74
     0
 42
0.0000000001
 43
0.0000000001
 40
0.0
 40
0.0
 40
0.0
 40
0.0
 40
1.0
 40
1.0
 40
1.0
 40
1.0
 10
23.7811
 20
25.3329
 30
0.0
 10
23.7811
 20
25.3329
 30
0.0
 10
-14.1529
 20
25.3329
 30
0.0
 10
-14.1529
 20
25.3329
 30
0.0
  0
SPLINE
  5
111
330
1F
100
AcDbEntity
  8
AXIS
 62
   250
100
AcDbSpline
210
0.0
220
0.0
230
1.0
 70
    24
 71
     3
 72
     8
 73
     4
 74
     0
 42
0.0000000001
 43
0.0000000001
 40
0.0
 40
0.0
 40
0.0
 40
0.0
 40
1.0
 40
1.0
 40
1.0
 40
1.0
 10
14.2455
 20
24.9881
 30
0.0
 10
14.2455
 20
24.9881
 30
0.0
 10
23.7811
 20
25.0714
 30
0.0
 10
23.7811
 20
25.0714
 30
0.0
  0
SPLINE
  5
112
330
1F
100
AcDbEntity
  8
AXIS
 62
   250
100
AcDbSpline
210
0.0
220
0.0
230
1.0
 70
    24
 71
     3
 72
     8
 73
     4
 74
     0
 42
0.0000000001
 43
0.0000000001
 40
0.0
 40
0.0
 40
0.0
 40
0.0
 40
1.0
 40
1.0
 40
1.0
 40
1.0
 10
23.7811
 20
25.0794
 30
0.0
 10
23.7811
 20
25.0794
 30
0.0
 10
23.7833
 20
25.0788
 30
0.0
 10
23.7833
 20
25.0788
 30
0.0
  0
SPLINE
  5
113
330
1F
100
AcDbEntity
  8
AXIS
 62
   250
100
AcDbSpline
210
0.0
220
0.0
230
1.0
 70
    24
 71
     3
 72
     8
 73
     4
 74
     0
 42
0.0000000001
 43
0.0000000001
 40
0.0
 40
0.0
 40
0.0
 40
0.0
 40
1.0
 40
1.0
 40
1.0
 40
1.0
 10
23.7811
 20
25.0753
 30
0.0
 10
23.7811
 20
25.0753
 30
0.0
 10
23.7832
 20
25.0757
 30
0.0
 10
23.7832
 20
25.0757
 30
0.0
  0
SPLINE
  5
114
330
1F
100
AcDbEntity
  8
AXIS
 62
   250
100
AcDbSpline
210
0.0
220
0.0
230
1.0
 70
    24
 71
     3
 72
     8
 73
     4
 74
     0
 42
0.0000000001
 43
0.0000000001
 40
0.0
 40
0.0
 40
0.0
 40
0.0
 40
1.0
 40
1.0
 40
1.0
 40
1.0
 10
23.7811
 20
25.0985
 30
0.0
 10
23.7811
 20
25.0985
 30
0.0
 10
23.7831
 20
25.0969
 30
0.0
 10
23.7831
 20
25.0969
 30
0.0
  0
SPLINE
  5
115
330
1F
100
AcDbEntity
  8
AXIS
 62
   250
100
AcDbSpline
210
0.0
220
0.0
230
1.0
 70
    24
 71
     3
 72
     8
 73
     4
 74
     0
 42
0.0000000001
 43
0.0000000001
 40
0.0
 40
0.0
 40
0.0
 40
0.0
 40
1.0
 40
1.0
 40
1.0
 40
1.0
 10
14.2113
 20
22.7466
 30
0.0
 10
14.2113
 20
22.7466
 30
0.0
 10
14.2504
 20
24.9881
 30
0.0
 10
14.2504
 20
24.9881
 30
0.0
  0
SPLINE
  5
116
330
1F
100
AcDbEntity
  8
AXIS
 62
   250
100
AcDbSpline
210
0.0
220
0.0
230
1.0
 70
    24
 71
     3
 72
     8
 73
     4
 74
     0
 42
0.0000000001
 43
0.0000000001
 40
0.0
 40
0.0
 40
0.0
 40
0.0
 40
1.0
 40
1.0
 40
1.0
 40
1.0
 10
-4.5832
 20
22.7466
 30
0.0
 10
-4.5832
 20
22.7466
 30
0.0
 10
14.2113
 20
22.7466
 30
0.0
 10
14.2113
 20
22.7466
 30
0.0
  0
SPLINE
  5
117
330
1F
100
AcDbEntity
  8
AXIS
 62
   250
100
AcDbSpline
210
0.0
220
0.0
230
1.0
 70
    24
 71
     3
 72
     8
 73
     4
 74
     0
 42
0.0000000001
 43
0.0000000001
 40
0.0
 40
0.0
 40
0.0
 40
0.0
 40
1.0
 40
1.0
 40
1.0
 40
1.0
 10
-4.6223
 20
24.9881
 30
0.0
 10
-4.6223
 20
24.9881
 30
0.0
 10
-4.5832
 20
22.7466
 30
0.0
 10
-4.5832
 20
22.7466
 30
0.0
  0
SPLINE
  5
118
330
1F
100
AcDbEntity
  8
AXIS
 62
   250
100
AcDbSpline
210
0.0
220
0.0
230
1.0
 70
    24
 71
     3
 72
     8
 73
     4
 74
     0
 42
0.0000000001
 43
0.0000000001
 40
0.0
 40
0.0
 40
0.0
 40
0.0
 40
1.0
 40
1.0
 40
1.0
 40
1.0
 10
-13.6356
 20
25.3329
 30
0.0
 10
-13.6356
 20
25.3329
 30
0.0
 10
-13.6356
 20
25.1367
 30
0.0
 10
-13.6356
 20
25.1367
 30
0.0
  0
SPLINE
  5
119
330
1F
100
AcDbEntity
  8
AXIS
 62
   250
100
AcDbSpline
210
0.0
220
0.0
230
1.0
 70
    24
 71
     3
 72
     8
 73
     4
 74
     0
 42
0.0000000001
 43
0.0000000001
 40
0.0
 40
0.0
 40
0.0
 40
0.0
 40
1.0
 40
1.0
 40
1.0
 40
1.0
 10
-4.6223
 20
24.9881
 30
0.0
 10
-4.6223
 20
24.9881
 30
0.0
 10
-14.1529
 20
25.0713
 30
0.0
 10
-14.1529
 20
25.0713
 30
0.0
  0
SPLINE
  5
11A
330
1F
100
AcDbEntity
  8
AXIS
 62
   250
100
AcDbSpline
210
0.0
220
0.0
230
1.0
 70
    24
 71
     3
 72
     8
 73
     4
 74
     0
 42
0.0000000001
 43
0.0000000001
 40
0.0
 40
0.0
 40
0.0
 40
0.0
 40
1.0
 40
1.0
 40
1.0
 40
1.0
 10
-4.6223
 20
24.9881
 30
0.0
 10
-4.6223
 20
24.9881
 30
0.0
 10
14.2504
 20
24.9881
 30
0.0
 10
14.2504
 20
24.9881
 30
0.0
  0
SPLINE
  5
11B
330
1F
100
AcDbEntity
  8
AXIS
 62
   250
100
AcDbSpline
210
0.0
220
0.0
230
1.0
 70
    24
 71
     3
 72
     8
 73
     4
 74
     0
 42
0.0000000001
 43
0.0000000001
 40
0.0
 40
0.0
 40
0.0
 40
0.0
 40
1.0
 40
1.0
 40
1.0
 40
1.0
 10
23.2638
 20
25.1367
 30
0.0
 10
23.2638
 20
25.1367
 30
0.0
 10
23.2638
 20
25.3329
 30
0.0
 10
23.2638
 20
25.3329
 30
0.0
  0
SPLINE
  5
11C
330
1F
100
AcDbEntity
  8
AXIS
 62
   250
100
AcDbSpline
210
0.0
220
0.0
230
1.0
 70
    24
 71
     3
 72
     8
 73
     4
 74
     0
 42
0.0000000001
 43
0.0000000001
 40
0.0
 40
0.0
 40
0.0
 40
0.0
 40
1.0
 40
1.0
 40
1.0
 40
1.0
 10
23.7811
 20
25.0713
 30
0.0
 10
23.7811
 20
25.0713
 30
0.0
 10
14.2504
 20
24.9881
 30
0.0
 10
14.2504
 20
24.9881
 30
0.0
  0
SPLINE
  5
11D
330
1F
100
AcDbEntity
  8
AXIS
 62
   250
100
AcDbSpline
210
0.0
220
0.0
230
1.0
 70
    24
 71
     3
 72
     8
 73
     4
 74
     0
 42
0.0000000001
 43
0.0000000001
 40
0.0
 40
0.0
 40
0.0
 40
0.0
 40
1.0
 40
1.0
 40
1.0
 40
1.0
 10
-14.1548
 20
25.1049
 30
0.0
 10
-14.1548
 20
25.1049
 30
0.0
 10
-14.1529
 20
25.1134
 30
0.0
 10
-14.1529
 20
25.1134
 30
0.0
  0
SPLINE
  5
11E
330
1F
100
AcDbEntity
  8
AXIS
 62
   250
100
AcDbSpline
210
0.0
220
0.0
230
1.0
 70
    24
 71
     3
 72
     8
 73
     4
 74
     0
 42
0.0000000001
 43
0.0000000001
 40
0.0
 40
0.0
 40
0.0
 40
0.0
 40
1.0
 40
1.0
 40
1.0
 40
1.0
 10
-14.1529
 20
25.081
 30
0.0
 10
-14.1529
 20
25.081
 30
0.0
 10
-14.1529
 20
25.0845
 30
0.0
 10
-14.1529
 20
25.0845
 30
0.0
  0
SPLINE
  5
11F
330
1F
100
AcDbEntity
  8
AXIS
 62
   250
100
AcDbSpline
210
0.0
220
0.0
230
1.0
 70
    24
 71
     3
 72
     8
 73
     4
 74
     0
 42
0.0000000001
 43
0.0000000001
 40
0.0
 40
0.0
 40
0.0
 40
0.0
 40
1.0
 40
1.0
 40
1.0
 40
1.0
 10
-14.1529
 20
25.3329
 30
0.0
 10
-14.1529
 20
25.3329
 30
0.0
 10
-14.153
 20
25.1282
 30
0.0
 10
-14.153
 20
25.1282
 30
0.0
  0
SPLINE
  5
120
330
1F
100
AcDbEntity
  8
AXIS
 62
   250
100
AcDbSpline
210
0.0
220
0.0
230
1.0
 70
     8
 71
     3
 72
     8
 73
     4
 74
     0
 42
0.0000000001
 43
0.0000000001
 40
0.0
 40
0.0
 40
0.0
 40
0.0
 40
1.0
 40
1.0
 40
1.0
 40
1.0
 10
-13.2908
 20
25.3329
 30
0.0
 10
-13.2908
 20
25.3716
 30
0.0
 10
-13.2648
 20
25.4062
 30
0.0
 10
-13.226
 20
25.4163
 30
0.0
  0
SPLINE
  5
121
330
1F
100
AcDbEntity
  8
AXIS
 62
   250
100
AcDbSpline
210
0.0
220
0.0
230
1.0
 70
     8
 71
     3
 72
    24
 73
    20
 74
     0
 42
0.0000000001
 43
0.0000000001
 40
0.0
 40
0.0
 40
0.0
 40
0.0
 40
0.1666666666666667
 40
0.1666666666666667
 40
0.1666666666666667
 40
0.1666666666666667
 40
0.3333333333333333
 40
0.3333333333333333
 40
0.3333333333333333
 40
0.3333333333333333
 40
0.5
 40
0.5
 40
0.5
 40
0.5
 40
0.6666666666666666
 40
0.6666666666666666
 40
0.6666666666666666
 40
0.6666666666666666
 40
1.0
 40
1.0
 40
1.0
 40
1.0
 10
-13.226
 20
25.4163
 30
0.0
 10
-13.226
 20
25.4163
 30
0.0
 10
-13.2046
 20
25.4192
 30
0.0
 10
-13.2046
 20
25.4192
 30
0.0
 10
-13.2046
 20
25.4192
 30
0.0
 10
-13.2046
 20
25.4192
 30
0.0
 10
-12.8597
 20
25.4192
 30
0.0
 10
-12.8597
 20
25.4192
 30
0.0
 10
-12.8597
 20
25.4192
 30
0.0
 10
-12.8597
 20
25.4192
 30
0.0
 10
22.4882
 20
25.4192
 30
0.0
 10
22.4882
 20
25.4192
 30
0.0
 10
22.4882
 20
25.4192
 30
0.0
 10
22.4882
 20
25.4192
 30
0.0
 10
22.833
 20
25.4192
 30
0.0
 10
22.833
 20
25.4192
 30
0.0
 10
22.833
 20
25.4192
 30
0.0
 10
22.833
 20
25.4192
 30
0.0
 10
22.8548
 20
25.4163
 30
0.0
 10
22.8548
 20
25.4163
 30
0.0
  0
SPLINE
  5
122
330
1F
100
AcDbEntity
  8
AXIS
 62
   250
100
AcDbSpline
210
0.0
220
0.0
230
1.0
 70
     8
 71
     3
 72
     8
 73
     4
 74
     0
 42
0.0000000001
 43
0.0000000001
 40
0.0
 40
0.0
 40
0.0
 40
0.0
 40
1.0
 40
1.0
 40
1.0
 40
1.0
 10
22.8548
 20
25.4163
 30
0.0
 10
22.8932
 20
25.4086
 30
0.0
 10
22.9189
 20
25.3689
 30
0.0
 10
22.9189
 20
25.3329
 30
0.0
  0
SPLINE
  5
123
330
1F
100
AcDbEntity
  8
AXIS
 62
   250
100
AcDbSpline
210
0.0
220
0.0
230
1.0
 70
    24
 71
     3
 72
     8
 73
     4
 74
     0
 42
0.0000000001
 43
0.0000000001
 40
0.0
 40
0.0
 40
0.0
 40
0.0
 40
1.0
 40
1.0
 40
1.0
 40
1.0
 10
23.7811
 20
25.3329
 30
0.0
 10
23.7811
 20
25.3329
 30
0.0
 10
23.7811
 20
25.1282
 30
0.0
 10
23.7811
 20
25.1282
 30
0.0
  0
SPLINE
  5
124
330
1F
100
AcDbEntity
  8
AXIS
 62
   250
100
AcDbSpline
210
0.0
220
0.0
230
1.0
 70
     8
 71
     3
 72
    16
 73
    12
 74
     0
 42
0.0000000001
 43
0.0000000001
 40
0.0
 40
0.0
 40
0.0
 40
0.0
 40
0.25
 40
0.25
 40
0.25
 40
0.25
 40
0.5
 40
0.5
 40
0.5
 40
0.5
 40
1.0
 40
1.0
 40
1.0
 40
1.0
 10
23.7794
 20
25.1369
 30
0.0
 10
23.7201
 20
25.1396
 30
0.0
 10
23.6601
 20
25.1379
 30
0.0
 10
23.6008
 20
25.138
 30
0.0
 10
23.6008
 20
25.138
 30
0.0
 10
18.5075
 20
25.1227
 30
0.0
 10
13.4142
 20
25.0859
 30
0.0
 10
8.3207
 20
25.0742
 30
0.0
 10
8.3207
 20
25.0742
 30
0.0
 10
5.7891
 20
25.0745
 30
0.0
 10
3.2574
 20
25.0698
 30
0.0
 10
0.7258
 20
25.0751
 30
0.0
  0
SPLINE
  5
125
330
1F
100
AcDbEntity
  8
AXIS
 62
   250
100
AcDbSpline
210
0.0
220
0.0
230
1.0
 70
     8
 71
     3
 72
    12
 73
     8
 74
     0
 42
0.0000000001
 43
0.0000000001
 40
0.0
 40
0.0
 40
0.0
 40
0.0
 40
0.3333333333333333
 40
0.3333333333333333
 40
0.3333333333333333
 40
0.3333333333333333
 40
1.0
 40
1.0
 40
1.0
 40
1.0
 10
0.7258
 20
25.0751
 30
0.0
 10
0.7258
 20
25.0751
 30
0.0
 10
0.3809
 20
25.0765
 30
0.0
 10
0.3809
 20
25.0765
 30
0.0
 10
0.3809
 20
25.0765
 30
0.0
 10
0.3809
 20
25.0765
 30
0.0
 10
-11.0921
 20
25.1224
 30
0.0
 10
-11.0921
 20
25.1224
 30
0.0
  0
SPLINE
  5
126
330
1F
100
AcDbEntity
  8
AXIS
 62
   250
100
AcDbSpline
210
0.0
220
0.0
230
1.0
 70
     8
 71
     3
 72
    12
 73
     8
 74
     0
 42
0.0000000001
 43
0.0000000001
 40
0.0
 40
0.0
 40
0.0
 40
0.0
 40
0.3333333333333333
 40
0.3333333333333333
 40
0.3333333333333333
 40
0.3333333333333333
 40
1.0
 40
1.0
 40
1.0
 40
1.0
 10
-11.0921
 20
25.1224
 30
0.0
 10
-12.0711
 20
25.1263
 30
0.0
 10
-13.05
 20
25.1375
 30
0.0
 10
-14.029
 20
25.138
 30
0.0
 10
-14.029
 20
25.138
 30
0.0
 10
-14.0697
 20
25.1379
 30
0.0
 10
-14.1107
 20
25.1387
 30
0.0
 10
-14.1514
 20
25.1369
 30
0.0
  0
SPLINE
  5
127
330
1F
100
AcDbEntity
  8
AXIS
 62
   250
100
AcDbSpline
210
0.0
220
0.0
230
1.0
 70
    24
 71
     3
 72
     8
 73
     4
 74
     0
 42
0.0000000001
 43
0.0000000001
 40
0.0
 40
0.0
 40
0.0
 40
0.0
 40
1.0
 40
1.0
 40
1.0
 40
1.0
 10
-22.2851
 20
22.8113
 30
0.0
 10
-22.2851
 20
22.8113
 30
0.0
 10
-17.5792
 20
22.8113
 30
0.0
 10
-17.5792
 20
22.8113
 30
0.0
  0
SPLINE
  5
128
330
1F
100
AcDbEntity
  8
AXIS
 62
   250
100
AcDbSpline
210
0.0
220
0.0
230
1.0
 70
    24
 71
     3
 72
     8
 73
     4
 74
     0
 42
0.0000000001
 43
0.0000000001
 40
0.0
 40
0.0
 40
0.0
 40
0.0
 40
1.0
 40
1.0
 40
1.0
 40
1.0
 10
-22.219
 20
25.4851
 30
0.0
 10
-22.219
 20
25.4851
 30
0.0
 10
-14.546
 20
25.4851
 30
0.0
 10
-14.546
 20
25.4851
 30
0.0
  0
SPLINE
  5
129
330
1F
100
AcDbEntity
  8
AXIS
 62
   250
100
AcDbSpline
210
0.0
220
0.0
230
1.0
 70
    24
 71
     3
 72
     8
 73
     4
 74
     0
 42
0.0000000001
 43
0.0000000001
 40
0.0
 40
0.0
 40
0.0
 40
0.0
 40
1.0
 40
1.0
 40
1.0
 40
1.0
 10
-21.6479
 20
28.9049
 30
0.0
 10
-21.6479
 20
28.9049
 30
0.0
 10
-21.6479
 20
19.2476
 30
0.0
 10
-21.6479
 20
19.2476
 30
0.0
  0
SPLINE
  5
12A
330
1F
100
AcDbEntity
  8
AXIS
 62
   250
100
AcDbSpline
210
0.0
220
0.0
230
1.0
 70
    11
 71
     3
 72
    40
 73
    36
 74
     0
 42
0.0000000001
 43
0.0000000001
 40
0.0
 40
0.0
 40
0.0
 40
0.0
 40
0.1
 40
0.1
 40
0.1
 40
0.1
 40
0.2
 40
0.2
 40
0.2
 40
0.2
 40
0.3
 40
0.3
 40
0.3
 40
0.3
 40
0.4
 40
0.4
 40
0.4
 40
0.4
 40
0.5
 40
0.5
 40
0.5
 40
0.5
 40
0.6
 40
0.6
 40
0.6
 40
0.6
 40
0.7
 40
0.7
 40
0.7
 40
0.7
 40
0.8
 40
0.8
 40
0.8
 40
0.8
 40
1.0
 40
1.0
 40
1.0
 40
1.0
 10
-22.4956
 20
23.5419
 30
0.0
 10
-22.4956
 20
23.5419
 30
0.0
 10
-22.4956
 20
23.294
 30
0.0
 10
-22.4956
 20
23.294
 30
0.0
 10
-22.4956
 20
23.294
 30
0.0
 10
-22.4956
 20
23.294
 30
0.0
 10
-24.076
 20
23.294
 30
0.0
 10
-24.076
 20
23.294
 30
0.0
 10
-24.076
 20
23.294
 30
0.0
 10
-24.0191
 20
23.2342
 30
0.0
 10
-23.9622
 20
23.1562
 30
0.0
 10
-23.9053
 20
23.0593
 30
0.0
 10
-23.9053
 20
23.0593
 30
0.0
 10
-23.8484
 20
22.9619
 30
0.0
 10
-23.8056
 20
22.8749
 30
0.0
 10
-23.7773
 20
22.7977
 30
0.0
 10
-23.7773
 20
22.7977
 30
0.0
 10
-23.7773
 20
22.7977
 30
0.0
 10
-24.0168
 20
22.7977
 30
0.0
 10
-24.0168
 20
22.7977
 30
0.0
 10
-24.0168
 20
22.7977
 30
0.0
 10
-24.0821
 20
22.9365
 30
0.0
 10
-24.1612
 20
23.0579
 30
0.0
 10
-24.2538
 20
23.1618
 30
0.0
 10
-24.2538
 20
23.1618
 30
0.0
 10
-24.347
 20
23.2653
 30
0.0
 10
-24.4368
 20
23.3391
 30
0.0
 10
-24.5243
 20
23.3824
 30
0.0
 10
-24.5243
 20
23.3824
 30
0.0
 10
-24.5243
 20
23.3824
 30
0.0
 10
-24.5243
 20
23.5419
 30
0.0
 10
-24.5243
 20
23.5419
 30
0.0
 10
-24.5243
 20
23.5419
 30
0.0
 10
-24.5243
 20
23.5419
 30
0.0
 10
-22.4956
 20
23.5419
 30
0.0
 10
-22.4956
 20
23.5419
 30
0.0
  0
SPLINE
  5
12B
330
1F
100
AcDbEntity
  8
AXIS
 62
   250
100
AcDbSpline
210
0.0
220
0.0
230
1.0
 70
    11
 71
     3
 72
    92
 73
    88
 74
     0
 42
0.0000000001
 43
0.0000000001
 40
0.0
 40
0.0
 40
0.0
 40
0.0
 40
0.0434782608695652
 40
0.0434782608695652
 40
0.0434782608695652
 40
0.0434782608695652
 40
0.0869565217391304
 40
0.0869565217391304
 40
0.0869565217391304
 40
0.0869565217391304
 40
0.1304347826086956
 40
0.1304347826086956
 40
0.1304347826086956
 40
0.1304347826086956
 40
0.1739130434782609
 40
0.1739130434782609
 40
0.1739130434782609
 40
0.1739130434782609
 40
0.2173913043478261
 40
0.2173913043478261
 40
0.2173913043478261
 40
0.2173913043478261
 40
0.2608695652173913
 40
0.2608695652173913
 40
0.2608695652173913
 40
0.2608695652173913
 40
0.3043478260869565
 40
0.3043478260869565
 40
0.3043478260869565
 40
0.3043478260869565
 40
0.3478260869565217
 40
0.3478260869565217
 40
0.3478260869565217
 40
0.3478260869565217
 40
0.391304347826087
 40
0.391304347826087
 40
0.391304347826087
 40
0.391304347826087
 40
0.4347826086956522
 40
0.4347826086956522
 40
0.4347826086956522
 40
0.4347826086956522
 40
0.4782608695652174
 40
0.4782608695652174
 40
0.4782608695652174
 40
0.4782608695652174
 40
0.5217391304347826
 40
0.5217391304347826
 40
0.5217391304347826
 40
0.5217391304347826
 40
0.5652173913043478
 40
0.5652173913043478
 40
0.5652173913043478
 40
0.5652173913043478
 40
0.6086956521739131
 40
0.6086956521739131
 40
0.6086956521739131
 40
0.6086956521739131
 40
0.6521739130434783
 40
0.6521739130434783
 40
0.6521739130434783
 40
0.6521739130434783
 40
0.6956521739130435
 40
0.6956521739130435
 40
0.6956521739130435
 40
0.6956521739130435
 40
0.7391304347826086
 40
0.7391304347826086
 40
0.7391304347826086
 40
0.7391304347826086
 40
0.782608695652174
 40
0.782608695652174
 40
0.782608695652174
 40
0.782608695652174
 40
0.8260869565217391
 40
0.8260869565217391
 40
0.8260869565217391
 40
0.8260869565217391
 40
0.8695652173913043
 40
0.8695652173913043
 40
0.8695652173913043
 40
0.8695652173913043
 40
0.9130434782608695
 40
0.9130434782608695
 40
0.9130434782608695
 40
0.9130434782608695
 40
1.0
 40
1.0
 40
1.0
 40
1.0
 10
-23.0248
 20
24.1773
 30
0.0
 10
-23.0248
 20
24.1773
 30
0.0
 10
-23.0469
 20
24.4379
 30
0.0
 10
-23.0469
 20
24.4379
 30
0.0
 10
-23.0469
 20
24.4379
 30
0.0
 10
-22.9199
 20
24.4572
 30
0.0
 10
-22.8249
 20
24.5019
 30
0.0
 10
-22.7609
 20
24.572
 30
0.0
 10
-22.7609
 20
24.572
 30
0.0
 10
-22.6969
 20
24.6425
 30
0.0
 10
-22.6649
 20
24.7272
 30
0.0
 10
-22.6649
 20
24.8264
 30
0.0
 10
-22.6649
 20
24.8264
 30
0.0
 10
-22.6649
 20
24.9459
 30
0.0
 10
-22.7101
 20
25.047
 30
0.0
 10
-22.7999
 20
25.1293
 30
0.0
 10
-22.7999
 20
25.1293
 30
0.0
 10
-22.8902
 20
25.2121
 30
0.0
 10
-23.0097
 20
25.2535
 30
0.0
 10
-23.1583
 20
25.2535
 30
0.0
 10
-23.1583
 20
25.2535
 30
0.0
 10
-23.2999
 20
25.2535
 30
0.0
 10
-23.4114
 20
25.214
 30
0.0
 10
-23.4932
 20
25.1345
 30
0.0
 10
-23.4932
 20
25.1345
 30
0.0
 10
-23.5751
 20
25.055
 30
0.0
 10
-23.616
 20
24.9511
 30
0.0
 10
-23.616
 20
24.8222
 30
0.0
 10
-23.616
 20
24.8222
 30
0.0
 10
-23.616
 20
24.7422
 30
0.0
 10
-23.5977
 20
24.6703
 30
0.0
 10
-23.5615
 20
24.6058
 30
0.0
 10
-23.5615
 20
24.6058
 30
0.0
 10
-23.5252
 20
24.5414
 30
0.0
 10
-23.4782
 20
24.4911
 30
0.0
 10
-23.4203
 20
24.4544
 30
0.0
 10
-23.4203
 20
24.4544
 30
0.0
 10
-23.4203
 20
24.4544
 30
0.0
 10
-23.4504
 20
24.2215
 30
0.0
 10
-23.4504
 20
24.2215
 30
0.0
 10
-23.4504
 20
24.2215
 30
0.0
 10
-23.4504
 20
24.2215
 30
0.0
 10
-24.4881
 20
24.4172
 30
0.0
 10
-24.4881
 20
24.4172
 30
0.0
 10
-24.4881
 20
24.4172
 30
0.0
 10
-24.4881
 20
24.4172
 30
0.0
 10
-24.4881
 20
25.4219
 30
0.0
 10
-24.4881
 20
25.4219
 30
0.0
 10
-24.4881
 20
25.4219
 30
0.0
 10
-24.4881
 20
25.4219
 30
0.0
 10
-24.251
 20
25.4219
 30
0.0
 10
-24.251
 20
25.4219
 30
0.0
 10
-24.251
 20
25.4219
 30
0.0
 10
-24.251
 20
25.4219
 30
0.0
 10
-24.251
 20
24.6157
 30
0.0
 10
-24.251
 20
24.6157
 30
0.0
 10
-24.251
 20
24.6157
 30
0.0
 10
-24.251
 20
24.6157
 30
0.0
 10
-23.7082
 20
24.5066
 30
0.0
 10
-23.7082
 20
24.5066
 30
0.0
 10
-23.7082
 20
24.5066
 30
0.0
 10
-23.7929
 20
24.6279
 30
0.0
 10
-23.8352
 20
24.7554
 30
0.0
 10
-23.8352
 20
24.8885
 30
0.0
 10
-23.8352
 20
24.8885
 30
0.0
 10
-23.8352
 20
25.0649
 30
0.0
 10
-23.7741
 20
25.2135
 30
0.0
 10
-23.6518
 20
25.3349
 30
0.0
 10
-23.6518
 20
25.3349
 30
0.0
 10
-23.5295
 20
25.4562
 30
0.0
 10
-23.3724
 20
25.5169
 30
0.0
 10
-23.1805
 20
25.5169
 30
0.0
 10
-23.1805
 20
25.5169
 30
0.0
 10
-22.9975
 20
25.5169
 30
0.0
 10
-22.8394
 20
25.4633
 30
0.0
 10
-22.7063
 20
25.357
 30
0.0
 10
-22.7063
 20
25.357
 30
0.0
 10
-22.5431
 20
25.2272
 30
0.0
 10
-22.4613
 20
25.0503
 30
0.0
 10
-22.4613
 20
24.8264
 30
0.0
 10
-22.4613
 20
24.8264
 30
0.0
 10
-22.4613
 20
24.6425
 30
0.0
 10
-22.5125
 20
24.4925
 30
0.0
 10
-22.6155
 20
24.3763
 30
0.0
 10
-22.6155
 20
24.3763
 30
0.0
 10
-22.7186
 20
24.2601
 30
0.0
 10
-22.855
 20
24.1938
 30
0.0
 10
-23.0248
 20
24.1773
 30
0.0
  0
SPLINE
  5
12C
330
1F
100
AcDbEntity
  8
AXIS
 62
   250
100
AcDbSpline
210
0.0
220
0.0
230
1.0
 70
    11
 71
     3
 72
    20
 73
    16
 74
     0
 42
0.0000000001
 43
0.0000000001
 40
0.0
 40
0.0
 40
0.0
 40
0.0
 40
0.2
 40
0.2
 40
0.2
 40
0.2
 40
0.4
 40
0.4
 40
0.4
 40
0.4
 40
0.6
 40
0.6
 40
0.6
 40
0.6
 40
1.0
 40
1.0
 40
1.0
 40
1.0
 10
-22.0191
 20
20.2268
 30
0.0
 10
-22.0191
 20
20.2268
 30
0.0
 10
-21.6662
 20
22.7268
 30
0.0
 10
-21.6662
 20
22.7268
 30
0.0
 10
-21.6662
 20
22.7268
 30
0.0
 10
-21.6662
 20
22.7268
 30
0.0
 10
-21.5879
 20
22.7268
 30
0.0
 10
-21.5879
 20
22.7268
 30
0.0
 10
-21.5879
 20
22.7268
 30
0.0
 10
-21.5879
 20
22.7268
 30
0.0
 10
-21.2116
 20
20.2268
 30
0.0
 10
-21.2116
 20
20.2268
 30
0.0
 10
-21.2116
 20
20.2268
 30
0.0
 10
-21.2116
 20
20.2268
 30
0.0
 10
-22.0191
 20
20.2268
 30
0.0
 10
-22.0191
 20
20.2268
 30
0.0
  0
SPLINE
  5
12D
330
1F
100
AcDbEntity
  8
AXIS
 62
   250
100
AcDbSpline
210
0.0
220
0.0
230
1.0
 70
    11
 71
     3
 72
    20
 73
    16
 74
     0
 42
0.0000000001
 43
0.0000000001
 40
0.0
 40
0.0
 40
0.0
 40
0.0
 40
0.2
 40
0.2
 40
0.2
 40
0.2
 40
0.4
 40
0.4
 40
0.4
 40
0.4
 40
0.6
 40
0.6
 40
0.6
 40
0.6
 40
1.0
 40
1.0
 40
1.0
 40
1.0
 10
-21.2392
 20
28.0448
 30
0.0
 10
-21.2392
 20
28.0448
 30
0.0
 10
-21.5921
 20
25.5448
 30
0.0
 10
-21.5921
 20
25.5448
 30
0.0
 10
-21.5921
 20
25.5448
 30
0.0
 10
-21.5921
 20
25.5448
 30
0.0
 10
-21.6704
 20
25.5448
 30
0.0
 10
-21.6704
 20
25.5448
 30
0.0
 10
-21.6704
 20
25.5448
 30
0.0
 10
-21.6704
 20
25.5448
 30
0.0
 10
-22.0467
 20
28.0448
 30
0.0
 10
-22.0467
 20
28.0448
 30
0.0
 10
-22.0467
 20
28.0448
 30
0.0
 10
-22.0467
 20
28.0448
 30
0.0
 10
-21.2392
 20
28.0448
 30
0.0
 10
-21.2392
 20
28.0448
 30
0.0
  0
SPLINE
  5
12E
330
1F
100
AcDbEntity
  8
AXIS
 62
   250
100
AcDbSpline
210
0.0
220
0.0
230
1.0
 70
    24
 71
     3
 72
     8
 73
     4
 74
     0
 42
0.0000000001
 43
0.0000000001
 40
0.0
 40
0.0
 40
0.0
 40
0.0
 40
1.0
 40
1.0
 40
1.0
 40
1.0
 10
-16.5679
 20
30.9997
 30
0.0
 10
-16.5679
 20
30.9997
 30
0.0
 10
-16.5679
 20
21.8275
 30
0.0
 10
-16.5679
 20
21.8275
 30
0.0
  0
SPLINE
  5
12F
330
1F
100
AcDbEntity
  8
AXIS
 62
   250
100
AcDbSpline
210
0.0
220
0.0
230
1.0
 70
    11
 71
     3
 72
    92
 73
    88
 74
     0
 42
0.0000000001
 43
0.0000000001
 40
0.0
 40
0.0
 40
0.0
 40
0.0
 40
0.0434782608695652
 40
0.0434782608695652
 40
0.0434782608695652
 40
0.0434782608695652
 40
0.0869565217391304
 40
0.0869565217391304
 40
0.0869565217391304
 40
0.0869565217391304
 40
0.1304347826086956
 40
0.1304347826086956
 40
0.1304347826086956
 40
0.1304347826086956
 40
0.1739130434782609
 40
0.1739130434782609
 40
0.1739130434782609
 40
0.1739130434782609
 40
0.2173913043478261
 40
0.2173913043478261
 40
0.2173913043478261
 40
0.2173913043478261
 40
0.2608695652173913
 40
0.2608695652173913
 40
0.2608695652173913
 40
0.2608695652173913
 40
0.3043478260869565
 40
0.3043478260869565
 40
0.3043478260869565
 40
0.3043478260869565
 40
0.3478260869565217
 40
0.3478260869565217
 40
0.3478260869565217
 40
0.3478260869565217
 40
0.391304347826087
 40
0.391304347826087
 40
0.391304347826087
 40
0.391304347826087
 40
0.4347826086956522
 40
0.4347826086956522
 40
0.4347826086956522
 40
0.4347826086956522
 40
0.4782608695652174
 40
0.4782608695652174
 40
0.4782608695652174
 40
0.4782608695652174
 40
0.5217391304347826
 40
0.5217391304347826
 40
0.5217391304347826
 40
0.5217391304347826
 40
0.5652173913043478
 40
0.5652173913043478
 40
0.5652173913043478
 40
0.5652173913043478
 40
0.6086956521739131
 40
0.6086956521739131
 40
0.6086956521739131
 40
0.6086956521739131
 40
0.6521739130434783
 40
0.6521739130434783
 40
0.6521739130434783
 40
0.6521739130434783
 40
0.6956521739130435
 40
0.6956521739130435
 40
0.6956521739130435
 40
0.6956521739130435
 40
0.7391304347826086
 40
0.7391304347826086
 40
0.7391304347826086
 40
0.7391304347826086
 40
0.782608695652174
 40
0.782608695652174
 40
0.782608695652174
 40
0.782608695652174
 40
0.8260869565217391
 40
0.8260869565217391
 40
0.8260869565217391
 40
0.8260869565217391
 40
0.8695652173913043
 40
0.8695652173913043
 40
0.8695652173913043
 40
0.8695652173913043
 40
0.9130434782608695
 40
0.9130434782608695
 40
0.9130434782608695
 40
0.9130434782608695
 40
1.0
 40
1.0
 40
1.0
 40
1.0
 10
-17.4777
 20
30.1601
 30
0.0
 10
-17.4777
 20
30.1601
 30
0.0
 10
-17.2392
 20
30.1601
 30
0.0
 10
-17.2392
 20
30.1601
 30
0.0
 10
-17.2392
 20
30.1601
 30
0.0
 10
-17.2392
 20
30.1601
 30
0.0
 10
-17.2392
 20
28.8247
 30
0.0
 10
-17.2392
 20
28.8247
 30
0.0
 10
-17.2392
 20
28.8247
 30
0.0
 10
-17.2989
 20
28.8228
 30
0.0
 10
-17.3563
 20
28.8322
 30
0.0
 10
-17.4114
 20
28.8534
 30
0.0
 10
-17.4114
 20
28.8534
 30
0.0
 10
-17.5026
 20
28.8873
 30
0.0
 10
-17.592
 20
28.9418
 30
0.0
 10
-17.6804
 20
29.0166
 30
0.0
 10
-17.6804
 20
29.0166
 30
0.0
 10
-17.7684
 20
29.0919
 30
0.0
 10
-17.8704
 20
29.2001
 30
0.0
 10
-17.9861
 20
29.3412
 30
0.0
 10
-17.9861
 20
29.3412
 30
0.0
 10
-18.1663
 20
29.5608
 30
0.0
 10
-18.3088
 20
29.7095
 30
0.0
 10
-18.4142
 20
29.7866
 30
0.0
 10
-18.4142
 20
29.7866
 30
0.0
 10
-18.5191
 20
29.8637
 30
0.0
 10
-18.6188
 20
29.9023
 30
0.0
 10
-18.7124
 20
29.9023
 30
0.0
 10
-18.7124
 20
29.9023
 30
0.0
 10
-18.8107
 20
29.9023
 30
0.0
 10
-18.8935
 20
29.867
 30
0.0
 10
-18.9612
 20
29.797
 30
0.0
 10
-18.9612
 20
29.797
 30
0.0
 10
-19.0285
 20
29.7264
 30
0.0
 10
-19.0623
 20
29.6347
 30
0.0
 10
-19.0623
 20
29.5218
 30
0.0
 10
-19.0623
 20
29.5218
 30
0.0
 10
-19.0623
 20
29.4023
 30
0.0
 10
-19.0266
 20
29.3068
 30
0.0
 10
-18.9546
 20
29.2353
 30
0.0
 10
-18.9546
 20
29.2353
 30
0.0
 10
-18.8831
 20
29.1634
 30
0.0
 10
-18.7839
 20
29.1272
 30
0.0
 10
-18.6574
 20
29.1262
 30
0.0
 10
-18.6574
 20
29.1262
 30
0.0
 10
-18.6574
 20
29.1262
 30
0.0
 10
-18.6832
 20
28.8713
 30
0.0
 10
-18.6832
 20
28.8713
 30
0.0
 10
-18.6832
 20
28.8713
 30
0.0
 10
-18.8737
 20
28.8887
 30
0.0
 10
-19.0186
 20
28.9545
 30
0.0
 10
-19.1183
 20
29.0684
 30
0.0
 10
-19.1183
 20
29.0684
 30
0.0
 10
-19.218
 20
29.1822
 30
0.0
 10
-19.2679
 20
29.3355
 30
0.0
 10
-19.2679
 20
29.5274
 30
0.0
 10
-19.2679
 20
29.5274
 30
0.0
 10
-19.2679
 20
29.7212
 30
0.0
 10
-19.2138
 20
29.8746
 30
0.0
 10
-19.1066
 20
29.9875
 30
0.0
 10
-19.1066
 20
29.9875
 30
0.0
 10
-18.9988
 20
30.1008
 30
0.0
 10
-18.8657
 20
30.1573
 30
0.0
 10
-18.7067
 20
30.1573
 30
0.0
 10
-18.7067
 20
30.1573
 30
0.0
 10
-18.6258
 20
30.1573
 30
0.0
 10
-18.5463
 20
30.1408
 30
0.0
 10
-18.4683
 20
30.1074
 30
0.0
 10
-18.4683
 20
30.1074
 30
0.0
 10
-18.3902
 20
30.0745
 30
0.0
 10
-18.3079
 20
30.0194
 30
0.0
 10
-18.2218
 20
29.9428
 30
0.0
 10
-18.2218
 20
29.9428
 30
0.0
 10
-18.1352
 20
29.8661
 30
0.0
 10
-18.0167
 20
29.7386
 30
0.0
 10
-17.8662
 20
29.5604
 30
0.0
 10
-17.8662
 20
29.5604
 30
0.0
 10
-17.7411
 20
29.4117
 30
0.0
 10
-17.6564
 20
29.3162
 30
0.0
 10
-17.6117
 20
29.2739
 30
0.0
 10
-17.6117
 20
29.2739
 30
0.0
 10
-17.5675
 20
29.2316
 30
0.0
 10
-17.5228
 20
29.1968
 30
0.0
 10
-17.4777
 20
29.169
 30
0.0
 10
-17.4777
 20
29.169
 30
0.0
 10
-17.4777
 20
29.169
 30
0.0
 10
-17.4777
 20
30.1601
 30
0.0
 10
-17.4777
 20
30.1601
 30
0.0
  0
SPLINE
  5
130
330
1F
100
AcDbEntity
  8
AXIS
 62
   250
100
AcDbSpline
210
0.0
220
0.0
230
1.0
 70
    11
 71
     3
 72
    20
 73
    16
 74
     0
 42
0.0000000001
 43
0.0000000001
 40
0.0
 40
0.0
 40
0.0
 40
0.0
 40
0.2
 40
0.2
 40
0.2
 40
0.2
 40
0.4
 40
0.4
 40
0.4
 40
0.4
 40
0.6
 40
0.6
 40
0.6
 40
0.6
 40
1.0
 40
1.0
 40
1.0
 40
1.0
 10
-16.9611
 20
22.3656
 30
0.0
 10
-16.9611
 20
22.3656
 30
0.0
 10
-16.6082
 20
24.8656
 30
0.0
 10
-16.6082
 20
24.8656
 30
0.0
 10
-16.6082
 20
24.8656
 30
0.0
 10
-16.6082
 20
24.8656
 30
0.0
 10
-16.5299
 20
24.8656
 30
0.0
 10
-16.5299
 20
24.8656
 30
0.0
 10
-16.5299
 20
24.8656
 30
0.0
 10
-16.5299
 20
24.8656
 30
0.0
 10
-16.1536
 20
22.3656
 30
0.0
 10
-16.1536
 20
22.3656
 30
0.0
 10
-16.1536
 20
22.3656
 30
0.0
 10
-16.1536
 20
22.3656
 30
0.0
 10
-16.9611
 20
22.3656
 30
0.0
 10
-16.9611
 20
22.3656
 30
0.0
  0
SPLINE
  5
131
330
1F
100
AcDbEntity
  8
AXIS
 62
   250
100
AcDbSpline
210
0.0
220
0.0
230
1.0
 70
    11
 71
     3
 72
    20
 73
    16
 74
     0
 42
0.0000000001
 43
0.0000000001
 40
0.0
 40
0.0
 40
0.0
 40
0.0
 40
0.2
 40
0.2
 40
0.2
 40
0.2
 40
0.4
 40
0.4
 40
0.4
 40
0.4
 40
0.6
 40
0.6
 40
0.6
 40
0.6
 40
1.0
 40
1.0
 40
1.0
 40
1.0
 10
-16.1592
 20
28.0448
 30
0.0
 10
-16.1592
 20
28.0448
 30
0.0
 10
-16.5121
 20
25.5448
 30
0.0
 10
-16.5121
 20
25.5448
 30
0.0
 10
-16.5121
 20
25.5448
 30
0.0
 10
-16.5121
 20
25.5448
 30
0.0
 10
-16.5904
 20
25.5448
 30
0.0
 10
-16.5904
 20
25.5448
 30
0.0
 10
-16.5904
 20
25.5448
 30
0.0
 10
-16.5904
 20
25.5448
 30
0.0
 10
-16.9667
 20
28.0448
 30
0.0
 10
-16.9667
 20
28.0448
 30
0.0
 10
-16.9667
 20
28.0448
 30
0.0
 10
-16.9667
 20
28.0448
 30
0.0
 10
-16.1592
 20
28.0448
 30
0.0
 10
-16.1592
 20
28.0448
 30
0.0
  0
SPLINE
  5
132
330
1F
100
AcDbEntity
  8
AXIS
 62
   250
100
AcDbSpline
210
0.0
220
0.0
230
1.0
 70
    24
 71
     3
 72
     8
 73
     4
 74
     0
 42
0.0000000001
 43
0.0000000001
 40
0.0
 40
0.0
 40
0.0
 40
0.0
 40
1.0
 40
1.0
 40
1.0
 40
1.0
 10
-17.0059
 20
24.9119
 30
0.0
 10
-17.0059
 20
24.9119
 30
0.0
 10
-14.5901
 20
24.9119
 30
0.0
 10
-14.5901
 20
24.9119
 30
0.0
  0
SPLINE
  5
133
330
1F
100
AcDbEntity
  8
AXIS
 62
   250
100
AcDbSpline
210
0.0
220
0.0
230
1.0
 70
    24
 71
     3
 72
     8
 73
     4
 74
     0
 42
0.0000000001
 43
0.0000000001
 40
0.0
 40
0.0
 40
0.0
 40
0.0
 40
1.0
 40
1.0
 40
1.0
 40
1.0
 10
-15.7271
 20
22.8113
 30
0.0
 10
-15.7271
 20
22.8113
 30
0.0
 10
-4.9453
 20
22.8113
 30
0.0
 10
-4.9453
 20
22.8113
 30
0.0
  0
ENDSEC
  0
SECTION
  2
OBJECTS
  0
DICTIONARY
  5
C
330
0
100
AcDbDictionary
  3
ACAD_GROUP
350
D
  3
ACAD_LAYOUT
350
1A
  3
ACAD_MATERIAL
350
3B
  3
ACAD_MLEADERSTYLE
350
156
  3
ACAD_MLINESTYLE
350
17
  3
ACAD_PLOTSETTINGS
350
19
  3
ACAD_VISUALSTYLE
350
2A
  3
ACDBHEADERROUNDTRIPXREC
350
134
  3
ACDBVARIABLEDICTIONARY
350
154
  0
DICTIONARY
  5
D
102
{ACAD_REACTORS
330
C
102
}
330
C
100
AcDbDictionary
  0
DICTIONARY
  5
1A
102
{ACAD_REACTORS
330
C
102
}
330
C
100
AcDbDictionary
  0
DICTIONARY
  5
3B
102
{ACAD_REACTORS
330
C
102
}
330
C
100
AcDbDictionary
  3
BYBLOCK
350
3D
  3
BYLAYER
350
3C
  3
GLOBAL
350
3E
  0
DICTIONARY
  5
156
102
{ACAD_REACTORS
330
C
102
}
330
C
100
AcDbDictionary
  0
DICTIONARY
  5
17
102
{ACAD_REACTORS
330
C
102
}
330
C
100
AcDbDictionary
  3
STANDARD
350
18
  0
DICTIONARY
  5
19
102
{ACAD_REACTORS
330
C
102
}
330
C
100
AcDbDictionary
  0
DICTIONARY
  5
2A
102
{ACAD_REACTORS
330
C
102
}
330
C
100
AcDbDictionary
  3
2DWIREFRAME
350
2F
  3
3D_HIDDEN
350
31
  3
3DWIREFRAME
350
30
  3
BASIC
350
32
  3
BRIGHTEN
350
36
  3
COLORCHANGE
350
3A
  3
CONCEPTUAL
350
34
  3
DIM
350
35
  3
FACEPATTERN
350
39
  3
FLAT
350
2B
  3
FLATWITHEDGES
350
2C
  3
GOURAUD
350
2D
  3
GOURAUDWITHEDGES
350
2E
  3
LINEPATTERN
350
38
  3
REALISTIC
350
33
  3
THICKEN
350
37
  0
DICTIONARY
  5
134
102
{ACAD_REACTORS
330
C
102
}
330
C
100
AcDbDictionary
  3
CEPSNTYPE
350
13D
  3
DIMSTYLEDATA
350
153
  3
FINGERPRINTGUID
350
13E
  3
HYPERLINKBASE
350
137
  3
INSUNITS
350
13C
  3
LAYOUTDICT
350
139
  3
LWETCUNION
350
13B
  3
PLOTSETDICT
350
13A
  3
PSVPSCALE
350
140
  3
PUCSBASE
350
143
  3
PUCSORGBACK
350
149
  3
PUCSORGBOTTOM
350
145
  3
PUCSORGFRONT
350
148
  3
PUCSORGLEFT
350
146
  3
PUCSORGRIGHT
350
147
  3
PUCSORGTOP
350
144
  3
PUCSORTHOREF
350
141
  3
PUCSORTHOVIEW
350
142
  3
STYLESHEET
350
138
  3
TSTACKALIGN
350
135
  3
TSTACKSIZE
350
136
  3
UCSBASE
350
14C
  3
UCSORGBACK
350
152
  3
UCSORGBOTTOM
350
14E
  3
UCSORGFRONT
350
151
  3
UCSORGLEFT
350
14F
  3
UCSORGRIGHT
350
150
  3
UCSORGTOP
350
14D
  3
UCSORTHOREF
350
14A
  3
UCSORTHOVIEW
350
14B
  3
VERSIONGUID
350
13F
  0
DICTIONARY
  5
154
102
{ACAD_REACTORS
330
C
102
}
330
C
100
AcDbDictionary
  3
DIMASSOC
350
157
  3
HIDETEXT
350
158
  0
MATERIAL
  5
3D
102
{ACAD_REACTORS
330
3B
102
}
102
{ACAD_XDICTIONARY
360
15B
102
}
330
3B
100
AcDbMaterial
  1
ByBlock
  0
MATERIAL
  5
3C
102
{ACAD_REACTORS
330
3B
102
}
102
{ACAD_XDICTIONARY
360
159
102
}
330
3B
100
AcDbMaterial
  1
ByLayer
  0
MATERIAL
  5
3E
102
{ACAD_REACTORS
330
3B
102
}
102
{ACAD_XDICTIONARY
360
15D
102
}
330
3B
100
AcDbMaterial
  1
Global
  0
MLINESTYLE
  5
18
102
{ACAD_REACTORS
330
17
102
}
330
17
100
AcDbMlineStyle
  2
Standard
 70
     0
  3

 62
   256
 51
90.0
 52
90.0
 71
     2
 49
0.5
 62
   256
  6
BYLAYER
 49
-0.5
 62
   256
  6
BYLAYER
  0
ACAD_PROXY_OBJECT
  5
2F
102
{ACAD_REACTORS
330
2A
102
}
330
2A
100
AcDbProxyObject
 90
      499
 91
      501
 93
      436
310
42CC9915DA5C99599C985B595049028333333333333E3BF0000000000000FB0107901411070040501600405405064090741402480A0340
1001
ACAD
1000
AcDbSavedByObjectVersion
1070
     0
  0
ACAD_PROXY_OBJECT
  5
31
102
{ACAD_REACTORS
330
2A
102
}
330
2A
100
AcDbProxyObject
 90
      499
 91
      501
 93
      500
310
424CD108121A5919195B90640502408333333333333E3BF0000000000000FB01079024090700405020000000000001110200405405064090740C02480A0340
1001
ACAD
1000
AcDbSavedByObjectVersion
1070
     0
  0
ACAD_PROXY_OBJECT
  5
30
102
{ACAD_REACTORS
330
2A
102
}
330
2A
100
AcDbProxyObject
 90
      499
 91
      501
 93
      436
310
42CCD915DA5C99599C985B595059028333333333333E3BF0000000000000FB0107901411070040501600405405064090741402480A0340
1001
ACAD
1000
AcDbSavedByObjectVersion
1070
     0
  0
ACAD_PROXY_OBJECT
  5
32
102
{ACAD_REACTORS
330
2A
102
}
330
2A
100
AcDbProxyObject
 90
      499
 91
      501
 93
      388
310
4150985CDA58D07406404333333333333E3BF0000000000000FB0107A41107004050150841D405064090741402480A0350
1001
ACAD
1000
AcDbSavedByObjectVersion
1070
     0
  0
ACAD_PROXY_OBJECT
  5
36
102
{ACAD_REACTORS
330
2A
102
}
330
2A
100
AcDbProxyObject
 90
      499
 91
      501
 93
      428
310
42109C9A59DA1D195B90C409028333333333333E3BF0000000000000FB010790141107004050150841D405064090741402480A029950
1001
ACAD
1000
AcDbSavedByObjectVersion
1070
     0
  0
ACAD_PROXY_OBJECT
  5
3A
102
{ACAD_REACTORS
330
2A
102
}
330
2A
100
AcDbProxyObject
 90
      499
 91
      501
 93
      452
310
42D0DBDB1BDC90DA185B99D95104090240C333333333333E3BF0000000000000FB0108901411070040501508421405064090741402480A0350
1001
ACAD
1000
AcDbSavedByObjectVersion
1070
     0
  0
ACAD_PROXY_OBJECT
  5
34
102
{ACAD_REACTORS
330
2A
102
}
330
2A
100
AcDbProxyObject
 90
      499
 91
      501
 93
      500
310
4290DBDB98D95C1D1D585B10940D028333333333333E3BF0000000000000FB0107902409070040501000000000000111010841D405064090740C02480A0340
1001
ACAD
1000
AcDbSavedByObjectVersion
1070
     0
  0
ACAD_PROXY_OBJECT
  5
35
102
{ACAD_REACTORS
330
2A
102
}
330
2A
100
AcDbProxyObject
 90
      499
 91
      501
 93
      412
310
40D11A5B50B409028333333333333E3BF0000000000000FB010790141107004050150841D405064090741402480A02677FFFFFD0
1001
ACAD
1000
AcDbSavedByObjectVersion
1070
     0
  0
ACAD_PROXY_OBJECT
  5
39
102
{ACAD_REACTORS
330
2A
102
}
330
2A
100
AcDbProxyObject
 90
      499
 91
      501
 93
      444
310
42D19858D95C185D1D195C9B90F409028333333333333E3BF0000000000000FB010790141107004050150841D405064090741402480A0350
1001
ACAD
1000
AcDbSavedByObjectVersion
1070
     0
  0
ACAD_PROXY_OBJECT
  5
2B
102
{ACAD_REACTORS
330
2A
102
}
330
2A
100
AcDbProxyObject
 90
      499
 91
      501
 93
      388
310
41119B185D240901404333333333333E3BF0000000000000F9010740A41107004050150841D405064090741402480A1B50
1001
ACAD
1000
AcDbSavedByObjectVersion
1070
     0
  0
ACAD_PROXY_OBJECT
  5
2C
102
{ACAD_REACTORS
330
2A
102
}
330
2A
100
AcDbProxyObject
 90
      499
 91
      501
 93
      476
310
43519B185D15DA5D1A115919D95CD0140901404333333333333E3BF0000000000000F9010740901411070040501600405405064090741402480A1B50
1001
ACAD
1000
AcDbSavedByObjectVersion
1070
     0
  0
ACAD_PROXY_OBJECT
  5
2D
102
{ACAD_REACTORS
330
2A
102
}
330
2A
100
AcDbProxyObject
 90
      499
 91
      501
 93
      412
310
41D1DBDD5C985D5910240902404333333333333E3BF0000000000000F9010740A411070040501641D405064090741402480A1B50
1001
ACAD
1000
AcDbSavedByObjectVersion
1070
     0
  0
ACAD_PROXY_OBJECT
  5
2E
102
{ACAD_REACTORS
330
2A
102
}
330
2A
100
AcDbProxyObject
 90
      499
 91
      501
 93
      500
310
4411DBDD5C985D5915DA5D1A115919D95CD0340902404333333333333E3BF0000000000000F9010740901411070040501600405405064090741402480A1B50
1001
ACAD
1000
AcDbSavedByObjectVersion
1070
     0
  0
ACAD_PROXY_OBJECT
  5
38
102
{ACAD_REACTORS
330
2A
102
}
330
2A
100
AcDbProxyObject
 90
      499
 91
      501
 93
      444
310
42D31A5B995C185D1D195C9B90E409028333333333333E3BF0000000000000FB010790141107004050750841D405064090741402483A0350
1001
ACAD
1000
AcDbSavedByObjectVersion
1070
     0
  0
ACAD_PROXY_OBJECT
  5
33
102
{ACAD_REACTORS
330
2A
102
}
330
2A
100
AcDbProxyObject
 90
      499
 91
      501
 93
      420
310
425499585B1A5CDD1A58D08409028333333333333E3BF0000000000000FB01079019070040501508421405064090741402480A1B40
1001
ACAD
1000
AcDbSavedByObjectVersion
1070
     0
  0
ACAD_PROXY_OBJECT
  5
37
102
{ACAD_REACTORS
330
2A
102
}
330
2A
100
AcDbProxyObject
 90
      499
 91
      501
 93
      412
310
41D51A1A58DAD95B90D409028333333333333E3BF0000000000000FB010790141107004050150C41D405064090741402480A0350
1001
ACAD
1000
AcDbSavedByObjectVersion
1070
     0
  0
XRECORD
  5
13D
102
{ACAD_REACTORS
330
134
102
}
330
134
100
AcDbXrecord
 90
        0
  0
XRECORD
  5
153
102
{ACAD_REACTORS
330
134
102
}
330
134
100
AcDbXrecord
1000
DSTYLE
1002
{
1070
   340
340
11
1002
}
  0
XRECORD
  5
13E
102
{ACAD_REACTORS
330
134
102
}
330
134
100
AcDbXrecord
  1
{35F041FC-3A1C-4D6E-BB38-E1E11311FC2E}
  0
XRECORD
  5
137
102
{ACAD_REACTORS
330
134
102
}
330
134
100
AcDbXrecord
  1

  0
XRECORD
  5
13C
102
{ACAD_REACTORS
330
134
102
}
330
134
100
AcDbXrecord
 90
        4
  0
XRECORD
  5
139
102
{ACAD_REACTORS
330
134
102
}
330
134
100
AcDbXrecord
340
1A
  0
XRECORD
  5
13B
102
{ACAD_REACTORS
330
134
102
}
330
134
100
AcDbXrecord
 90
    10781
  0
XRECORD
  5
13A
102
{ACAD_REACTORS
330
134
102
}
330
134
100
AcDbXrecord
340
19
  0
XRECORD
  5
140
102
{ACAD_REACTORS
330
134
102
}
330
134
100
AcDbXrecord
 40
0.0
  0
XRECORD
  5
143
102
{ACAD_REACTORS
330
134
102
}
330
134
100
AcDbXrecord
340
0
  0
XRECORD
  5
149
102
{ACAD_REACTORS
330
134
102
}
330
134
100
AcDbXrecord
 10
0.0
 20
0.0
 30
0.0
  0
XRECORD
  5
145
102
{ACAD_REACTORS
330
134
102
}
330
134
100
AcDbXrecord
 10
0.0
 20
0.0
 30
0.0
  0
XRECORD
  5
148
102
{ACAD_REACTORS
330
134
102
}
330
134
100
AcDbXrecord
 10
0.0
 20
0.0
 30
0.0
  0
XRECORD
  5
146
102
{ACAD_REACTORS
330
134
102
}
330
134
100
AcDbXrecord
 10
0.0
 20
0.0
 30
0.0
  0
XRECORD
  5
147
102
{ACAD_REACTORS
330
134
102
}
330
134
100
AcDbXrecord
 10
0.0
 20
0.0
 30
0.0
  0
XRECORD
  5
144
102
{ACAD_REACTORS
330
134
102
}
330
134
100
AcDbXrecord
 10
0.0
 20
0.0
 30
0.0
  0
XRECORD
  5
141
102
{ACAD_REACTORS
330
134
102
}
330
134
100
AcDbXrecord
340
0
  0
XRECORD
  5
142
102
{ACAD_REACTORS
330
134
102
}
330
134
100
AcDbXrecord
 70
     0
  0
XRECORD
  5
138
102
{ACAD_REACTORS
330
134
102
}
330
134
100
AcDbXrecord
  1

  0
XRECORD
  5
135
102
{ACAD_REACTORS
330
134
102
}
330
134
100
AcDbXrecord
 90
        1
  0
XRECORD
  5
136
102
{ACAD_REACTORS
330
134
102
}
330
134
100
AcDbXrecord
 90
       70
  0
XRECORD
  5
14C
102
{ACAD_REACTORS
330
134
102
}
330
134
100
AcDbXrecord
340
0
  0
XRECORD
  5
152
102
{ACAD_REACTORS
330
134
102
}
330
134
100
AcDbXrecord
 10
0.0
 20
0.0
 30
0.0
  0
XRECORD
  5
14E
102
{ACAD_REACTORS
330
134
102
}
330
134
100
AcDbXrecord
 10
0.0
 20
0.0
 30
0.0
  0
XRECORD
  5
151
102
{ACAD_REACTORS
330
134
102
}
330
134
100
AcDbXrecord
 10
0.0
 20
0.0
 30
0.0
  0
XRECORD
  5
14F
102
{ACAD_REACTORS
330
134
102
}
330
134
100
AcDbXrecord
 10
0.0
 20
0.0
 30
0.0
  0
XRECORD
  5
150
102
{ACAD_REACTORS
330
134
102
}
330
134
100
AcDbXrecord
 10
0.0
 20
0.0
 30
0.0
  0
XRECORD
  5
14D
102
{ACAD_REACTORS
330
134
102
}
330
134
100
AcDbXrecord
 10
0.0
 20
0.0
 30
0.0
  0
XRECORD
  5
14A
102
{ACAD_REACTORS
330
134
102
}
330
134
100
AcDbXrecord
340
0
  0
XRECORD
  5
14B
102
{ACAD_REACTORS
330
134
102
}
330
134
100
AcDbXrecord
 70
     0
  0
XRECORD
  5
13F
102
{ACAD_REACTORS
330
134
102
}
330
134
100
AcDbXrecord
  1
{FAEB1C32-E019-11D5-929B-00C0DF256EC4}
  0
DICTIONARYVAR
  5
157
102
{ACAD_REACTORS
330
154
102
}
330
154
100
DictionaryVariables
280
     0
  1
2
  0
DICTIONARYVAR
  5
158
102
{ACAD_REACTORS
330
154
102
}
330
154
100
DictionaryVariables
280
     0
  1
1
  0
DICTIONARY
  5
15B
330
3D
100
AcDbDictionary
280
     1
  3
ACAD_XREC_ROUNDTRIP
360
15C
  0
DICTIONARY
  5
159
330
3C
100
AcDbDictionary
280
     1
  3
ACAD_XREC_ROUNDTRIP
360
15A
  0
DICTIONARY
  5
15D
330
3E
100
AcDbDictionary
280
     1
  3
ACAD_XREC_ROUNDTRIP
360
15E
  0
XRECORD
  5
15C
102
{ACAD_REACTORS
330
15B
102
}
330
15B
100
AcDbXrecord
102
MATERIAL
148
0.0
149
0.0
149
0.0
 93
        0
 94
      127
282
     0
 72
     1
 77
     1
171
     1
175
     1
179
     1
273
     0
  0
XRECORD
  5
15A
102
{ACAD_REACTORS
330
159
102
}
330
159
100
AcDbXrecord
102
MATERIAL
148
0.0
149
0.0
149
0.0
 93
        0
 94
      127
282
     0
 72
     1
 77
     1
171
     1
175
     1
179
     1
273
     0
  0
XRECORD
  5
15E
102
{ACAD_REACTORS
330
15D
102
}
330
15D
100
AcDbXrecord
102
MATERIAL
148
0.0
149
0.0
149
0.0
 93
        0
 94
      127
282
     0
 72
     1
 77
     1
171
     1
175
     1
179
     1
273
     0
  0
ENDSEC
  0
EOF
