  0
SECTION
  2
HEADER
  9
$ACADVER
  1
AC1014
  9
$ACADMAINTVER
 70
     9
  9
$DWGCODEPAGE
  3
ANSI_1250
  9
$INSBASE
 10
0.0
 20
0.0
 30
0.0
  9
$EXTMIN
 10
-42.3015
 20
-36.5882
 30
0.0
  9
$EXTMAX
 10
42.1971
 20
36.5022
 30
0.0
  9
$LIMMIN
 10
0.0
 20
0.0
  9
$LIMMAX
 10
12.0
 20
9.0
  9
$ORTHOMODE
 70
     0
  9
$REGENMODE
 70
     1
  9
$FILLMODE
 70
     1
  9
$QTEXTMODE
 70
     0
  9
$MIRRTEXT
 70
     1
  9
$DRAGMODE
 70
     2
  9
$LTSCALE
 40
1.0
  9
$OSMODE
 70
    37
  9
$ATTMODE
 70
     1
  9
$TEXTSIZE
 40
0.2
  9
$TRACEWID
 40
0.05
  9
$TEXTSTYLE
  7
STANDARD
  9
$CLAYER
  8
0
  9
$CELTYPE
  6
BYLAYER
  9
$CECOLOR
 62
   256
  9
$CELTSCALE
 40
1.0
  9
$DELOBJ
 70
     1
  9
$DISPSILH
 70
     0
  9
$DIMSCALE
 40
1.0
  9
$DIMASZ
 40
0.18
  9
$DIMEXO
 40
0.0625
  9
$DIMDLI
 40
0.38
  9
$DIMRND
 40
0.0
  9
$DIMDLE
 40
0.0
  9
$DIMEXE
 40
0.18
  9
$DIMTP
 40
0.0
  9
$DIMTM
 40
0.0
  9
$DIMTXT
 40
0.18
  9
$DIMCEN
 40
0.09
  9
$DIMTSZ
 40
0.0
  9
$DIMTOL
 70
     0
  9
$DIMLIM
 70
     0
  9
$DIMTIH
 70
     1
  9
$DIMTOH
 70
     1
  9
$DIMSE1
 70
     0
  9
$DIMSE2
 70
     0
  9
$DIMTAD
 70
     0
  9
$DIMZIN
 70
     0
  9
$DIMBLK
  1

  9
$DIMASO
 70
     1
  9
$DIMSHO
 70
     1
  9
$DIMPOST
  1

  9
$DIMAPOST
  1

  9
$DIMALT
 70
     0
  9
$DIMALTD
 70
     2
  9
$DIMALTF
 40
25.4
  9
$DIMLFAC
 40
1.0
  9
$DIMTOFL
 70
     0
  9
$DIMTVP
 40
0.0
  9
$DIMTIX
 70
     0
  9
$DIMSOXD
 70
     0
  9
$DIMSAH
 70
     0
  9
$DIMBLK1
  1

  9
$DIMBLK2
  1

  9
$DIMSTYLE
  2
STANDARD
  9
$DIMCLRD
 70
     0
  9
$DIMCLRE
 70
     0
  9
$DIMCLRT
 70
     0
  9
$DIMTFAC
 40
1.0
  9
$DIMGAP
 40
0.09
  9
$DIMJUST
 70
     0
  9
$DIMSD1
 70
     0
  9
$DIMSD2
 70
     0
  9
$DIMTOLJ
 70
     1
  9
$DIMTZIN
 70
     0
  9
$DIMALTZ
 70
     0
  9
$DIMALTTZ
 70
     0
  9
$DIMFIT
 70
     3
  9
$DIMUPT
 70
     0
  9
$DIMUNIT
 70
     2
  9
$DIMDEC
 70
     4
  9
$DIMTDEC
 70
     4
  9
$DIMALTU
 70
     2
  9
$DIMALTTD
 70
     2
  9
$DIMTXSTY
  7
STANDARD
  9
$DIMAUNIT
 70
     0
  9
$LUNITS
 70
     2
  9
$LUPREC
 70
     4
  9
$SKETCHINC
 40
0.1
  9
$FILLETRAD
 40
0.5
  9
$AUNITS
 70
     0
  9
$AUPREC
 70
     0
  9
$MENU
  1
.
  9
$ELEVATION
 40
0.0
  9
$PELEVATION
 40
0.0
  9
$THICKNESS
 40
0.0
  9
$LIMCHECK
 70
     0
  9
$CHAMFERA
 40
0.5
  9
$CHAMFERB
 40
0.5
  9
$CHAMFERC
 40
1.0
  9
$CHAMFERD
 40
0.0
  9
$SKPOLY
 70
     0
  9
$TDCREATE
 40
2456266.409558275
  9
$TDUPDATE
 40
2456266.409558287
  9
$TDINDWG
 40
0.0000000116
  9
$TDUSRTIMER
 40
0.0000000116
  9
$USRTIMER
 70
     1
  9
$ANGBASE
 50
0.0
  9
$ANGDIR
 70
     0
  9
$PDMODE
 70
     0
  9
$PDSIZE
 40
0.0
  9
$PLINEWID
 40
0.0
  9
$COORDS
 70
     1
  9
$SPLFRAME
 70
     0
  9
$SPLINETYPE
 70
     6
  9
$SPLINESEGS
 70
     8
  9
$ATTDIA
 70
     0
  9
$ATTREQ
 70
     1
  9
$HANDLING
 70
     1
  9
$HANDSEED
  5
1F2
  9
$SURFTAB1
 70
     6
  9
$SURFTAB2
 70
     6
  9
$SURFTYPE
 70
     6
  9
$SURFU
 70
     6
  9
$SURFV
 70
     6
  9
$UCSNAME
  2

  9
$UCSORG
 10
0.0
 20
0.0
 30
0.0
  9
$UCSXDIR
 10
1.0
 20
0.0
 30
0.0
  9
$UCSYDIR
 10
0.0
 20
1.0
 30
0.0
  9
$PUCSNAME
  2

  9
$PUCSORG
 10
0.0
 20
0.0
 30
0.0
  9
$PUCSXDIR
 10
1.0
 20
0.0
 30
0.0
  9
$PUCSYDIR
 10
0.0
 20
1.0
 30
0.0
  9
$USERI1
 70
     0
  9
$USERI2
 70
     0
  9
$USERI3
 70
     0
  9
$USERI4
 70
     0
  9
$USERI5
 70
     0
  9
$USERR1
 40
0.0
  9
$USERR2
 40
0.0
  9
$USERR3
 40
0.0
  9
$USERR4
 40
0.0
  9
$USERR5
 40
0.0
  9
$WORLDVIEW
 70
     1
  9
$SHADEDGE
 70
     3
  9
$SHADEDIF
 70
    70
  9
$TILEMODE
 70
     1
  9
$MAXACTVP
 70
    64
  9
$PINSBASE
 10
0.0
 20
0.0
 30
0.0
  9
$PLIMCHECK
 70
     0
  9
$PEXTMIN
 10
1.000000000000000E+20
 20
1.000000000000000E+20
 30
1.000000000000000E+20
  9
$PEXTMAX
 10
-1.000000000000000E+20
 20
-1.000000000000000E+20
 30
-1.000000000000000E+20
  9
$PLIMMIN
 10
0.0
 20
0.0
  9
$PLIMMAX
 10
12.0
 20
9.0
  9
$UNITMODE
 70
     0
  9
$VISRETAIN
 70
     1
  9
$PLINEGEN
 70
     0
  9
$PSLTSCALE
 70
     1
  9
$TREEDEPTH
 70
  3020
  9
$PICKSTYLE
 70
     1
  9
$CMLSTYLE
  2
STANDARD
  9
$CMLJUST
 70
     0
  9
$CMLSCALE
 40
1.0
  9
$PROXYGRAPHICS
 70
     1
  9
$MEASUREMENT
 70
     0
  0
ENDSEC
  0
SECTION
  2
CLASSES
  0
CLASS
  1
ACDBDICTIONARYWDFLT
  2
AcDbDictionaryWithDefault
  3
ObjectDBX Classes
 90
        0
280
     0
281
     0
  0
CLASS
  1
VISUALSTYLE
  2
AcDbVisualStyle
  3
ObjectDBX Classes
 90
     4095
280
     0
281
     0
  0
CLASS
  1
MATERIAL
  2
AcDbMaterial
  3
ObjectDBX Classes
 90
     1153
280
     0
281
     0
  0
CLASS
  1
DICTIONARYVAR
  2
AcDbDictionaryVar
  3
ObjectDBX Classes
 90
        0
280
     0
281
     0
  0
CLASS
  1
XRECORD
  2
AcDbXrecord
  3
AutoCAD 2000
 90
        0
280
     0
281
     0
  0
CLASS
  1
LWPOLYLINE
  2
AcDbPolyline
  3
AutoCAD 2000
 90
        0
280
     0
281
     1
  0
CLASS
  1
HATCH
  2
AcDbHatch
  3
AutoCAD 2000
 90
        0
280
     0
281
     1
  0
CLASS
  1
ACDBPLACEHOLDER
  2
AcDbPlaceHolder
  3
ObjectDBX Classes
 90
        0
280
     0
281
     0
  0
CLASS
  1
LAYOUT
  2
AcDbLayout
  3
ObjectDBX Classes
 90
        0
280
     0
281
     0
  0
ENDSEC
  0
SECTION
  2
TABLES
  0
TABLE
  2
VPORT
  5
8
330
0
100
AcDbSymbolTable
 70
     1
  0
VPORT
  5
29
330
8
100
AcDbSymbolTableRecord
100
AcDbViewportTableRecord
  2
*ACTIVE
 70
     0
 10
0.0
 20
0.0
 11
1.0
 21
1.0
 12
10.42990654205607
 22
4.5
 13
0.0
 23
0.0
 14
0.5
 24
0.5
 15
0.5
 25
0.5
 16
0.0
 26
0.0
 36
1.0
 17
0.0
 27
0.0
 37
0.0
 40
9.0
 41
1.972972972850329
 42
50.0
 43
0.0
 44
0.0
 50
0.0
 51
0.0
 71
     0
 72
   100
 73
     1
 74
     3
 75
     0
 76
     0
 77
     0
 78
     0
  0
ENDTAB
  0
TABLE
  2
LTYPE
  5
5
330
0
100
AcDbSymbolTable
 70
     5
  0
LTYPE
  5
14
330
5
100
AcDbSymbolTableRecord
100
AcDbLinetypeTableRecord
  2
BYBLOCK
 70
     0
  3

 72
    65
 73
     0
 40
0.0
  0
LTYPE
  5
15
330
5
100
AcDbSymbolTableRecord
100
AcDbLinetypeTableRecord
  2
BYLAYER
 70
     0
  3

 72
    65
 73
     0
 40
0.0
  0
LTYPE
  5
16
330
5
100
AcDbSymbolTableRecord
100
AcDbLinetypeTableRecord
  2
CONTINUOUS
 70
     0
  3
Solid line
 72
    65
 73
     0
 40
0.0
  0
LTYPE
  5
8C
330
5
100
AcDbSymbolTableRecord
100
AcDbLinetypeTableRecord
  2
NEW_LINE1
 70
     0
  3

 72
    65
 73
     4
 40
1.2
 49
0.5
 74
     4
 75
     0
340
0
 46
1.0
 50
0.0
 44
0.0
 45
0.0
 49
-0.3
 74
     4
 75
     0
340
0
 46
1.0
 50
0.0
 44
0.0
 45
0.0
 49
0.1
 74
     4
 75
     0
340
0
 46
1.0
 50
0.0
 44
0.0
 45
0.0
 49
-0.3
 74
     4
 75
     0
340
0
 46
1.0
 50
0.0
 44
0.0
 45
0.0
  0
LTYPE
  5
8E
330
5
100
AcDbSymbolTableRecord
100
AcDbLinetypeTableRecord
  2
NEW_LINE2
 70
     0
  3

 72
    65
 73
     4
 40
1.2
 49
0.5
 74
     4
 75
     0
340
0
 46
1.0
 50
0.0
 44
0.0
 45
0.0
 49
-0.3
 74
     4
 75
     0
340
0
 46
1.0
 50
0.0
 44
0.0
 45
0.0
 49
0.1
 74
     4
 75
     0
340
0
 46
1.0
 50
0.0
 44
0.0
 45
0.0
 49
-0.3
 74
     4
 75
     0
340
0
 46
1.0
 50
0.0
 44
0.0
 45
0.0
  0
LTYPE
  5
90
330
5
100
AcDbSymbolTableRecord
100
AcDbLinetypeTableRecord
  2
NEW_LINE3
 70
     0
  3

 72
    65
 73
     4
 40
1.2
 49
0.5
 74
     4
 75
     0
340
0
 46
1.0
 50
0.0
 44
0.0
 45
0.0
 49
-0.3
 74
     4
 75
     0
340
0
 46
1.0
 50
0.0
 44
0.0
 45
0.0
 49
0.1
 74
     4
 75
     0
340
0
 46
1.0
 50
0.0
 44
0.0
 45
0.0
 49
-0.3
 74
     4
 75
     0
340
0
 46
1.0
 50
0.0
 44
0.0
 45
0.0
  0
LTYPE
  5
93
330
5
100
AcDbSymbolTableRecord
100
AcDbLinetypeTableRecord
  2
NEW_LINE4
 70
     0
  3

 72
    65
 73
     2
 40
0.8
 49
0.5
 74
     4
 75
     0
340
0
 46
1.0
 50
0.0
 44
0.0
 45
0.0
 49
-0.3
 74
     4
 75
     0
340
0
 46
1.0
 50
0.0
 44
0.0
 45
0.0
  0
ENDTAB
  0
TABLE
  2
LAYER
  5
2
330
0
100
AcDbSymbolTable
 70
     2
  0
LAYER
  5
10
330
2
100
AcDbSymbolTableRecord
100
AcDbLayerTableRecord
  2
0
 70
     0
 62
     7
  6
CONTINUOUS
  0
LAYER
  5
40
330
2
100
AcDbSymbolTableRecord
100
AcDbLayerTableRecord
  2
ILUSTRACE
 70
     0
 62
     7
  6
CONTINUOUS
  0
ENDTAB
  0
TABLE
  2
STYLE
  5
3
330
0
100
AcDbSymbolTable
 70
     1
  0
STYLE
  5
11
330
3
100
AcDbSymbolTableRecord
100
AcDbTextStyleTableRecord
  2
STANDARD
 70
     0
 40
0.0
 41
1.0
 50
0.0
 71
     0
 42
0.2
  3
txt
  4

  0
ENDTAB
  0
TABLE
  2
VIEW
  5
6
330
0
100
AcDbSymbolTable
 70
     0
  0
ENDTAB
  0
TABLE
  2
UCS
  5
7
330
0
100
AcDbSymbolTable
 70
     0
  0
ENDTAB
  0
TABLE
  2
APPID
  5
9
330
0
100
AcDbSymbolTable
 70
     2
  0
APPID
  5
12
330
9
100
AcDbSymbolTableRecord
100
AcDbRegAppTableRecord
  2
ACAD
 70
     0
  0
APPID
  5
3F
330
9
100
AcDbSymbolTableRecord
100
AcDbRegAppTableRecord
  2
ODA
 70
     0
  0
ENDTAB
  0
TABLE
  2
DIMSTYLE
  5
A
330
0
100
AcDbSymbolTable
 70
     1
  0
DIMSTYLE
105
27
330
A
100
AcDbSymbolTableRecord
100
AcDbDimStyleTableRecord
  2
STANDARD
 70
     0
  3

  4

  5

  6

  7

 40
1.0
 41
0.18
 42
0.0625
 43
0.38
 44
0.18
 45
0.0
 46
0.0
 47
0.0
 48
0.0
140
0.18
141
0.09
142
0.0
143
25.4
144
1.0
145
0.0
146
1.0
147
0.09
 71
     0
 72
     0
 73
     1
 74
     1
 75
     0
 76
     0
 77
     0
 78
     0
170
     0
171
     2
172
     0
173
     0
174
     0
175
     0
176
     0
177
     0
178
     0
270
     2
271
     4
272
     4
273
     2
274
     2
340
11
275
     0
280
     0
281
     0
282
     0
283
     1
284
     0
285
     0
286
     0
287
     3
288
     0
  0
ENDTAB
  0
TABLE
  2
BLOCK_RECORD
  5
1
330
0
100
AcDbSymbolTable
 70
     1
  0
BLOCK_RECORD
  5
1F
330
1
100
AcDbSymbolTableRecord
100
AcDbBlockTableRecord
  2
*MODEL_SPACE
  0
BLOCK_RECORD
  5
1B
330
1
100
AcDbSymbolTableRecord
100
AcDbBlockTableRecord
  2
*PAPER_SPACE
  0
ENDTAB
  0
ENDSEC
  0
SECTION
  2
BLOCKS
  0
BLOCK
  5
20
330
1F
100
AcDbEntity
  8
0
100
AcDbBlockBegin
  2
*MODEL_SPACE
 70
     0
 10
0.0
 20
0.0
 30
0.0
  3
*MODEL_SPACE
  1

  0
ENDBLK
  5
21
330
1F
100
AcDbEntity
  8
0
100
AcDbBlockEnd
  0
BLOCK
  5
1C
330
1B
100
AcDbEntity
 67
     1
  8
0
100
AcDbBlockBegin
  2
*PAPER_SPACE
 70
     0
 10
0.0
 20
0.0
 30
0.0
  3
*PAPER_SPACE
  1

  0
ENDBLK
  5
1D
330
1B
100
AcDbEntity
 67
     1
  8
0
100
AcDbBlockEnd
  0
ENDSEC
  0
SECTION
  2
ENTITIES
  0
SPLINE
  5
41
330
1F
100
AcDbEntity
  8
ILUSTRACE
 62
   250
100
AcDbSpline
210
0.0
220
0.0
230
1.0
 70
    24
 71
     3
 72
     8
 73
     4
 74
     0
 42
0.0000000001
 43
0.0000000001
 40
0.0
 40
0.0
 40
0.0
 40
0.0
 40
1.0
 40
1.0
 40
1.0
 40
1.0
 10
-35.8019
 20
16.9805
 30
0.0
 10
-35.8019
 20
16.9805
 30
0.0
 10
-11.4848
 20
16.9805
 30
0.0
 10
-11.4848
 20
16.9805
 30
0.0
  0
SPLINE
  5
42
330
1F
100
AcDbEntity
  8
ILUSTRACE
 62
   250
100
AcDbSpline
210
0.0
220
0.0
230
1.0
 70
    24
 71
     3
 72
     8
 73
     4
 74
     0
 42
0.0000000001
 43
0.0000000001
 40
0.0
 40
0.0
 40
0.0
 40
0.0
 40
1.0
 40
1.0
 40
1.0
 40
1.0
 10
-35.225
 20
27.9408
 30
0.0
 10
-35.225
 20
27.9408
 30
0.0
 10
-17.5244
 20
27.9408
 30
0.0
 10
-17.5244
 20
27.9408
 30
0.0
  0
SPLINE
  5
43
330
1F
100
AcDbEntity
  8
ILUSTRACE
 62
   250
100
AcDbSpline
210
0.0
220
0.0
230
1.0
 70
    24
 71
     3
 72
     8
 73
     4
 74
     0
 42
0.0000000001
 43
0.0000000001
 40
0.0
 40
0.0
 40
0.0
 40
0.0
 40
1.0
 40
1.0
 40
1.0
 40
1.0
 10
9.0051
 20
-23.9718
 30
0.0
 10
9.0051
 20
-23.9718
 30
0.0
 10
9.0051
 20
-0.4523
 30
0.0
 10
9.0051
 20
-0.4523
 30
0.0
  0
SPLINE
  5
44
330
1F
100
AcDbEntity
  8
ILUSTRACE
 62
   250
100
AcDbSpline
210
0.0
220
0.0
230
1.0
 70
    24
 71
     3
 72
     8
 73
     4
 74
     0
 42
0.0000000001
 43
0.0000000001
 40
0.0
 40
0.0
 40
0.0
 40
0.0
 40
1.0
 40
1.0
 40
1.0
 40
1.0
 10
-38.0197
 20
-36.2136
 30
0.0
 10
-38.0197
 20
-36.2136
 30
0.0
 10
-38.0197
 20
32.6364
 30
0.0
 10
-38.0197
 20
32.6364
 30
0.0
  0
SPLINE
  5
45
330
1F
100
AcDbEntity
  8
ILUSTRACE
 62
   250
100
AcDbSpline
210
0.0
220
0.0
230
1.0
 70
    24
 71
     3
 72
     8
 73
     4
 74
     0
 42
0.0000000001
 43
0.0000000001
 40
0.0
 40
0.0
 40
0.0
 40
0.0
 40
1.0
 40
1.0
 40
1.0
 40
1.0
 10
-25.9485
 20
7.4055
 30
0.0
 10
-25.9485
 20
7.4055
 30
0.0
 10
40.1384
 20
7.4055
 30
0.0
 10
40.1384
 20
7.4055
 30
0.0
  0
SPLINE
  5
46
330
1F
100
AcDbEntity
  8
ILUSTRACE
 62
   250
100
AcDbSpline
210
0.0
220
0.0
230
1.0
 70
    24
 71
     3
 72
     8
 73
     4
 74
     0
 42
0.0000000001
 43
0.0000000001
 40
0.0
 40
0.0
 40
0.0
 40
0.0
 40
1.0
 40
1.0
 40
1.0
 40
1.0
 10
-38.5513
 20
-36.5017
 30
0.0
 10
-38.5513
 20
-36.5017
 30
0.0
 10
-24.5008
 20
-36.5017
 30
0.0
 10
-24.5008
 20
-36.5017
 30
0.0
  0
SPLINE
  5
47
330
1F
100
AcDbEntity
  8
ILUSTRACE
 62
   250
100
AcDbSpline
210
0.0
220
0.0
230
1.0
 70
    24
 71
     3
 72
     8
 73
     4
 74
     0
 42
0.0000000001
 43
0.0000000001
 40
0.0
 40
0.0
 40
0.0
 40
0.0
 40
1.0
 40
1.0
 40
1.0
 40
1.0
 10
-38.8262
 20
-9.5017
 30
0.0
 10
-38.8262
 20
-9.5017
 30
0.0
 10
-16.7508
 20
-9.5017
 30
0.0
 10
-16.7508
 20
-9.5017
 30
0.0
  0
SPLINE
  5
48
330
1F
100
AcDbEntity
  8
ILUSTRACE
 62
   250
100
AcDbSpline
210
0.0
220
0.0
230
1.0
 70
    24
 71
     3
 72
     8
 73
     4
 74
     0
 42
0.0000000001
 43
0.0000000001
 40
0.0
 40
0.0
 40
0.0
 40
0.0
 40
1.0
 40
1.0
 40
1.0
 40
1.0
 10
-38.8941
 20
25.3775
 30
0.0
 10
-38.8941
 20
25.3775
 30
0.0
 10
-32.7362
 20
25.3775
 30
0.0
 10
-32.7362
 20
25.3775
 30
0.0
  0
SPLINE
  5
49
330
1F
100
AcDbEntity
  8
ILUSTRACE
 62
   250
100
AcDbSpline
210
0.0
220
0.0
230
1.0
 70
    24
 71
     3
 72
     8
 73
     4
 74
     0
 42
0.0000000001
 43
0.0000000001
 40
0.0
 40
0.0
 40
0.0
 40
0.0
 40
1.0
 40
1.0
 40
1.0
 40
1.0
 10
-38.7981
 20
26.3181
 30
0.0
 10
-38.7981
 20
26.3181
 30
0.0
 10
-31.9964
 20
26.3181
 30
0.0
 10
-31.9964
 20
26.3181
 30
0.0
  0
SPLINE
  5
4A
330
1F
100
AcDbEntity
  8
ILUSTRACE
 62
   250
100
AcDbSpline
210
0.0
220
0.0
230
1.0
 70
    24
 71
     3
 72
     8
 73
     4
 74
     0
 42
0.0000000001
 43
0.0000000001
 40
0.0
 40
0.0
 40
0.0
 40
0.0
 40
1.0
 40
1.0
 40
1.0
 40
1.0
 10
-14.2175
 20
-7.5026
 30
0.0
 10
-14.2175
 20
-7.5026
 30
0.0
 10
-14.2175
 20
7.9846
 30
0.0
 10
-14.2175
 20
7.9846
 30
0.0
  0
SPLINE
  5
4B
330
1F
100
AcDbEntity
  8
ILUSTRACE
 62
   250
100
AcDbSpline
210
0.0
220
0.0
230
1.0
 70
    24
 71
     3
 72
     8
 73
     4
 74
     0
 42
0.0000000001
 43
0.0000000001
 40
0.0
 40
0.0
 40
0.0
 40
0.0
 40
1.0
 40
1.0
 40
1.0
 40
1.0
 10
40.5014
 20
-4.3981
 30
0.0
 10
40.5014
 20
-4.3981
 30
0.0
 10
40.5014
 20
7.9911
 30
0.0
 10
40.5014
 20
7.9911
 30
0.0
  0
SPLINE
  5
4C
330
1F
100
AcDbEntity
  8
ILUSTRACE
 62
   250
100
AcDbSpline
210
0.0
220
0.0
230
1.0
 70
    24
 71
     3
 72
     8
 73
     4
 74
     0
 42
0.0000000001
 43
0.0000000001
 40
0.0
 40
0.0
 40
0.0
 40
0.0
 40
1.0
 40
1.0
 40
1.0
 40
1.0
 10
-31.0149
 20
26.5959
 30
0.0
 10
-31.0149
 20
26.5959
 30
0.0
 10
-31.0149
 20
28.2681
 30
0.0
 10
-31.0149
 20
28.2681
 30
0.0
  0
SPLINE
  5
4D
330
1F
100
AcDbEntity
  8
ILUSTRACE
 62
   250
100
AcDbSpline
210
0.0
220
0.0
230
1.0
 70
    24
 71
     3
 72
     8
 73
     4
 74
     0
 42
0.0000000001
 43
0.0000000001
 40
0.0
 40
0.0
 40
0.0
 40
0.0
 40
1.0
 40
1.0
 40
1.0
 40
1.0
 10
-22.611
 20
26.5866
 30
0.0
 10
-22.611
 20
26.5866
 30
0.0
 10
-22.611
 20
28.2588
 30
0.0
 10
-22.611
 20
28.2588
 30
0.0
  0
SPLINE
  5
4E
330
1F
100
AcDbEntity
  8
ILUSTRACE
 62
   250
100
AcDbSpline
210
0.0
220
0.0
230
1.0
 70
    11
 71
     3
 72
    20
 73
    16
 74
     0
 42
0.0000000001
 43
0.0000000001
 40
0.0
 40
0.0
 40
0.0
 40
0.0
 40
0.2
 40
0.2
 40
0.2
 40
0.2
 40
0.4
 40
0.4
 40
0.4
 40
0.4
 40
0.6
 40
0.6
 40
0.6
 40
0.6
 40
1.0
 40
1.0
 40
1.0
 40
1.0
 10
-19.5255
 20
16.4801
 30
0.0
 10
-19.5255
 20
16.4801
 30
0.0
 10
-22.5255
 20
16.9034
 30
0.0
 10
-22.5255
 20
16.9034
 30
0.0
 10
-22.5255
 20
16.9034
 30
0.0
 10
-22.5255
 20
16.9034
 30
0.0
 10
-22.5255
 20
16.9975
 30
0.0
 10
-22.5255
 20
16.9975
 30
0.0
 10
-22.5255
 20
16.9975
 30
0.0
 10
-22.5255
 20
16.9975
 30
0.0
 10
-19.5255
 20
17.449
 30
0.0
 10
-19.5255
 20
17.449
 30
0.0
 10
-19.5255
 20
17.449
 30
0.0
 10
-19.5255
 20
17.449
 30
0.0
 10
-19.5255
 20
16.4801
 30
0.0
 10
-19.5255
 20
16.4801
 30
0.0
  0
SPLINE
  5
4F
330
1F
100
AcDbEntity
  8
ILUSTRACE
 62
   250
100
AcDbSpline
210
0.0
220
0.0
230
1.0
 70
    11
 71
     3
 72
    20
 73
    16
 74
     0
 42
0.0000000001
 43
0.0000000001
 40
0.0
 40
0.0
 40
0.0
 40
0.0
 40
0.2
 40
0.2
 40
0.2
 40
0.2
 40
0.4
 40
0.4
 40
0.4
 40
0.4
 40
0.6
 40
0.6
 40
0.6
 40
0.6
 40
1.0
 40
1.0
 40
1.0
 40
1.0
 10
-19.5076
 20
27.4404
 30
0.0
 10
-19.5076
 20
27.4404
 30
0.0
 10
-22.5076
 20
27.8637
 30
0.0
 10
-22.5076
 20
27.8637
 30
0.0
 10
-22.5076
 20
27.8637
 30
0.0
 10
-22.5076
 20
27.8637
 30
0.0
 10
-22.5076
 20
27.9578
 30
0.0
 10
-22.5076
 20
27.9578
 30
0.0
 10
-22.5076
 20
27.9578
 30
0.0
 10
-22.5076
 20
27.9578
 30
0.0
 10
-19.5076
 20
28.4093
 30
0.0
 10
-19.5076
 20
28.4093
 30
0.0
 10
-19.5076
 20
28.4093
 30
0.0
 10
-19.5076
 20
28.4093
 30
0.0
 10
-19.5076
 20
27.4404
 30
0.0
 10
-19.5076
 20
27.4404
 30
0.0
  0
SPLINE
  5
50
330
1F
100
AcDbEntity
  8
ILUSTRACE
 62
   250
100
AcDbSpline
210
0.0
220
0.0
230
1.0
 70
    11
 71
     3
 72
    20
 73
    16
 74
     0
 42
0.0000000001
 43
0.0000000001
 40
0.0
 40
0.0
 40
0.0
 40
0.0
 40
0.2
 40
0.2
 40
0.2
 40
0.2
 40
0.4
 40
0.4
 40
0.4
 40
0.4
 40
0.6
 40
0.6
 40
0.6
 40
0.6
 40
1.0
 40
1.0
 40
1.0
 40
1.0
 10
9.5059
 20
-1.745
 30
0.0
 10
9.5059
 20
-1.745
 30
0.0
 10
9.0826
 20
-4.745
 30
0.0
 10
9.0826
 20
-4.745
 30
0.0
 10
9.0826
 20
-4.745
 30
0.0
 10
9.0826
 20
-4.745
 30
0.0
 10
8.9885
 20
-4.745
 30
0.0
 10
8.9885
 20
-4.745
 30
0.0
 10
8.9885
 20
-4.745
 30
0.0
 10
8.9885
 20
-4.745
 30
0.0
 10
8.537
 20
-1.745
 30
0.0
 10
8.537
 20
-1.745
 30
0.0
 10
8.537
 20
-1.745
 30
0.0
 10
8.537
 20
-1.745
 30
0.0
 10
9.5059
 20
-1.745
 30
0.0
 10
9.5059
 20
-1.745
 30
0.0
  0
SPLINE
  5
51
330
1F
100
AcDbEntity
  8
ILUSTRACE
 62
   250
100
AcDbSpline
210
0.0
220
0.0
230
1.0
 70
    11
 71
     3
 72
    20
 73
    16
 74
     0
 42
0.0000000001
 43
0.0000000001
 40
0.0
 40
0.0
 40
0.0
 40
0.0
 40
0.2
 40
0.2
 40
0.2
 40
0.2
 40
0.4
 40
0.4
 40
0.4
 40
0.4
 40
0.6
 40
0.6
 40
0.6
 40
0.6
 40
1.0
 40
1.0
 40
1.0
 40
1.0
 10
-37.5472
 20
-33.4092
 30
0.0
 10
-37.5472
 20
-33.4092
 30
0.0
 10
-37.9705
 20
-36.4092
 30
0.0
 10
-37.9705
 20
-36.4092
 30
0.0
 10
-37.9705
 20
-36.4092
 30
0.0
 10
-37.9705
 20
-36.4092
 30
0.0
 10
-38.0646
 20
-36.4092
 30
0.0
 10
-38.0646
 20
-36.4092
 30
0.0
 10
-38.0646
 20
-36.4092
 30
0.0
 10
-38.0646
 20
-36.4092
 30
0.0
 10
-38.5161
 20
-33.4092
 30
0.0
 10
-38.5161
 20
-33.4092
 30
0.0
 10
-38.5161
 20
-33.4092
 30
0.0
 10
-38.5161
 20
-33.4092
 30
0.0
 10
-37.5472
 20
-33.4092
 30
0.0
 10
-37.5472
 20
-33.4092
 30
0.0
  0
SPLINE
  5
52
330
1F
100
AcDbEntity
  8
ILUSTRACE
 62
   250
100
AcDbSpline
210
0.0
220
0.0
230
1.0
 70
    11
 71
     3
 72
    20
 73
    16
 74
     0
 42
0.0000000001
 43
0.0000000001
 40
0.0
 40
0.0
 40
0.0
 40
0.0
 40
0.2
 40
0.2
 40
0.2
 40
0.2
 40
0.4
 40
0.4
 40
0.4
 40
0.4
 40
0.6
 40
0.6
 40
0.6
 40
0.6
 40
1.0
 40
1.0
 40
1.0
 40
1.0
 10
-37.523
 20
-6.425
 30
0.0
 10
-37.523
 20
-6.425
 30
0.0
 10
-37.9463
 20
-9.425
 30
0.0
 10
-37.9463
 20
-9.425
 30
0.0
 10
-37.9463
 20
-9.425
 30
0.0
 10
-37.9463
 20
-9.425
 30
0.0
 10
-38.0404
 20
-9.425
 30
0.0
 10
-38.0404
 20
-9.425
 30
0.0
 10
-38.0404
 20
-9.425
 30
0.0
 10
-38.0404
 20
-9.425
 30
0.0
 10
-38.4919
 20
-6.425
 30
0.0
 10
-38.4919
 20
-6.425
 30
0.0
 10
-38.4919
 20
-6.425
 30
0.0
 10
-38.4919
 20
-6.425
 30
0.0
 10
-37.523
 20
-6.425
 30
0.0
 10
-37.523
 20
-6.425
 30
0.0
  0
SPLINE
  5
53
330
1F
100
AcDbEntity
  8
ILUSTRACE
 62
   250
100
AcDbSpline
210
0.0
220
0.0
230
1.0
 70
    11
 71
     3
 72
    20
 73
    16
 74
     0
 42
0.0000000001
 43
0.0000000001
 40
0.0
 40
0.0
 40
0.0
 40
0.0
 40
0.2
 40
0.2
 40
0.2
 40
0.2
 40
0.4
 40
0.4
 40
0.4
 40
0.4
 40
0.6
 40
0.6
 40
0.6
 40
0.6
 40
1.0
 40
1.0
 40
1.0
 40
1.0
 10
-37.5471
 20
29.3881
 30
0.0
 10
-37.5471
 20
29.3881
 30
0.0
 10
-37.9704
 20
26.3881
 30
0.0
 10
-37.9704
 20
26.3881
 30
0.0
 10
-37.9704
 20
26.3881
 30
0.0
 10
-37.9704
 20
26.3881
 30
0.0
 10
-38.0645
 20
26.3881
 30
0.0
 10
-38.0645
 20
26.3881
 30
0.0
 10
-38.0645
 20
26.3881
 30
0.0
 10
-38.0645
 20
26.3881
 30
0.0
 10
-38.516
 20
29.3881
 30
0.0
 10
-38.516
 20
29.3881
 30
0.0
 10
-38.516
 20
29.3881
 30
0.0
 10
-38.516
 20
29.3881
 30
0.0
 10
-37.5471
 20
29.3881
 30
0.0
 10
-37.5471
 20
29.3881
 30
0.0
  0
SPLINE
  5
54
330
1F
100
AcDbEntity
  8
ILUSTRACE
 62
   250
100
AcDbSpline
210
0.0
220
0.0
230
1.0
 70
    11
 71
     3
 72
    20
 73
    16
 74
     0
 42
0.0000000001
 43
0.0000000001
 40
0.0
 40
0.0
 40
0.0
 40
0.0
 40
0.2
 40
0.2
 40
0.2
 40
0.2
 40
0.4
 40
0.4
 40
0.4
 40
0.4
 40
0.6
 40
0.6
 40
0.6
 40
0.6
 40
1.0
 40
1.0
 40
1.0
 40
1.0
 10
-23.8502
 20
6.9705
 30
0.0
 10
-23.8502
 20
6.9705
 30
0.0
 10
-26.8502
 20
7.3938
 30
0.0
 10
-26.8502
 20
7.3938
 30
0.0
 10
-26.8502
 20
7.3938
 30
0.0
 10
-26.8502
 20
7.3938
 30
0.0
 10
-26.8502
 20
7.4879
 30
0.0
 10
-26.8502
 20
7.4879
 30
0.0
 10
-26.8502
 20
7.4879
 30
0.0
 10
-26.8502
 20
7.4879
 30
0.0
 10
-23.8502
 20
7.9394
 30
0.0
 10
-23.8502
 20
7.9394
 30
0.0
 10
-23.8502
 20
7.9394
 30
0.0
 10
-23.8502
 20
7.9394
 30
0.0
 10
-23.8502
 20
6.9705
 30
0.0
 10
-23.8502
 20
6.9705
 30
0.0
  0
SPLINE
  5
55
330
1F
100
AcDbEntity
  8
ILUSTRACE
 62
   250
100
AcDbSpline
210
0.0
220
0.0
230
1.0
 70
    11
 71
     3
 72
    20
 73
    16
 74
     0
 42
0.0000000001
 43
0.0000000001
 40
0.0
 40
0.0
 40
0.0
 40
0.0
 40
0.2
 40
0.2
 40
0.2
 40
0.2
 40
0.4
 40
0.4
 40
0.4
 40
0.4
 40
0.6
 40
0.6
 40
0.6
 40
0.6
 40
1.0
 40
1.0
 40
1.0
 40
1.0
 10
-34.0941
 20
17.455
 30
0.0
 10
-34.0941
 20
17.455
 30
0.0
 10
-31.0941
 20
17.0315
 30
0.0
 10
-31.0941
 20
17.0315
 30
0.0
 10
-31.0941
 20
17.0315
 30
0.0
 10
-31.0941
 20
17.0315
 30
0.0
 10
-31.0941
 20
16.9375
 30
0.0
 10
-31.0941
 20
16.9375
 30
0.0
 10
-31.0941
 20
16.9375
 30
0.0
 10
-31.0941
 20
16.9375
 30
0.0
 10
-34.0941
 20
16.4859
 30
0.0
 10
-34.0941
 20
16.4859
 30
0.0
 10
-34.0941
 20
16.4859
 30
0.0
 10
-34.0941
 20
16.4859
 30
0.0
 10
-34.0941
 20
17.455
 30
0.0
 10
-34.0941
 20
17.455
 30
0.0
  0
SPLINE
  5
56
330
1F
100
AcDbEntity
  8
ILUSTRACE
 62
   250
100
AcDbSpline
210
0.0
220
0.0
230
1.0
 70
    11
 71
     3
 72
    20
 73
    16
 74
     0
 42
0.0000000001
 43
0.0000000001
 40
0.0
 40
0.0
 40
0.0
 40
0.0
 40
0.2
 40
0.2
 40
0.2
 40
0.2
 40
0.4
 40
0.4
 40
0.4
 40
0.4
 40
0.6
 40
0.6
 40
0.6
 40
0.6
 40
1.0
 40
1.0
 40
1.0
 40
1.0
 10
-34.0762
 20
28.4153
 30
0.0
 10
-34.0762
 20
28.4153
 30
0.0
 10
-31.0762
 20
27.9918
 30
0.0
 10
-31.0762
 20
27.9918
 30
0.0
 10
-31.0762
 20
27.9918
 30
0.0
 10
-31.0762
 20
27.9918
 30
0.0
 10
-31.0762
 20
27.8978
 30
0.0
 10
-31.0762
 20
27.8978
 30
0.0
 10
-31.0762
 20
27.8978
 30
0.0
 10
-31.0762
 20
27.8978
 30
0.0
 10
-34.0762
 20
27.4462
 30
0.0
 10
-34.0762
 20
27.4462
 30
0.0
 10
-34.0762
 20
27.4462
 30
0.0
 10
-34.0762
 20
27.4462
 30
0.0
 10
-34.0762
 20
28.4153
 30
0.0
 10
-34.0762
 20
28.4153
 30
0.0
  0
SPLINE
  5
57
330
1F
100
AcDbEntity
  8
ILUSTRACE
 62
   250
100
AcDbSpline
210
0.0
220
0.0
230
1.0
 70
    11
 71
     3
 72
    20
 73
    16
 74
     0
 42
0.0000000001
 43
0.0000000001
 40
0.0
 40
0.0
 40
0.0
 40
0.0
 40
0.2
 40
0.2
 40
0.2
 40
0.2
 40
0.4
 40
0.4
 40
0.4
 40
0.4
 40
0.6
 40
0.6
 40
0.6
 40
0.6
 40
1.0
 40
1.0
 40
1.0
 40
1.0
 10
8.531
 20
-16.3136
 30
0.0
 10
8.531
 20
-16.3136
 30
0.0
 10
8.9545
 20
-13.3136
 30
0.0
 10
8.9545
 20
-13.3136
 30
0.0
 10
8.9545
 20
-13.3136
 30
0.0
 10
8.9545
 20
-13.3136
 30
0.0
 10
9.0485
 20
-13.3136
 30
0.0
 10
9.0485
 20
-13.3136
 30
0.0
 10
9.0485
 20
-13.3136
 30
0.0
 10
9.0485
 20
-13.3136
 30
0.0
 10
9.5001
 20
-16.3136
 30
0.0
 10
9.5001
 20
-16.3136
 30
0.0
 10
9.5001
 20
-16.3136
 30
0.0
 10
9.5001
 20
-16.3136
 30
0.0
 10
8.531
 20
-16.3136
 30
0.0
 10
8.531
 20
-16.3136
 30
0.0
  0
SPLINE
  5
58
330
1F
100
AcDbEntity
  8
ILUSTRACE
 62
   250
100
AcDbSpline
210
0.0
220
0.0
230
1.0
 70
    11
 71
     3
 72
    20
 73
    16
 74
     0
 42
0.0000000001
 43
0.0000000001
 40
0.0
 40
0.0
 40
0.0
 40
0.0
 40
0.2
 40
0.2
 40
0.2
 40
0.2
 40
0.4
 40
0.4
 40
0.4
 40
0.4
 40
0.6
 40
0.6
 40
0.6
 40
0.6
 40
1.0
 40
1.0
 40
1.0
 40
1.0
 10
-38.4933
 20
22.2636
 30
0.0
 10
-38.4933
 20
22.2636
 30
0.0
 10
-38.0698
 20
25.2636
 30
0.0
 10
-38.0698
 20
25.2636
 30
0.0
 10
-38.0698
 20
25.2636
 30
0.0
 10
-38.0698
 20
25.2636
 30
0.0
 10
-37.9758
 20
25.2636
 30
0.0
 10
-37.9758
 20
25.2636
 30
0.0
 10
-37.9758
 20
25.2636
 30
0.0
 10
-37.9758
 20
25.2636
 30
0.0
 10
-37.5242
 20
22.2636
 30
0.0
 10
-37.5242
 20
22.2636
 30
0.0
 10
-37.5242
 20
22.2636
 30
0.0
 10
-37.5242
 20
22.2636
 30
0.0
 10
-38.4933
 20
22.2636
 30
0.0
 10
-38.4933
 20
22.2636
 30
0.0
  0
SPLINE
  5
59
330
1F
100
AcDbEntity
  8
ILUSTRACE
 62
   250
100
AcDbSpline
210
0.0
220
0.0
230
1.0
 70
    11
 71
     3
 72
    20
 73
    16
 74
     0
 42
0.0000000001
 43
0.0000000001
 40
0.0
 40
0.0
 40
0.0
 40
0.0
 40
0.2
 40
0.2
 40
0.2
 40
0.2
 40
0.4
 40
0.4
 40
0.4
 40
0.4
 40
0.6
 40
0.6
 40
0.6
 40
0.6
 40
1.0
 40
1.0
 40
1.0
 40
1.0
 10
-38.4632
 20
-12.5513
 30
0.0
 10
-38.4632
 20
-12.5513
 30
0.0
 10
-38.0397
 20
-9.5513
 30
0.0
 10
-38.0397
 20
-9.5513
 30
0.0
 10
-38.0397
 20
-9.5513
 30
0.0
 10
-38.0397
 20
-9.5513
 30
0.0
 10
-37.9457
 20
-9.5513
 30
0.0
 10
-37.9457
 20
-9.5513
 30
0.0
 10
-37.9457
 20
-9.5513
 30
0.0
 10
-37.9457
 20
-9.5513
 30
0.0
 10
-37.4941
 20
-12.5513
 30
0.0
 10
-37.4941
 20
-12.5513
 30
0.0
 10
-37.4941
 20
-12.5513
 30
0.0
 10
-37.4941
 20
-12.5513
 30
0.0
 10
-38.4632
 20
-12.5513
 30
0.0
 10
-38.4632
 20
-12.5513
 30
0.0
  0
SPLINE
  5
5A
330
1F
100
AcDbEntity
  8
ILUSTRACE
 62
   250
100
AcDbSpline
210
0.0
220
0.0
230
1.0
 70
    11
 71
     3
 72
    20
 73
    16
 74
     0
 42
0.0000000001
 43
0.0000000001
 40
0.0
 40
0.0
 40
0.0
 40
0.0
 40
0.2
 40
0.2
 40
0.2
 40
0.2
 40
0.4
 40
0.4
 40
0.4
 40
0.4
 40
0.6
 40
0.6
 40
0.6
 40
0.6
 40
1.0
 40
1.0
 40
1.0
 40
1.0
 10
-17.2874
 20
7.8674
 30
0.0
 10
-17.2874
 20
7.8674
 30
0.0
 10
-14.2874
 20
7.4439
 30
0.0
 10
-14.2874
 20
7.4439
 30
0.0
 10
-14.2874
 20
7.4439
 30
0.0
 10
-14.2874
 20
7.4439
 30
0.0
 10
-14.2874
 20
7.3499
 30
0.0
 10
-14.2874
 20
7.3499
 30
0.0
 10
-14.2874
 20
7.3499
 30
0.0
 10
-14.2874
 20
7.3499
 30
0.0
 10
-17.2874
 20
6.8983
 30
0.0
 10
-17.2874
 20
6.8983
 30
0.0
 10
-17.2874
 20
6.8983
 30
0.0
 10
-17.2874
 20
6.8983
 30
0.0
 10
-17.2874
 20
7.8674
 30
0.0
 10
-17.2874
 20
7.8674
 30
0.0
  0
SPLINE
  5
5B
330
1F
100
AcDbEntity
  8
ILUSTRACE
 62
   250
100
AcDbSpline
210
0.0
220
0.0
230
1.0
 70
    11
 71
     3
 72
    20
 73
    16
 74
     0
 42
0.0000000001
 43
0.0000000001
 40
0.0
 40
0.0
 40
0.0
 40
0.0
 40
0.2
 40
0.2
 40
0.2
 40
0.2
 40
0.4
 40
0.4
 40
0.4
 40
0.4
 40
0.6
 40
0.6
 40
0.6
 40
0.6
 40
1.0
 40
1.0
 40
1.0
 40
1.0
 10
37.4398
 20
7.8938
 30
0.0
 10
37.4398
 20
7.8938
 30
0.0
 10
40.4398
 20
7.4703
 30
0.0
 10
40.4398
 20
7.4703
 30
0.0
 10
40.4398
 20
7.4703
 30
0.0
 10
40.4398
 20
7.4703
 30
0.0
 10
40.4398
 20
7.3763
 30
0.0
 10
40.4398
 20
7.3763
 30
0.0
 10
40.4398
 20
7.3763
 30
0.0
 10
40.4398
 20
7.3763
 30
0.0
 10
37.4398
 20
6.9247
 30
0.0
 10
37.4398
 20
6.9247
 30
0.0
 10
37.4398
 20
6.9247
 30
0.0
 10
37.4398
 20
6.9247
 30
0.0
 10
37.4398
 20
7.8938
 30
0.0
 10
37.4398
 20
7.8938
 30
0.0
  0
SPLINE
  5
5C
330
1F
100
AcDbEntity
  8
ILUSTRACE
 62
   250
100
AcDbSpline
210
0.0
220
0.0
230
1.0
 70
    11
 71
     3
 72
    84
 73
    80
 74
     0
 42
0.0000000001
 43
0.0000000001
 40
0.0
 40
0.0
 40
0.0
 40
0.0
 40
0.0476190476190476
 40
0.0476190476190476
 40
0.0476190476190476
 40
0.0476190476190476
 40
0.0952380952380952
 40
0.0952380952380952
 40
0.0952380952380952
 40
0.0952380952380952
 40
0.1428571428571428
 40
0.1428571428571428
 40
0.1428571428571428
 40
0.1428571428571428
 40
0.1904761904761905
 40
0.1904761904761905
 40
0.1904761904761905
 40
0.1904761904761905
 40
0.2380952380952381
 40
0.2380952380952381
 40
0.2380952380952381
 40
0.2380952380952381
 40
0.2857142857142857
 40
0.2857142857142857
 40
0.2857142857142857
 40
0.2857142857142857
 40
0.3333333333333333
 40
0.3333333333333333
 40
0.3333333333333333
 40
0.3333333333333333
 40
0.3809523809523809
 40
0.3809523809523809
 40
0.3809523809523809
 40
0.3809523809523809
 40
0.4285714285714285
 40
0.4285714285714285
 40
0.4285714285714285
 40
0.4285714285714285
 40
0.4761904761904762
 40
0.4761904761904762
 40
0.4761904761904762
 40
0.4761904761904762
 40
0.5238095238095238
 40
0.5238095238095238
 40
0.5238095238095238
 40
0.5238095238095238
 40
0.5714285714285714
 40
0.5714285714285714
 40
0.5714285714285714
 40
0.5714285714285714
 40
0.6190476190476191
 40
0.6190476190476191
 40
0.6190476190476191
 40
0.6190476190476191
 40
0.6666666666666666
 40
0.6666666666666666
 40
0.6666666666666666
 40
0.6666666666666666
 40
0.7142857142857143
 40
0.7142857142857143
 40
0.7142857142857143
 40
0.7142857142857143
 40
0.7619047619047619
 40
0.7619047619047619
 40
0.7619047619047619
 40
0.7619047619047619
 40
0.8095238095238095
 40
0.8095238095238095
 40
0.8095238095238095
 40
0.8095238095238095
 40
0.8571428571428571
 40
0.8571428571428571
 40
0.8571428571428571
 40
0.8571428571428571
 40
0.9047619047619048
 40
0.9047619047619048
 40
0.9047619047619048
 40
0.9047619047619048
 40
1.0
 40
1.0
 40
1.0
 40
1.0
 10
-16.3788
 20
20.1339
 30
0.0
 10
-16.3788
 20
20.1339
 30
0.0
 10
-16.0895
 20
20.4579
 30
0.0
 10
-16.0895
 20
20.4579
 30
0.0
 10
-16.0895
 20
20.4579
 30
0.0
 10
-16.0895
 20
20.4579
 30
0.0
 10
-15.919
 20
20.3133
 30
0.0
 10
-15.919
 20
20.3133
 30
0.0
 10
-15.919
 20
20.3133
 30
0.0
 10
-15.919
 20
20.3133
 30
0.0
 10
-16.2218
 20
19.9722
 30
0.0
 10
-16.2218
 20
19.9722
 30
0.0
 10
-16.2218
 20
19.9722
 30
0.0
 10
-16.123
 20
19.8253
 30
0.0
 10
-16.0566
 20
19.6965
 30
0.0
 10
-16.0219
 20
19.5865
 30
0.0
 10
-16.0219
 20
19.5865
 30
0.0
 10
-15.976
 20
19.4419
 30
0.0
 10
-15.9531
 20
19.2796
 30
0.0
 10
-15.9531
 20
19.1009
 30
0.0
 10
-15.9531
 20
19.1009
 30
0.0
 10
-15.9531
 20
18.8422
 30
0.0
 10
-16.0054
 20
18.6117
 30
0.0
 10
-16.1101
 20
18.41
 30
0.0
 10
-16.1101
 20
18.41
 30
0.0
 10
-16.2148
 20
18.2078
 30
0.0
 10
-16.3611
 20
18.0549
 30
0.0
 10
-16.5499
 20
17.9514
 30
0.0
 10
-16.5499
 20
17.9514
 30
0.0
 10
-16.7392
 20
17.8485
 30
0.0
 10
-16.9397
 20
17.7968
 30
0.0
 10
-17.1519
 20
17.7968
 30
0.0
 10
-17.1519
 20
17.7968
 30
0.0
 10
-17.3107
 20
17.7968
 30
0.0
 10
-17.4542
 20
17.8191
 30
0.0
 10
-17.5829
 20
17.8638
 30
0.0
 10
-17.5829
 20
17.8638
 30
0.0
 10
-17.6817
 20
17.8985
 30
0.0
 10
-17.797
 20
17.9644
 30
0.0
 10
-17.9292
 20
18.0619
 30
0.0
 10
-17.9292
 20
18.0619
 30
0.0
 10
-17.9292
 20
18.0619
 30
0.0
 10
-18.2185
 20
17.738
 30
0.0
 10
-18.2185
 20
17.738
 30
0.0
 10
-18.2185
 20
17.738
 30
0.0
 10
-18.2185
 20
17.738
 30
0.0
 10
-18.389
 20
17.8826
 30
0.0
 10
-18.389
 20
17.8826
 30
0.0
 10
-18.389
 20
17.8826
 30
0.0
 10
-18.389
 20
17.8826
 30
0.0
 10
-18.0856
 20
18.2219
 30
0.0
 10
-18.0856
 20
18.2219
 30
0.0
 10
-18.0856
 20
18.2219
 30
0.0
 10
-18.1985
 20
18.393
 30
0.0
 10
-18.2738
 20
18.5394
 30
0.0
 10
-18.3114
 20
18.6605
 30
0.0
 10
-18.3114
 20
18.6605
 30
0.0
 10
-18.349
 20
18.7816
 30
0.0
 10
-18.3684
 20
18.9274
 30
0.0
 10
-18.3684
 20
19.0973
 30
0.0
 10
-18.3684
 20
19.0973
 30
0.0
 10
-18.3684
 20
19.3566
 30
0.0
 10
-18.3167
 20
19.5877
 30
0.0
 10
-18.2132
 20
19.7906
 30
0.0
 10
-18.2132
 20
19.7906
 30
0.0
 10
-18.1097
 20
19.9934
 30
0.0
 10
-17.9651
 20
20.1469
 30
0.0
 10
-17.7781
 20
20.2515
 30
0.0
 10
-17.7781
 20
20.2515
 30
0.0
 10
-17.5918
 20
20.3556
 30
0.0
 10
-17.3842
 20
20.4079
 30
0.0
 10
-17.1555
 20
20.4079
 30
0.0
 10
-17.1555
 20
20.4079
 30
0.0
 10
-17.0014
 20
20.4079
 30
0.0
 10
-16.8668
 20
20.3879
 30
0.0
 10
-16.7515
 20
20.3468
 30
0.0
 10
-16.7515
 20
20.3468
 30
0.0
 10
-16.6363
 20
20.3062
 30
0.0
 10
-16.5117
 20
20.235
 30
0.0
 10
-16.3788
 20
20.1339
 30
0.0
  0
SPLINE
  5
5D
330
1F
100
AcDbEntity
  8
ILUSTRACE
 62
   250
100
AcDbSpline
210
0.0
220
0.0
230
1.0
 70
    11
 71
     3
 72
    32
 73
    28
 74
     0
 42
0.0000000001
 43
0.0000000001
 40
0.0
 40
0.0
 40
0.0
 40
0.0
 40
0.125
 40
0.125
 40
0.125
 40
0.125
 40
0.25
 40
0.25
 40
0.25
 40
0.25
 40
0.375
 40
0.375
 40
0.375
 40
0.375
 40
0.5
 40
0.5
 40
0.5
 40
0.5
 40
0.625
 40
0.625
 40
0.625
 40
0.625
 40
0.75
 40
0.75
 40
0.75
 40
0.75
 40
1.0
 40
1.0
 40
1.0
 40
1.0
 10
-16.5852
 20
19.9017
 30
0.0
 10
-16.6933
 20
19.9863
 30
0.0
 10
-16.788
 20
20.0446
 30
0.0
 10
-16.8686
 20
20.0757
 30
0.0
 10
-16.8686
 20
20.0757
 30
0.0
 10
-16.9497
 20
20.1063
 30
0.0
 10
-17.0449
 20
20.1222
 30
0.0
 10
-17.1537
 20
20.1222
 30
0.0
 10
-17.1537
 20
20.1222
 30
0.0
 10
-17.4054
 20
20.1222
 30
0.0
 10
-17.6129
 20
20.0369
 30
0.0
 10
-17.7775
 20
19.8664
 30
0.0
 10
-17.7775
 20
19.8664
 30
0.0
 10
-17.9416
 20
19.6959
 30
0.0
 10
-18.0239
 20
19.4413
 30
0.0
 10
-18.0239
 20
19.102
 30
0.0
 10
-18.0239
 20
19.102
 30
0.0
 10
-18.0239
 20
18.9692
 30
0.0
 10
-18.011
 20
18.851
 30
0.0
 10
-17.9857
 20
18.7475
 30
0.0
 10
-17.9857
 20
18.7475
 30
0.0
 10
-17.9675
 20
18.6705
 30
0.0
 10
-17.9292
 20
18.5758
 30
0.0
 10
-17.8705
 20
18.4635
 30
0.0
 10
-17.8705
 20
18.4635
 30
0.0
 10
-17.8705
 20
18.4635
 30
0.0
 10
-16.5852
 20
19.9017
 30
0.0
 10
-16.5852
 20
19.9017
 30
0.0
  0
SPLINE
  5
5E
330
1F
100
AcDbEntity
  8
ILUSTRACE
 62
   250
100
AcDbSpline
210
0.0
220
0.0
230
1.0
 70
    11
 71
     3
 72
    28
 73
    24
 74
     0
 42
0.0000000001
 43
0.0000000001
 40
0.0
 40
0.0
 40
0.0
 40
0.0
 40
0.1428571428571428
 40
0.1428571428571428
 40
0.1428571428571428
 40
0.1428571428571428
 40
0.2857142857142857
 40
0.2857142857142857
 40
0.2857142857142857
 40
0.2857142857142857
 40
0.4285714285714285
 40
0.4285714285714285
 40
0.4285714285714285
 40
0.4285714285714285
 40
0.5714285714285714
 40
0.5714285714285714
 40
0.5714285714285714
 40
0.5714285714285714
 40
0.7142857142857143
 40
0.7142857142857143
 40
0.7142857142857143
 40
0.7142857142857143
 40
1.0
 40
1.0
 40
1.0
 40
1.0
 10
-16.444
 20
19.7241
 30
0.0
 10
-16.444
 20
19.7241
 30
0.0
 10
-17.724
 20
18.2913
 30
0.0
 10
-17.724
 20
18.2913
 30
0.0
 10
-17.724
 20
18.2913
 30
0.0
 10
-17.6358
 20
18.2189
 30
0.0
 10
-17.5541
 20
18.1684
 30
0.0
 10
-17.4794
 20
18.1396
 30
0.0
 10
-17.4794
 20
18.1396
 30
0.0
 10
-17.3819
 20
18.1014
 30
0.0
 10
-17.276
 20
18.0825
 30
0.0
 10
-17.1625
 20
18.0825
 30
0.0
 10
-17.1625
 20
18.0825
 30
0.0
 10
-16.9121
 20
18.0825
 30
0.0
 10
-16.7057
 20
18.1707
 30
0.0
 10
-16.5422
 20
18.3477
 30
0.0
 10
-16.5422
 20
18.3477
 30
0.0
 10
-16.3794
 20
18.5247
 30
0.0
 10
-16.2976
 20
18.7728
 30
0.0
 10
-16.2976
 20
19.092
 30
0.0
 10
-16.2976
 20
19.092
 30
0.0
 10
-16.2976
 20
19.3308
 30
0.0
 10
-16.3465
 20
19.5419
 30
0.0
 10
-16.444
 20
19.7241
 30
0.0
  0
SPLINE
  5
5F
330
1F
100
AcDbEntity
  8
ILUSTRACE
 62
   250
100
AcDbSpline
210
0.0
220
0.0
230
1.0
 70
    11
 71
     3
 72
    48
 73
    44
 74
     0
 42
0.0000000001
 43
0.0000000001
 40
0.0
 40
0.0
 40
0.0
 40
0.0
 40
0.0833333333333333
 40
0.0833333333333333
 40
0.0833333333333333
 40
0.0833333333333333
 40
0.1666666666666667
 40
0.1666666666666667
 40
0.1666666666666667
 40
0.1666666666666667
 40
0.25
 40
0.25
 40
0.25
 40
0.25
 40
0.3333333333333333
 40
0.3333333333333333
 40
0.3333333333333333
 40
0.3333333333333333
 40
0.4166666666666667
 40
0.4166666666666667
 40
0.4166666666666667
 40
0.4166666666666667
 40
0.5
 40
0.5
 40
0.5
 40
0.5
 40
0.5833333333333334
 40
0.5833333333333334
 40
0.5833333333333334
 40
0.5833333333333334
 40
0.6666666666666666
 40
0.6666666666666666
 40
0.6666666666666666
 40
0.6666666666666666
 40
0.75
 40
0.75
 40
0.75
 40
0.75
 40
0.8333333333333334
 40
0.8333333333333334
 40
0.8333333333333334
 40
0.8333333333333334
 40
1.0
 40
1.0
 40
1.0
 40
1.0
 10
-14.6478
 20
17.8397
 30
0.0
 10
-14.6478
 20
17.8397
 30
0.0
 10
-14.6478
 20
18.4441
 30
0.0
 10
-14.6478
 20
18.4441
 30
0.0
 10
-14.6478
 20
18.4441
 30
0.0
 10
-14.6478
 20
18.4441
 30
0.0
 10
-15.7432
 20
18.4441
 30
0.0
 10
-15.7432
 20
18.4441
 30
0.0
 10
-15.7432
 20
18.4441
 30
0.0
 10
-15.7432
 20
18.4441
 30
0.0
 10
-15.7432
 20
18.7287
 30
0.0
 10
-15.7432
 20
18.7287
 30
0.0
 10
-15.7432
 20
18.7287
 30
0.0
 10
-15.7432
 20
18.7287
 30
0.0
 10
-14.5908
 20
20.365
 30
0.0
 10
-14.5908
 20
20.365
 30
0.0
 10
-14.5908
 20
20.365
 30
0.0
 10
-14.5908
 20
20.365
 30
0.0
 10
-14.3374
 20
20.365
 30
0.0
 10
-14.3374
 20
20.365
 30
0.0
 10
-14.3374
 20
20.365
 30
0.0
 10
-14.3374
 20
20.365
 30
0.0
 10
-14.3374
 20
18.7287
 30
0.0
 10
-14.3374
 20
18.7287
 30
0.0
 10
-14.3374
 20
18.7287
 30
0.0
 10
-14.3374
 20
18.7287
 30
0.0
 10
-13.9964
 20
18.7287
 30
0.0
 10
-13.9964
 20
18.7287
 30
0.0
 10
-13.9964
 20
18.7287
 30
0.0
 10
-13.9964
 20
18.7287
 30
0.0
 10
-13.9964
 20
18.4441
 30
0.0
 10
-13.9964
 20
18.4441
 30
0.0
 10
-13.9964
 20
18.4441
 30
0.0
 10
-13.9964
 20
18.4441
 30
0.0
 10
-14.3374
 20
18.4441
 30
0.0
 10
-14.3374
 20
18.4441
 30
0.0
 10
-14.3374
 20
18.4441
 30
0.0
 10
-14.3374
 20
18.4441
 30
0.0
 10
-14.3374
 20
17.8397
 30
0.0
 10
-14.3374
 20
17.8397
 30
0.0
 10
-14.3374
 20
17.8397
 30
0.0
 10
-14.3374
 20
17.8397
 30
0.0
 10
-14.6478
 20
17.8397
 30
0.0
 10
-14.6478
 20
17.8397
 30
0.0
  0
SPLINE
  5
60
330
1F
100
AcDbEntity
  8
ILUSTRACE
 62
   250
100
AcDbSpline
210
0.0
220
0.0
230
1.0
 70
    11
 71
     3
 72
    16
 73
    12
 74
     0
 42
0.0000000001
 43
0.0000000001
 40
0.0
 40
0.0
 40
0.0
 40
0.0
 40
0.25
 40
0.25
 40
0.25
 40
0.25
 40
0.5
 40
0.5
 40
0.5
 40
0.5
 40
1.0
 40
1.0
 40
1.0
 40
1.0
 10
-14.6478
 20
18.7287
 30
0.0
 10
-14.6478
 20
18.7287
 30
0.0
 10
-14.6478
 20
19.867
 30
0.0
 10
-14.6478
 20
19.867
 30
0.0
 10
-14.6478
 20
19.867
 30
0.0
 10
-14.6478
 20
19.867
 30
0.0
 10
-15.4381
 20
18.7287
 30
0.0
 10
-15.4381
 20
18.7287
 30
0.0
 10
-15.4381
 20
18.7287
 30
0.0
 10
-15.4381
 20
18.7287
 30
0.0
 10
-14.6478
 20
18.7287
 30
0.0
 10
-14.6478
 20
18.7287
 30
0.0
  0
SPLINE
  5
61
330
1F
100
AcDbEntity
  8
ILUSTRACE
 62
   250
100
AcDbSpline
210
0.0
220
0.0
230
1.0
 70
    11
 71
     3
 72
    52
 73
    48
 74
     0
 42
0.0000000001
 43
0.0000000001
 40
0.0
 40
0.0
 40
0.0
 40
0.0
 40
0.0769230769230769
 40
0.0769230769230769
 40
0.0769230769230769
 40
0.0769230769230769
 40
0.1538461538461539
 40
0.1538461538461539
 40
0.1538461538461539
 40
0.1538461538461539
 40
0.2307692307692308
 40
0.2307692307692308
 40
0.2307692307692308
 40
0.2307692307692308
 40
0.3076923076923077
 40
0.3076923076923077
 40
0.3076923076923077
 40
0.3076923076923077
 40
0.3846153846153846
 40
0.3846153846153846
 40
0.3846153846153846
 40
0.3846153846153846
 40
0.4615384615384616
 40
0.4615384615384616
 40
0.4615384615384616
 40
0.4615384615384616
 40
0.5384615384615384
 40
0.5384615384615384
 40
0.5384615384615384
 40
0.5384615384615384
 40
0.6153846153846154
 40
0.6153846153846154
 40
0.6153846153846154
 40
0.6153846153846154
 40
0.6923076923076923
 40
0.6923076923076923
 40
0.6923076923076923
 40
0.6923076923076923
 40
0.7692307692307693
 40
0.7692307692307693
 40
0.7692307692307693
 40
0.7692307692307693
 40
0.8461538461538461
 40
0.8461538461538461
 40
0.8461538461538461
 40
0.8461538461538461
 40
1.0
 40
1.0
 40
1.0
 40
1.0
 10
-13.6795
 20
19.085
 30
0.0
 10
-13.6795
 20
19.3837
 30
0.0
 10
-13.6489
 20
19.6242
 30
0.0
 10
-13.5872
 20
19.8058
 30
0.0
 10
-13.5872
 20
19.8058
 30
0.0
 10
-13.526
 20
19.9881
 30
0.0
 10
-13.4343
 20
20.1286
 30
0.0
 10
-13.3132
 20
20.2274
 30
0.0
 10
-13.3132
 20
20.2274
 30
0.0
 10
-13.1921
 20
20.3262
 30
0.0
 10
-13.0398
 20
20.3756
 30
0.0
 10
-12.8563
 20
20.3756
 30
0.0
 10
-12.8563
 20
20.3756
 30
0.0
 10
-12.7205
 20
20.3756
 30
0.0
 10
-12.6017
 20
20.3479
 30
0.0
 10
-12.4994
 20
20.2933
 30
0.0
 10
-12.4994
 20
20.2933
 30
0.0
 10
-12.3971
 20
20.2392
 30
0.0
 10
-12.313
 20
20.1604
 30
0.0
 10
-12.246
 20
20.0575
 30
0.0
 10
-12.246
 20
20.0575
 30
0.0
 10
-12.1796
 20
19.9546
 30
0.0
 10
-12.1273
 20
19.8294
 30
0.0
 10
-12.0896
 20
19.6818
 30
0.0
 10
-12.0896
 20
19.6818
 30
0.0
 10
-12.0514
 20
19.5342
 30
0.0
 10
-12.0326
 20
19.3355
 30
0.0
 10
-12.0326
 20
19.085
 30
0.0
 10
-12.0326
 20
19.085
 30
0.0
 10
-12.0326
 20
18.7887
 30
0.0
 10
-12.0632
 20
18.55
 30
0.0
 10
-12.1237
 20
18.3677
 30
0.0
 10
-12.1237
 20
18.3677
 30
0.0
 10
-12.1849
 20
18.1854
 30
0.0
 10
-12.276
 20
18.0449
 30
0.0
 10
-12.3971
 20
17.9455
 30
0.0
 10
-12.3971
 20
17.9455
 30
0.0
 10
-12.5182
 20
17.8462
 30
0.0
 10
-12.6711
 20
17.7968
 30
0.0
 10
-12.8563
 20
17.7968
 30
0.0
 10
-12.8563
 20
17.7968
 30
0.0
 10
-13.0997
 20
17.7968
 30
0.0
 10
-13.2908
 20
17.8838
 30
0.0
 10
-13.4296
 20
18.0584
 30
0.0
 10
-13.4296
 20
18.0584
 30
0.0
 10
-13.596
 20
18.2683
 30
0.0
 10
-13.6795
 20
18.6111
 30
0.0
 10
-13.6795
 20
19.085
 30
0.0
  0
SPLINE
  5
62
330
1F
100
AcDbEntity
  8
ILUSTRACE
 62
   250
100
AcDbSpline
210
0.0
220
0.0
230
1.0
 70
    11
 71
     3
 72
    36
 73
    32
 74
     0
 42
0.0000000001
 43
0.0000000001
 40
0.0
 40
0.0
 40
0.0
 40
0.0
 40
0.1111111111111111
 40
0.1111111111111111
 40
0.1111111111111111
 40
0.1111111111111111
 40
0.2222222222222222
 40
0.2222222222222222
 40
0.2222222222222222
 40
0.2222222222222222
 40
0.3333333333333333
 40
0.3333333333333333
 40
0.3333333333333333
 40
0.3333333333333333
 40
0.4444444444444444
 40
0.4444444444444444
 40
0.4444444444444444
 40
0.4444444444444444
 40
0.5555555555555556
 40
0.5555555555555556
 40
0.5555555555555556
 40
0.5555555555555556
 40
0.6666666666666666
 40
0.6666666666666666
 40
0.6666666666666666
 40
0.6666666666666666
 40
0.7777777777777778
 40
0.7777777777777778
 40
0.7777777777777778
 40
0.7777777777777778
 40
1.0
 40
1.0
 40
1.0
 40
1.0
 10
-13.3608
 20
19.085
 30
0.0
 10
-13.3608
 20
18.6705
 30
0.0
 10
-13.312
 20
18.3947
 30
0.0
 10
-13.215
 20
18.2571
 30
0.0
 10
-13.215
 20
18.2571
 30
0.0
 10
-13.118
 20
18.1202
 30
0.0
 10
-12.9986
 20
18.0514
 30
0.0
 10
-12.8563
 20
18.0514
 30
0.0
 10
-12.8563
 20
18.0514
 30
0.0
 10
-12.7134
 20
18.0514
 30
0.0
 10
-12.5941
 20
18.1207
 30
0.0
 10
-12.4971
 20
18.2583
 30
0.0
 10
-12.4971
 20
18.2583
 30
0.0
 10
-12.4001
 20
18.3959
 30
0.0
 10
-12.3513
 20
18.6717
 30
0.0
 10
-12.3513
 20
19.085
 30
0.0
 10
-12.3513
 20
19.085
 30
0.0
 10
-12.3513
 20
19.5007
 30
0.0
 10
-12.4001
 20
19.777
 30
0.0
 10
-12.4971
 20
19.9134
 30
0.0
 10
-12.4971
 20
19.9134
 30
0.0
 10
-12.5941
 20
20.0504
 30
0.0
 10
-12.7146
 20
20.1186
 30
0.0
 10
-12.8593
 20
20.1186
 30
0.0
 10
-12.8593
 20
20.1186
 30
0.0
 10
-13.0021
 20
20.1186
 30
0.0
 10
-13.1156
 20
20.0581
 30
0.0
 10
-13.2009
 20
19.9375
 30
0.0
 10
-13.2009
 20
19.9375
 30
0.0
 10
-13.3073
 20
19.7841
 30
0.0
 10
-13.3608
 20
19.4995
 30
0.0
 10
-13.3608
 20
19.085
 30
0.0
  0
SPLINE
  5
63
330
1F
100
AcDbEntity
  8
ILUSTRACE
 62
   250
100
AcDbSpline
210
0.0
220
0.0
230
1.0
 70
    11
 71
     3
 72
   120
 73
   116
 74
     0
 42
0.0000000001
 43
0.0000000001
 40
0.0
 40
0.0
 40
0.0
 40
0.0
 40
0.0333333333333333
 40
0.0333333333333333
 40
0.0333333333333333
 40
0.0333333333333333
 40
0.0666666666666667
 40
0.0666666666666667
 40
0.0666666666666667
 40
0.0666666666666667
 40
0.1
 40
0.1
 40
0.1
 40
0.1
 40
0.1333333333333333
 40
0.1333333333333333
 40
0.1333333333333333
 40
0.1333333333333333
 40
0.1666666666666667
 40
0.1666666666666667
 40
0.1666666666666667
 40
0.1666666666666667
 40
0.2
 40
0.2
 40
0.2
 40
0.2
 40
0.2333333333333333
 40
0.2333333333333333
 40
0.2333333333333333
 40
0.2333333333333333
 40
0.2666666666666667
 40
0.2666666666666667
 40
0.2666666666666667
 40
0.2666666666666667
 40
0.3
 40
0.3
 40
0.3
 40
0.3
 40
0.3333333333333333
 40
0.3333333333333333
 40
0.3333333333333333
 40
0.3333333333333333
 40
0.3666666666666666
 40
0.3666666666666666
 40
0.3666666666666666
 40
0.3666666666666666
 40
0.4
 40
0.4
 40
0.4
 40
0.4
 40
0.4333333333333333
 40
0.4333333333333333
 40
0.4333333333333333
 40
0.4333333333333333
 40
0.4666666666666667
 40
0.4666666666666667
 40
0.4666666666666667
 40
0.4666666666666667
 40
0.5
 40
0.5
 40
0.5
 40
0.5
 40
0.5333333333333333
 40
0.5333333333333333
 40
0.5333333333333333
 40
0.5333333333333333
 40
0.5666666666666667
 40
0.5666666666666667
 40
0.5666666666666667
 40
0.5666666666666667
 40
0.6
 40
0.6
 40
0.6
 40
0.6
 40
0.6333333333333333
 40
0.6333333333333333
 40
0.6333333333333333
 40
0.6333333333333333
 40
0.6666666666666666
 40
0.6666666666666666
 40
0.6666666666666666
 40
0.6666666666666666
 40
0.7
 40
0.7
 40
0.7
 40
0.7
 40
0.7333333333333333
 40
0.7333333333333333
 40
0.7333333333333333
 40
0.7333333333333333
 40
0.7666666666666667
 40
0.7666666666666667
 40
0.7666666666666667
 40
0.7666666666666667
 40
0.8
 40
0.8
 40
0.8
 40
0.8
 40
0.8333333333333334
 40
0.8333333333333334
 40
0.8333333333333334
 40
0.8333333333333334
 40
0.8666666666666667
 40
0.8666666666666667
 40
0.8666666666666667
 40
0.8666666666666667
 40
0.9
 40
0.9
 40
0.9
 40
0.9
 40
0.9333333333333333
 40
0.9333333333333333
 40
0.9333333333333333
 40
0.9333333333333333
 40
1.0
 40
1.0
 40
1.0
 40
1.0
 10
-29.4769
 20
29.6514
 30
0.0
 10
-29.4769
 20
29.6514
 30
0.0
 10
-29.4769
 20
29.9472
 30
0.0
 10
-29.4769
 20
29.9472
 30
0.0
 10
-29.4769
 20
29.9472
 30
0.0
 10
-29.4769
 20
29.9472
 30
0.0
 10
-28.4767
 20
29.9489
 30
0.0
 10
-28.4767
 20
29.9489
 30
0.0
 10
-28.4767
 20
29.9489
 30
0.0
 10
-28.4767
 20
29.9489
 30
0.0
 10
-28.4767
 20
29.0123
 30
0.0
 10
-28.4767
 20
29.0123
 30
0.0
 10
-28.4767
 20
29.0123
 30
0.0
 10
-28.6302
 20
28.8812
 30
0.0
 10
-28.7885
 20
28.783
 30
0.0
 10
-28.9518
 20
28.7166
 30
0.0
 10
-28.9518
 20
28.7166
 30
0.0
 10
-29.1151
 20
28.6507
 30
0.0
 10
-29.2828
 20
28.6178
 30
0.0
 10
-29.4543
 20
28.6178
 30
0.0
 10
-29.4543
 20
28.6178
 30
0.0
 10
-29.6864
 20
28.6178
 30
0.0
 10
-29.8975
 20
28.6707
 30
0.0
 10
-30.0866
 20
28.7771
 30
0.0
 10
-30.0866
 20
28.7771
 30
0.0
 10
-30.2763
 20
28.8829
 30
0.0
 10
-30.4193
 20
29.037
 30
0.0
 10
-30.5161
 20
29.2375
 30
0.0
 10
-30.5161
 20
29.2375
 30
0.0
 10
-30.6128
 20
29.4386
 30
0.0
 10
-30.6612
 20
29.6632
 30
0.0
 10
-30.6612
 20
29.9113
 30
0.0
 10
-30.6612
 20
29.9113
 30
0.0
 10
-30.6612
 20
30.1571
 30
0.0
 10
-30.6128
 20
30.3864
 30
0.0
 10
-30.5166
 20
30.5992
 30
0.0
 10
-30.5166
 20
30.5992
 30
0.0
 10
-30.4209
 20
30.8126
 30
0.0
 10
-30.2824
 20
30.9708
 30
0.0
 10
-30.102
 20
31.0743
 30
0.0
 10
-30.102
 20
31.0743
 30
0.0
 10
-29.9217
 20
31.1772
 30
0.0
 10
-29.7139
 20
31.2289
 30
0.0
 10
-29.4785
 20
31.2289
 30
0.0
 10
-29.4785
 20
31.2289
 30
0.0
 10
-29.3081
 20
31.2289
 30
0.0
 10
-29.1536
 20
31.1995
 30
0.0
 10
-29.0156
 20
31.1401
 30
0.0
 10
-29.0156
 20
31.1401
 30
0.0
 10
-28.8776
 20
31.0813
 30
0.0
 10
-28.7693
 20
30.999
 30
0.0
 10
-28.6912
 20
30.8932
 30
0.0
 10
-28.6912
 20
30.8932
 30
0.0
 10
-28.6126
 20
30.7873
 30
0.0
 10
-28.5532
 20
30.6498
 30
0.0
 10
-28.512
 20
30.4799
 30
0.0
 10
-28.512
 20
30.4799
 30
0.0
 10
-28.512
 20
30.4799
 30
0.0
 10
-28.794
 20
30.3969
 30
0.0
 10
-28.794
 20
30.3969
 30
0.0
 10
-28.794
 20
30.3969
 30
0.0
 10
-28.8297
 20
30.5257
 30
0.0
 10
-28.8737
 20
30.6268
 30
0.0
 10
-28.926
 20
30.7003
 30
0.0
 10
-28.926
 20
30.7003
 30
0.0
 10
-28.9787
 20
30.7738
 30
0.0
 10
-29.0541
 20
30.8326
 30
0.0
 10
-29.1519
 20
30.8767
 30
0.0
 10
-29.1519
 20
30.8767
 30
0.0
 10
-29.2493
 20
30.9208
 30
0.0
 10
-29.3581
 20
30.9432
 30
0.0
 10
-29.4769
 20
30.9432
 30
0.0
 10
-29.4769
 20
30.9432
 30
0.0
 10
-29.6198
 20
30.9432
 30
0.0
 10
-29.7435
 20
30.9196
 30
0.0
 10
-29.8475
 20
30.8732
 30
0.0
 10
-29.8475
 20
30.8732
 30
0.0
 10
-29.9519
 20
30.8268
 30
0.0
 10
-30.0355
 20
30.7656
 30
0.0
 10
-30.0998
 20
30.6898
 30
0.0
 10
-30.0998
 20
30.6898
 30
0.0
 10
-30.1636
 20
30.6139
 30
0.0
 10
-30.2131
 20
30.531
 30
0.0
 10
-30.2488
 20
30.4399
 30
0.0
 10
-30.2488
 20
30.4399
 30
0.0
 10
-30.3088
 20
30.2841
 30
0.0
 10
-30.339
 20
30.1147
 30
0.0
 10
-30.339
 20
29.9319
 30
0.0
 10
-30.339
 20
29.9319
 30
0.0
 10
-30.339
 20
29.7067
 30
0.0
 10
-30.3027
 20
29.5185
 30
0.0
 10
-30.2301
 20
29.3668
 30
0.0
 10
-30.2301
 20
29.3668
 30
0.0
 10
-30.1576
 20
29.2151
 30
0.0
 10
-30.052
 20
29.1029
 30
0.0
 10
-29.9134
 20
29.0294
 30
0.0
 10
-29.9134
 20
29.0294
 30
0.0
 10
-29.7749
 20
28.9559
 30
0.0
 10
-29.6281
 20
28.9188
 30
0.0
 10
-29.4725
 20
28.9188
 30
0.0
 10
-29.4725
 20
28.9188
 30
0.0
 10
-29.3367
 20
28.9188
 30
0.0
 10
-29.2047
 20
28.947
 30
0.0
 10
-29.0761
 20
29.0029
 30
0.0
 10
-29.0761
 20
29.0029
 30
0.0
 10
-28.9469
 20
29.0582
 30
0.0
 10
-28.8495
 20
29.1176
 30
0.0
 10
-28.783
 20
29.1811
 30
0.0
 10
-28.783
 20
29.1811
 30
0.0
 10
-28.783
 20
29.1811
 30
0.0
 10
-28.783
 20
29.6514
 30
0.0
 10
-28.783
 20
29.6514
 30
0.0
 10
-28.783
 20
29.6514
 30
0.0
 10
-28.783
 20
29.6514
 30
0.0
 10
-29.4769
 20
29.6514
 30
0.0
 10
-29.4769
 20
29.6514
 30
0.0
  0
SPLINE
  5
64
330
1F
100
AcDbEntity
  8
ILUSTRACE
 62
   250
100
AcDbSpline
210
0.0
220
0.0
230
1.0
 70
    11
 71
     3
 72
    92
 73
    88
 74
     0
 42
0.0000000001
 43
0.0000000001
 40
0.0
 40
0.0
 40
0.0
 40
0.0
 40
0.0434782608695652
 40
0.0434782608695652
 40
0.0434782608695652
 40
0.0434782608695652
 40
0.0869565217391304
 40
0.0869565217391304
 40
0.0869565217391304
 40
0.0869565217391304
 40
0.1304347826086956
 40
0.1304347826086956
 40
0.1304347826086956
 40
0.1304347826086956
 40
0.1739130434782609
 40
0.1739130434782609
 40
0.1739130434782609
 40
0.1739130434782609
 40
0.2173913043478261
 40
0.2173913043478261
 40
0.2173913043478261
 40
0.2173913043478261
 40
0.2608695652173913
 40
0.2608695652173913
 40
0.2608695652173913
 40
0.2608695652173913
 40
0.3043478260869565
 40
0.3043478260869565
 40
0.3043478260869565
 40
0.3043478260869565
 40
0.3478260869565217
 40
0.3478260869565217
 40
0.3478260869565217
 40
0.3478260869565217
 40
0.391304347826087
 40
0.391304347826087
 40
0.391304347826087
 40
0.391304347826087
 40
0.4347826086956522
 40
0.4347826086956522
 40
0.4347826086956522
 40
0.4347826086956522
 40
0.4782608695652174
 40
0.4782608695652174
 40
0.4782608695652174
 40
0.4782608695652174
 40
0.5217391304347826
 40
0.5217391304347826
 40
0.5217391304347826
 40
0.5217391304347826
 40
0.5652173913043478
 40
0.5652173913043478
 40
0.5652173913043478
 40
0.5652173913043478
 40
0.6086956521739131
 40
0.6086956521739131
 40
0.6086956521739131
 40
0.6086956521739131
 40
0.6521739130434783
 40
0.6521739130434783
 40
0.6521739130434783
 40
0.6521739130434783
 40
0.6956521739130435
 40
0.6956521739130435
 40
0.6956521739130435
 40
0.6956521739130435
 40
0.7391304347826086
 40
0.7391304347826086
 40
0.7391304347826086
 40
0.7391304347826086
 40
0.782608695652174
 40
0.782608695652174
 40
0.782608695652174
 40
0.782608695652174
 40
0.8260869565217391
 40
0.8260869565217391
 40
0.8260869565217391
 40
0.8260869565217391
 40
0.8695652173913043
 40
0.8695652173913043
 40
0.8695652173913043
 40
0.8695652173913043
 40
0.9130434782608695
 40
0.9130434782608695
 40
0.9130434782608695
 40
0.9130434782608695
 40
1.0
 40
1.0
 40
1.0
 40
1.0
 10
-28.1337
 20
29.3221
 30
0.0
 10
-28.1337
 20
29.3221
 30
0.0
 10
-27.8291
 20
29.3498
 30
0.0
 10
-27.8291
 20
29.3498
 30
0.0
 10
-27.8291
 20
29.3498
 30
0.0
 10
-27.8065
 20
29.1911
 30
0.0
 10
-27.7543
 20
29.0723
 30
0.0
 10
-27.6724
 20
28.9923
 30
0.0
 10
-27.6724
 20
28.9923
 30
0.0
 10
-27.5899
 20
28.9124
 30
0.0
 10
-27.4909
 20
28.8724
 30
0.0
 10
-27.3749
 20
28.8724
 30
0.0
 10
-27.3749
 20
28.8724
 30
0.0
 10
-27.2353
 20
28.8724
 30
0.0
 10
-27.117
 20
28.9288
 30
0.0
 10
-27.0208
 20
29.0411
 30
0.0
 10
-27.0208
 20
29.0411
 30
0.0
 10
-26.9241
 20
29.154
 30
0.0
 10
-26.8757
 20
29.3033
 30
0.0
 10
-26.8757
 20
29.4891
 30
0.0
 10
-26.8757
 20
29.4891
 30
0.0
 10
-26.8757
 20
29.6661
 30
0.0
 10
-26.9219
 20
29.8055
 30
0.0
 10
-27.0148
 20
29.9078
 30
0.0
 10
-27.0148
 20
29.9078
 30
0.0
 10
-27.1077
 20
30.0101
 30
0.0
 10
-27.2292
 20
30.0612
 30
0.0
 10
-27.3799
 20
30.0612
 30
0.0
 10
-27.3799
 20
30.0612
 30
0.0
 10
-27.4733
 20
30.0612
 30
0.0
 10
-27.5574
 20
30.0383
 30
0.0
 10
-27.6328
 20
29.993
 30
0.0
 10
-27.6328
 20
29.993
 30
0.0
 10
-27.7081
 20
29.9477
 30
0.0
 10
-27.7669
 20
29.889
 30
0.0
 10
-27.8098
 20
29.8166
 30
0.0
 10
-27.8098
 20
29.8166
 30
0.0
 10
-27.8098
 20
29.8166
 30
0.0
 10
-28.082
 20
29.8543
 30
0.0
 10
-28.082
 20
29.8543
 30
0.0
 10
-28.082
 20
29.8543
 30
0.0
 10
-28.082
 20
29.8543
 30
0.0
 10
-27.8533
 20
31.1513
 30
0.0
 10
-27.8533
 20
31.1513
 30
0.0
 10
-27.8533
 20
31.1513
 30
0.0
 10
-27.8533
 20
31.1513
 30
0.0
 10
-26.6788
 20
31.1513
 30
0.0
 10
-26.6788
 20
31.1513
 30
0.0
 10
-26.6788
 20
31.1513
 30
0.0
 10
-26.6788
 20
31.1513
 30
0.0
 10
-26.6788
 20
30.855
 30
0.0
 10
-26.6788
 20
30.855
 30
0.0
 10
-26.6788
 20
30.855
 30
0.0
 10
-26.6788
 20
30.855
 30
0.0
 10
-27.6212
 20
30.855
 30
0.0
 10
-27.6212
 20
30.855
 30
0.0
 10
-27.6212
 20
30.855
 30
0.0
 10
-27.6212
 20
30.855
 30
0.0
 10
-27.7488
 20
30.1765
 30
0.0
 10
-27.7488
 20
30.1765
 30
0.0
 10
-27.7488
 20
30.1765
 30
0.0
 10
-27.6069
 20
30.2823
 30
0.0
 10
-27.4579
 20
30.3352
 30
0.0
 10
-27.3023
 20
30.3352
 30
0.0
 10
-27.3023
 20
30.3352
 30
0.0
 10
-27.0962
 20
30.3352
 30
0.0
 10
-26.9224
 20
30.2588
 30
0.0
 10
-26.7806
 20
30.1059
 30
0.0
 10
-26.7806
 20
30.1059
 30
0.0
 10
-26.6387
 20
29.953
 30
0.0
 10
-26.5678
 20
29.7567
 30
0.0
 10
-26.5678
 20
29.5168
 30
0.0
 10
-26.5678
 20
29.5168
 30
0.0
 10
-26.5678
 20
29.2881
 30
0.0
 10
-26.6304
 20
29.0905
 30
0.0
 10
-26.7547
 20
28.9241
 30
0.0
 10
-26.7547
 20
28.9241
 30
0.0
 10
-26.9065
 20
28.7201
 30
0.0
 10
-27.1132
 20
28.6178
 30
0.0
 10
-27.3749
 20
28.6178
 30
0.0
 10
-27.3749
 20
28.6178
 30
0.0
 10
-27.5899
 20
28.6178
 30
0.0
 10
-27.7653
 20
28.6819
 30
0.0
 10
-27.9011
 20
28.8106
 30
0.0
 10
-27.9011
 20
28.8106
 30
0.0
 10
-28.0369
 20
28.9394
 30
0.0
 10
-28.1144
 20
29.1099
 30
0.0
 10
-28.1337
 20
29.3221
 30
0.0
  0
SPLINE
  5
65
330
1F
100
AcDbEntity
  8
ILUSTRACE
 62
   250
100
AcDbSpline
210
0.0
220
0.0
230
1.0
 70
    11
 71
     3
 72
    20
 73
    16
 74
     0
 42
0.0000000001
 43
0.0000000001
 40
0.0
 40
0.0
 40
0.0
 40
0.0
 40
0.2
 40
0.2
 40
0.2
 40
0.2
 40
0.4
 40
0.4
 40
0.4
 40
0.4
 40
0.6
 40
0.6
 40
0.6
 40
0.6
 40
1.0
 40
1.0
 40
1.0
 40
1.0
 10
-26.4358
 20
28.6178
 30
0.0
 10
-26.4358
 20
28.6178
 30
0.0
 10
-25.7513
 20
31.2289
 30
0.0
 10
-25.7513
 20
31.2289
 30
0.0
 10
-25.7513
 20
31.2289
 30
0.0
 10
-25.7513
 20
31.2289
 30
0.0
 10
-25.5193
 20
31.2289
 30
0.0
 10
-25.5193
 20
31.2289
 30
0.0
 10
-25.5193
 20
31.2289
 30
0.0
 10
-25.5193
 20
31.2289
 30
0.0
 10
-26.2021
 20
28.6178
 30
0.0
 10
-26.2021
 20
28.6178
 30
0.0
 10
-26.2021
 20
28.6178
 30
0.0
 10
-26.2021
 20
28.6178
 30
0.0
 10
-26.4358
 20
28.6178
 30
0.0
 10
-26.4358
 20
28.6178
 30
0.0
  0
SPLINE
  5
66
330
1F
100
AcDbEntity
  8
ILUSTRACE
 62
   250
100
AcDbSpline
210
0.0
220
0.0
230
1.0
 70
    11
 71
     3
 72
    48
 73
    44
 74
     0
 42
0.0000000001
 43
0.0000000001
 40
0.0
 40
0.0
 40
0.0
 40
0.0
 40
0.0833333333333333
 40
0.0833333333333333
 40
0.0833333333333333
 40
0.0833333333333333
 40
0.1666666666666667
 40
0.1666666666666667
 40
0.1666666666666667
 40
0.1666666666666667
 40
0.25
 40
0.25
 40
0.25
 40
0.25
 40
0.3333333333333333
 40
0.3333333333333333
 40
0.3333333333333333
 40
0.3333333333333333
 40
0.4166666666666667
 40
0.4166666666666667
 40
0.4166666666666667
 40
0.4166666666666667
 40
0.5
 40
0.5
 40
0.5
 40
0.5
 40
0.5833333333333334
 40
0.5833333333333334
 40
0.5833333333333334
 40
0.5833333333333334
 40
0.6666666666666666
 40
0.6666666666666666
 40
0.6666666666666666
 40
0.6666666666666666
 40
0.75
 40
0.75
 40
0.75
 40
0.75
 40
0.8333333333333334
 40
0.8333333333333334
 40
0.8333333333333334
 40
0.8333333333333334
 40
1.0
 40
1.0
 40
1.0
 40
1.0
 10
-24.4532
 20
28.6607
 30
0.0
 10
-24.4532
 20
28.6607
 30
0.0
 10
-24.4532
 20
29.2651
 30
0.0
 10
-24.4532
 20
29.2651
 30
0.0
 10
-24.4532
 20
29.2651
 30
0.0
 10
-24.4532
 20
29.2651
 30
0.0
 10
-25.4775
 20
29.2651
 30
0.0
 10
-25.4775
 20
29.2651
 30
0.0
 10
-25.4775
 20
29.2651
 30
0.0
 10
-25.4775
 20
29.2651
 30
0.0
 10
-25.4775
 20
29.5497
 30
0.0
 10
-25.4775
 20
29.5497
 30
0.0
 10
-25.4775
 20
29.5497
 30
0.0
 10
-25.4775
 20
29.5497
 30
0.0
 10
-24.3998
 20
31.186
 30
0.0
 10
-24.3998
 20
31.186
 30
0.0
 10
-24.3998
 20
31.186
 30
0.0
 10
-24.3998
 20
31.186
 30
0.0
 10
-24.1628
 20
31.186
 30
0.0
 10
-24.1628
 20
31.186
 30
0.0
 10
-24.1628
 20
31.186
 30
0.0
 10
-24.1628
 20
31.186
 30
0.0
 10
-24.1628
 20
29.5497
 30
0.0
 10
-24.1628
 20
29.5497
 30
0.0
 10
-24.1628
 20
29.5497
 30
0.0
 10
-24.1628
 20
29.5497
 30
0.0
 10
-23.8439
 20
29.5497
 30
0.0
 10
-23.8439
 20
29.5497
 30
0.0
 10
-23.8439
 20
29.5497
 30
0.0
 10
-23.8439
 20
29.5497
 30
0.0
 10
-23.8439
 20
29.2651
 30
0.0
 10
-23.8439
 20
29.2651
 30
0.0
 10
-23.8439
 20
29.2651
 30
0.0
 10
-23.8439
 20
29.2651
 30
0.0
 10
-24.1628
 20
29.2651
 30
0.0
 10
-24.1628
 20
29.2651
 30
0.0
 10
-24.1628
 20
29.2651
 30
0.0
 10
-24.1628
 20
29.2651
 30
0.0
 10
-24.1628
 20
28.6607
 30
0.0
 10
-24.1628
 20
28.6607
 30
0.0
 10
-24.1628
 20
28.6607
 30
0.0
 10
-24.1628
 20
28.6607
 30
0.0
 10
-24.4532
 20
28.6607
 30
0.0
 10
-24.4532
 20
28.6607
 30
0.0
  0
SPLINE
  5
67
330
1F
100
AcDbEntity
  8
ILUSTRACE
 62
   250
100
AcDbSpline
210
0.0
220
0.0
230
1.0
 70
    11
 71
     3
 72
    16
 73
    12
 74
     0
 42
0.0000000001
 43
0.0000000001
 40
0.0
 40
0.0
 40
0.0
 40
0.0
 40
0.25
 40
0.25
 40
0.25
 40
0.25
 40
0.5
 40
0.5
 40
0.5
 40
0.5
 40
1.0
 40
1.0
 40
1.0
 40
1.0
 10
-24.4532
 20
29.5497
 30
0.0
 10
-24.4532
 20
29.5497
 30
0.0
 10
-24.4532
 20
30.688
 30
0.0
 10
-24.4532
 20
30.688
 30
0.0
 10
-24.4532
 20
30.688
 30
0.0
 10
-24.4532
 20
30.688
 30
0.0
 10
-25.1921
 20
29.5497
 30
0.0
 10
-25.1921
 20
29.5497
 30
0.0
 10
-25.1921
 20
29.5497
 30
0.0
 10
-25.1921
 20
29.5497
 30
0.0
 10
-24.4532
 20
29.5497
 30
0.0
 10
-24.4532
 20
29.5497
 30
0.0
  0
SPLINE
  5
68
330
1F
100
AcDbEntity
  8
ILUSTRACE
 62
   250
100
AcDbSpline
210
0.0
220
0.0
230
1.0
 70
    11
 71
     3
 72
    28
 73
    24
 74
     0
 42
0.0000000001
 43
0.0000000001
 40
0.0
 40
0.0
 40
0.0
 40
0.0
 40
0.1428571428571428
 40
0.1428571428571428
 40
0.1428571428571428
 40
0.1428571428571428
 40
0.2857142857142857
 40
0.2857142857142857
 40
0.2857142857142857
 40
0.2857142857142857
 40
0.4285714285714285
 40
0.4285714285714285
 40
0.4285714285714285
 40
0.4285714285714285
 40
0.5714285714285714
 40
0.5714285714285714
 40
0.5714285714285714
 40
0.5714285714285714
 40
0.7142857142857143
 40
0.7142857142857143
 40
0.7142857142857143
 40
0.7142857142857143
 40
1.0
 40
1.0
 40
1.0
 40
1.0
 10
-23.4525
 20
30.2917
 30
0.0
 10
-23.4525
 20
30.2917
 30
0.0
 10
-23.5333
 20
30.7727
 30
0.0
 10
-23.5333
 20
30.7727
 30
0.0
 10
-23.5333
 20
30.7727
 30
0.0
 10
-23.5333
 20
30.7727
 30
0.0
 10
-23.5333
 20
31.186
 30
0.0
 10
-23.5333
 20
31.186
 30
0.0
 10
-23.5333
 20
31.186
 30
0.0
 10
-23.5333
 20
31.186
 30
0.0
 10
-23.2028
 20
31.186
 30
0.0
 10
-23.2028
 20
31.186
 30
0.0
 10
-23.2028
 20
31.186
 30
0.0
 10
-23.2028
 20
31.186
 30
0.0
 10
-23.2028
 20
30.7727
 30
0.0
 10
-23.2028
 20
30.7727
 30
0.0
 10
-23.2028
 20
30.7727
 30
0.0
 10
-23.2028
 20
30.7727
 30
0.0
 10
-23.2754
 20
30.2917
 30
0.0
 10
-23.2754
 20
30.2917
 30
0.0
 10
-23.2754
 20
30.2917
 30
0.0
 10
-23.2754
 20
30.2917
 30
0.0
 10
-23.4525
 20
30.2917
 30
0.0
 10
-23.4525
 20
30.2917
 30
0.0
  0
SPLINE
  5
69
330
1F
100
AcDbEntity
  8
ILUSTRACE
 62
   250
100
AcDbSpline
210
0.0
220
0.0
230
1.0
 70
    11
 71
     3
 72
    28
 73
    24
 74
     0
 42
0.0000000001
 43
0.0000000001
 40
0.0
 40
0.0
 40
0.0
 40
0.0
 40
0.1428571428571428
 40
0.1428571428571428
 40
0.1428571428571428
 40
0.1428571428571428
 40
0.2857142857142857
 40
0.2857142857142857
 40
0.2857142857142857
 40
0.2857142857142857
 40
0.4285714285714285
 40
0.4285714285714285
 40
0.4285714285714285
 40
0.4285714285714285
 40
0.5714285714285714
 40
0.5714285714285714
 40
0.5714285714285714
 40
0.5714285714285714
 40
0.7142857142857143
 40
0.7142857142857143
 40
0.7142857142857143
 40
0.7142857142857143
 40
1.0
 40
1.0
 40
1.0
 40
1.0
 10
-22.9191
 20
30.2917
 30
0.0
 10
-22.9191
 20
30.2917
 30
0.0
 10
-22.9983
 20
30.7727
 30
0.0
 10
-22.9983
 20
30.7727
 30
0.0
 10
-22.9983
 20
30.7727
 30
0.0
 10
-22.9983
 20
30.7727
 30
0.0
 10
-22.9983
 20
31.186
 30
0.0
 10
-22.9983
 20
31.186
 30
0.0
 10
-22.9983
 20
31.186
 30
0.0
 10
-22.9983
 20
31.186
 30
0.0
 10
-22.6679
 20
31.186
 30
0.0
 10
-22.6679
 20
31.186
 30
0.0
 10
-22.6679
 20
31.186
 30
0.0
 10
-22.6679
 20
31.186
 30
0.0
 10
-22.6679
 20
30.7727
 30
0.0
 10
-22.6679
 20
30.7727
 30
0.0
 10
-22.6679
 20
30.7727
 30
0.0
 10
-22.6679
 20
30.7727
 30
0.0
 10
-22.7454
 20
30.2917
 30
0.0
 10
-22.7454
 20
30.2917
 30
0.0
 10
-22.7454
 20
30.2917
 30
0.0
 10
-22.7454
 20
30.2917
 30
0.0
 10
-22.9191
 20
30.2917
 30
0.0
 10
-22.9191
 20
30.2917
 30
0.0
  0
SPLINE
  5
6A
330
1F
100
AcDbEntity
  8
ILUSTRACE
 62
   250
100
AcDbSpline
210
0.0
220
0.0
230
1.0
 70
    11
 71
     3
 72
    84
 73
    80
 74
     0
 42
0.0000000001
 43
0.0000000001
 40
0.0
 40
0.0
 40
0.0
 40
0.0
 40
0.0476190476190476
 40
0.0476190476190476
 40
0.0476190476190476
 40
0.0476190476190476
 40
0.0952380952380952
 40
0.0952380952380952
 40
0.0952380952380952
 40
0.0952380952380952
 40
0.1428571428571428
 40
0.1428571428571428
 40
0.1428571428571428
 40
0.1428571428571428
 40
0.1904761904761905
 40
0.1904761904761905
 40
0.1904761904761905
 40
0.1904761904761905
 40
0.2380952380952381
 40
0.2380952380952381
 40
0.2380952380952381
 40
0.2380952380952381
 40
0.2857142857142857
 40
0.2857142857142857
 40
0.2857142857142857
 40
0.2857142857142857
 40
0.3333333333333333
 40
0.3333333333333333
 40
0.3333333333333333
 40
0.3333333333333333
 40
0.3809523809523809
 40
0.3809523809523809
 40
0.3809523809523809
 40
0.3809523809523809
 40
0.4285714285714285
 40
0.4285714285714285
 40
0.4285714285714285
 40
0.4285714285714285
 40
0.4761904761904762
 40
0.4761904761904762
 40
0.4761904761904762
 40
0.4761904761904762
 40
0.5238095238095238
 40
0.5238095238095238
 40
0.5238095238095238
 40
0.5238095238095238
 40
0.5714285714285714
 40
0.5714285714285714
 40
0.5714285714285714
 40
0.5714285714285714
 40
0.6190476190476191
 40
0.6190476190476191
 40
0.6190476190476191
 40
0.6190476190476191
 40
0.6666666666666666
 40
0.6666666666666666
 40
0.6666666666666666
 40
0.6666666666666666
 40
0.7142857142857143
 40
0.7142857142857143
 40
0.7142857142857143
 40
0.7142857142857143
 40
0.7619047619047619
 40
0.7619047619047619
 40
0.7619047619047619
 40
0.7619047619047619
 40
0.8095238095238095
 40
0.8095238095238095
 40
0.8095238095238095
 40
0.8095238095238095
 40
0.8571428571428571
 40
0.8571428571428571
 40
0.8571428571428571
 40
0.8571428571428571
 40
0.9047619047619048
 40
0.9047619047619048
 40
0.9047619047619048
 40
0.9047619047619048
 40
1.0
 40
1.0
 40
1.0
 40
1.0
 10
5.8537
 20
-21.4264
 30
0.0
 10
5.8537
 20
-21.4264
 30
0.0
 10
5.5297
 20
-21.1371
 30
0.0
 10
5.5297
 20
-21.1371
 30
0.0
 10
5.5297
 20
-21.1371
 30
0.0
 10
5.5297
 20
-21.1371
 30
0.0
 10
5.6743
 20
-20.9666
 30
0.0
 10
5.6743
 20
-20.9666
 30
0.0
 10
5.6743
 20
-20.9666
 30
0.0
 10
5.6743
 20
-20.9666
 30
0.0
 10
6.0154
 20
-21.2694
 30
0.0
 10
6.0154
 20
-21.2694
 30
0.0
 10
6.0154
 20
-21.2694
 30
0.0
 10
6.1623
 20
-21.1706
 30
0.0
 10
6.2911
 20
-21.1042
 30
0.0
 10
6.4011
 20
-21.0695
 30
0.0
 10
6.4011
 20
-21.0695
 30
0.0
 10
6.5457
 20
-21.0236
 30
0.0
 10
6.708
 20
-21.0007
 30
0.0
 10
6.8867
 20
-21.0007
 30
0.0
 10
6.8867
 20
-21.0007
 30
0.0
 10
7.1454
 20
-21.0007
 30
0.0
 10
7.3759
 20
-21.053
 30
0.0
 10
7.5776
 20
-21.1577
 30
0.0
 10
7.5776
 20
-21.1577
 30
0.0
 10
7.7798
 20
-21.2624
 30
0.0
 10
7.9327
 20
-21.4087
 30
0.0
 10
8.0362
 20
-21.5975
 30
0.0
 10
8.0362
 20
-21.5975
 30
0.0
 10
8.1391
 20
-21.7868
 30
0.0
 10
8.1908
 20
-21.9873
 30
0.0
 10
8.1908
 20
-22.1995
 30
0.0
 10
8.1908
 20
-22.1995
 30
0.0
 10
8.1908
 20
-22.3583
 30
0.0
 10
8.1685
 20
-22.5018
 30
0.0
 10
8.1238
 20
-22.6305
 30
0.0
 10
8.1238
 20
-22.6305
 30
0.0
 10
8.0891
 20
-22.7293
 30
0.0
 10
8.0232
 20
-22.8446
 30
0.0
 10
7.9257
 20
-22.9768
 30
0.0
 10
7.9257
 20
-22.9768
 30
0.0
 10
7.9257
 20
-22.9768
 30
0.0
 10
8.2496
 20
-23.2661
 30
0.0
 10
8.2496
 20
-23.2661
 30
0.0
 10
8.2496
 20
-23.2661
 30
0.0
 10
8.2496
 20
-23.2661
 30
0.0
 10
8.105
 20
-23.4366
 30
0.0
 10
8.105
 20
-23.4366
 30
0.0
 10
8.105
 20
-23.4366
 30
0.0
 10
8.105
 20
-23.4366
 30
0.0
 10
7.7657
 20
-23.1332
 30
0.0
 10
7.7657
 20
-23.1332
 30
0.0
 10
7.7657
 20
-23.1332
 30
0.0
 10
7.5946
 20
-23.2461
 30
0.0
 10
7.4482
 20
-23.3214
 30
0.0
 10
7.3271
 20
-23.359
 30
0.0
 10
7.3271
 20
-23.359
 30
0.0
 10
7.206
 20
-23.3966
 30
0.0
 10
7.0602
 20
-23.416
 30
0.0
 10
6.8903
 20
-23.416
 30
0.0
 10
6.8903
 20
-23.416
 30
0.0
 10
6.631
 20
-23.416
 30
0.0
 10
6.3999
 20
-23.3643
 30
0.0
 10
6.197
 20
-23.2608
 30
0.0
 10
6.197
 20
-23.2608
 30
0.0
 10
5.9942
 20
-23.1573
 30
0.0
 10
5.8407
 20
-23.0127
 30
0.0
 10
5.7361
 20
-22.8257
 30
0.0
 10
5.7361
 20
-22.8257
 30
0.0
 10
5.632
 20
-22.6394
 30
0.0
 10
5.5797
 20
-22.4318
 30
0.0
 10
5.5797
 20
-22.2031
 30
0.0
 10
5.5797
 20
-22.2031
 30
0.0
 10
5.5797
 20
-22.049
 30
0.0
 10
5.5997
 20
-21.9144
 30
0.0
 10
5.6408
 20
-21.7991
 30
0.0
 10
5.6408
 20
-21.7991
 30
0.0
 10
5.6814
 20
-21.6839
 30
0.0
 10
5.7526
 20
-21.5593
 30
0.0
 10
5.8537
 20
-21.4264
 30
0.0
  0
SPLINE
  5
6B
330
1F
100
AcDbEntity
  8
ILUSTRACE
 62
   250
100
AcDbSpline
210
0.0
220
0.0
230
1.0
 70
    11
 71
     3
 72
    32
 73
    28
 74
     0
 42
0.0000000001
 43
0.0000000001
 40
0.0
 40
0.0
 40
0.0
 40
0.0
 40
0.125
 40
0.125
 40
0.125
 40
0.125
 40
0.25
 40
0.25
 40
0.25
 40
0.25
 40
0.375
 40
0.375
 40
0.375
 40
0.375
 40
0.5
 40
0.5
 40
0.5
 40
0.5
 40
0.625
 40
0.625
 40
0.625
 40
0.625
 40
0.75
 40
0.75
 40
0.75
 40
0.75
 40
1.0
 40
1.0
 40
1.0
 40
1.0
 10
6.0859
 20
-21.6328
 30
0.0
 10
6.0013
 20
-21.7409
 30
0.0
 10
5.943
 20
-21.8356
 30
0.0
 10
5.9119
 20
-21.9162
 30
0.0
 10
5.9119
 20
-21.9162
 30
0.0
 10
5.8813
 20
-21.9973
 30
0.0
 10
5.8654
 20
-22.0925
 30
0.0
 10
5.8654
 20
-22.2013
 30
0.0
 10
5.8654
 20
-22.2013
 30
0.0
 10
5.8654
 20
-22.453
 30
0.0
 10
5.9507
 20
-22.6605
 30
0.0
 10
6.1212
 20
-22.8251
 30
0.0
 10
6.1212
 20
-22.8251
 30
0.0
 10
6.2917
 20
-22.9892
 30
0.0
 10
6.5463
 20
-23.0715
 30
0.0
 10
6.8856
 20
-23.0715
 30
0.0
 10
6.8856
 20
-23.0715
 30
0.0
 10
7.0184
 20
-23.0715
 30
0.0
 10
7.1366
 20
-23.0586
 30
0.0
 10
7.2401
 20
-23.0333
 30
0.0
 10
7.2401
 20
-23.0333
 30
0.0
 10
7.3171
 20
-23.0151
 30
0.0
 10
7.4118
 20
-22.9768
 30
0.0
 10
7.5241
 20
-22.9181
 30
0.0
 10
7.5241
 20
-22.9181
 30
0.0
 10
7.5241
 20
-22.9181
 30
0.0
 10
6.0859
 20
-21.6328
 30
0.0
 10
6.0859
 20
-21.6328
 30
0.0
  0
SPLINE
  5
6C
330
1F
100
AcDbEntity
  8
ILUSTRACE
 62
   250
100
AcDbSpline
210
0.0
220
0.0
230
1.0
 70
    11
 71
     3
 72
    28
 73
    24
 74
     0
 42
0.0000000001
 43
0.0000000001
 40
0.0
 40
0.0
 40
0.0
 40
0.0
 40
0.1428571428571428
 40
0.1428571428571428
 40
0.1428571428571428
 40
0.1428571428571428
 40
0.2857142857142857
 40
0.2857142857142857
 40
0.2857142857142857
 40
0.2857142857142857
 40
0.4285714285714285
 40
0.4285714285714285
 40
0.4285714285714285
 40
0.4285714285714285
 40
0.5714285714285714
 40
0.5714285714285714
 40
0.5714285714285714
 40
0.5714285714285714
 40
0.7142857142857143
 40
0.7142857142857143
 40
0.7142857142857143
 40
0.7142857142857143
 40
1.0
 40
1.0
 40
1.0
 40
1.0
 10
6.2635
 20
-21.4916
 30
0.0
 10
6.2635
 20
-21.4916
 30
0.0
 10
7.6963
 20
-22.7716
 30
0.0
 10
7.6963
 20
-22.7716
 30
0.0
 10
7.6963
 20
-22.7716
 30
0.0
 10
7.7687
 20
-22.6834
 30
0.0
 10
7.8192
 20
-22.6017
 30
0.0
 10
7.848
 20
-22.527
 30
0.0
 10
7.848
 20
-22.527
 30
0.0
 10
7.8862
 20
-22.4295
 30
0.0
 10
7.9051
 20
-22.3236
 30
0.0
 10
7.9051
 20
-22.2101
 30
0.0
 10
7.9051
 20
-22.2101
 30
0.0
 10
7.9051
 20
-21.9597
 30
0.0
 10
7.8169
 20
-21.7533
 30
0.0
 10
7.6399
 20
-21.5898
 30
0.0
 10
7.6399
 20
-21.5898
 30
0.0
 10
7.4629
 20
-21.427
 30
0.0
 10
7.2148
 20
-21.3452
 30
0.0
 10
6.8956
 20
-21.3452
 30
0.0
 10
6.8956
 20
-21.3452
 30
0.0
 10
6.6568
 20
-21.3452
 30
0.0
 10
6.4457
 20
-21.3941
 30
0.0
 10
6.2635
 20
-21.4916
 30
0.0
  0
SPLINE
  5
6D
330
1F
100
AcDbEntity
  8
ILUSTRACE
 62
   250
100
AcDbSpline
210
0.0
220
0.0
230
1.0
 70
    11
 71
     3
 72
    48
 73
    44
 74
     0
 42
0.0000000001
 43
0.0000000001
 40
0.0
 40
0.0
 40
0.0
 40
0.0
 40
0.0833333333333333
 40
0.0833333333333333
 40
0.0833333333333333
 40
0.0833333333333333
 40
0.1666666666666667
 40
0.1666666666666667
 40
0.1666666666666667
 40
0.1666666666666667
 40
0.25
 40
0.25
 40
0.25
 40
0.25
 40
0.3333333333333333
 40
0.3333333333333333
 40
0.3333333333333333
 40
0.3333333333333333
 40
0.4166666666666667
 40
0.4166666666666667
 40
0.4166666666666667
 40
0.4166666666666667
 40
0.5
 40
0.5
 40
0.5
 40
0.5
 40
0.5833333333333334
 40
0.5833333333333334
 40
0.5833333333333334
 40
0.5833333333333334
 40
0.6666666666666666
 40
0.6666666666666666
 40
0.6666666666666666
 40
0.6666666666666666
 40
0.75
 40
0.75
 40
0.75
 40
0.75
 40
0.8333333333333334
 40
0.8333333333333334
 40
0.8333333333333334
 40
0.8333333333333334
 40
1.0
 40
1.0
 40
1.0
 40
1.0
 10
8.1479
 20
-19.6954
 30
0.0
 10
8.1479
 20
-19.6954
 30
0.0
 10
7.5435
 20
-19.6954
 30
0.0
 10
7.5435
 20
-19.6954
 30
0.0
 10
7.5435
 20
-19.6954
 30
0.0
 10
7.5435
 20
-19.6954
 30
0.0
 10
7.5435
 20
-20.7908
 30
0.0
 10
7.5435
 20
-20.7908
 30
0.0
 10
7.5435
 20
-20.7908
 30
0.0
 10
7.5435
 20
-20.7908
 30
0.0
 10
7.2589
 20
-20.7908
 30
0.0
 10
7.2589
 20
-20.7908
 30
0.0
 10
7.2589
 20
-20.7908
 30
0.0
 10
7.2589
 20
-20.7908
 30
0.0
 10
5.6226
 20
-19.6384
 30
0.0
 10
5.6226
 20
-19.6384
 30
0.0
 10
5.6226
 20
-19.6384
 30
0.0
 10
5.6226
 20
-19.6384
 30
0.0
 10
5.6226
 20
-19.385
 30
0.0
 10
5.6226
 20
-19.385
 30
0.0
 10
5.6226
 20
-19.385
 30
0.0
 10
5.6226
 20
-19.385
 30
0.0
 10
7.2589
 20
-19.385
 30
0.0
 10
7.2589
 20
-19.385
 30
0.0
 10
7.2589
 20
-19.385
 30
0.0
 10
7.2589
 20
-19.385
 30
0.0
 10
7.2589
 20
-19.044
 30
0.0
 10
7.2589
 20
-19.044
 30
0.0
 10
7.2589
 20
-19.044
 30
0.0
 10
7.2589
 20
-19.044
 30
0.0
 10
7.5435
 20
-19.044
 30
0.0
 10
7.5435
 20
-19.044
 30
0.0
 10
7.5435
 20
-19.044
 30
0.0
 10
7.5435
 20
-19.044
 30
0.0
 10
7.5435
 20
-19.385
 30
0.0
 10
7.5435
 20
-19.385
 30
0.0
 10
7.5435
 20
-19.385
 30
0.0
 10
7.5435
 20
-19.385
 30
0.0
 10
8.1479
 20
-19.385
 30
0.0
 10
8.1479
 20
-19.385
 30
0.0
 10
8.1479
 20
-19.385
 30
0.0
 10
8.1479
 20
-19.385
 30
0.0
 10
8.1479
 20
-19.6954
 30
0.0
 10
8.1479
 20
-19.6954
 30
0.0
  0
SPLINE
  5
6E
330
1F
100
AcDbEntity
  8
ILUSTRACE
 62
   250
100
AcDbSpline
210
0.0
220
0.0
230
1.0
 70
    11
 71
     3
 72
    16
 73
    12
 74
     0
 42
0.0000000001
 43
0.0000000001
 40
0.0
 40
0.0
 40
0.0
 40
0.0
 40
0.25
 40
0.25
 40
0.25
 40
0.25
 40
0.5
 40
0.5
 40
0.5
 40
0.5
 40
1.0
 40
1.0
 40
1.0
 40
1.0
 10
7.2589
 20
-19.6954
 30
0.0
 10
7.2589
 20
-19.6954
 30
0.0
 10
6.1206
 20
-19.6954
 30
0.0
 10
6.1206
 20
-19.6954
 30
0.0
 10
6.1206
 20
-19.6954
 30
0.0
 10
6.1206
 20
-19.6954
 30
0.0
 10
7.2589
 20
-20.4857
 30
0.0
 10
7.2589
 20
-20.4857
 30
0.0
 10
7.2589
 20
-20.4857
 30
0.0
 10
7.2589
 20
-20.4857
 30
0.0
 10
7.2589
 20
-19.6954
 30
0.0
 10
7.2589
 20
-19.6954
 30
0.0
  0
SPLINE
  5
6F
330
1F
100
AcDbEntity
  8
ILUSTRACE
 62
   250
100
AcDbSpline
210
0.0
220
0.0
230
1.0
 70
    11
 71
     3
 72
    52
 73
    48
 74
     0
 42
0.0000000001
 43
0.0000000001
 40
0.0
 40
0.0
 40
0.0
 40
0.0
 40
0.0769230769230769
 40
0.0769230769230769
 40
0.0769230769230769
 40
0.0769230769230769
 40
0.1538461538461539
 40
0.1538461538461539
 40
0.1538461538461539
 40
0.1538461538461539
 40
0.2307692307692308
 40
0.2307692307692308
 40
0.2307692307692308
 40
0.2307692307692308
 40
0.3076923076923077
 40
0.3076923076923077
 40
0.3076923076923077
 40
0.3076923076923077
 40
0.3846153846153846
 40
0.3846153846153846
 40
0.3846153846153846
 40
0.3846153846153846
 40
0.4615384615384616
 40
0.4615384615384616
 40
0.4615384615384616
 40
0.4615384615384616
 40
0.5384615384615384
 40
0.5384615384615384
 40
0.5384615384615384
 40
0.5384615384615384
 40
0.6153846153846154
 40
0.6153846153846154
 40
0.6153846153846154
 40
0.6153846153846154
 40
0.6923076923076923
 40
0.6923076923076923
 40
0.6923076923076923
 40
0.6923076923076923
 40
0.7692307692307693
 40
0.7692307692307693
 40
0.7692307692307693
 40
0.7692307692307693
 40
0.8461538461538461
 40
0.8461538461538461
 40
0.8461538461538461
 40
0.8461538461538461
 40
1.0
 40
1.0
 40
1.0
 40
1.0
 10
6.9026
 20
-18.7271
 30
0.0
 10
6.6039
 20
-18.7271
 30
0.0
 10
6.3634
 20
-18.6965
 30
0.0
 10
6.1818
 20
-18.6348
 30
0.0
 10
6.1818
 20
-18.6348
 30
0.0
 10
5.9995
 20
-18.5736
 30
0.0
 10
5.859
 20
-18.4819
 30
0.0
 10
5.7602
 20
-18.3608
 30
0.0
 10
5.7602
 20
-18.3608
 30
0.0
 10
5.6614
 20
-18.2397
 30
0.0
 10
5.612
 20
-18.0874
 30
0.0
 10
5.612
 20
-17.9039
 30
0.0
 10
5.612
 20
-17.9039
 30
0.0
 10
5.612
 20
-17.7681
 30
0.0
 10
5.6397
 20
-17.6493
 30
0.0
 10
5.6943
 20
-17.547
 30
0.0
 10
5.6943
 20
-17.547
 30
0.0
 10
5.7484
 20
-17.4447
 30
0.0
 10
5.8272
 20
-17.3606
 30
0.0
 10
5.9301
 20
-17.2936
 30
0.0
 10
5.9301
 20
-17.2936
 30
0.0
 10
6.033
 20
-17.2272
 30
0.0
 10
6.1582
 20
-17.1749
 30
0.0
 10
6.3058
 20
-17.1372
 30
0.0
 10
6.3058
 20
-17.1372
 30
0.0
 10
6.4534
 20
-17.099
 30
0.0
 10
6.6521
 20
-17.0802
 30
0.0
 10
6.9026
 20
-17.0802
 30
0.0
 10
6.9026
 20
-17.0802
 30
0.0
 10
7.1989
 20
-17.0802
 30
0.0
 10
7.4376
 20
-17.1108
 30
0.0
 10
7.6199
 20
-17.1713
 30
0.0
 10
7.6199
 20
-17.1713
 30
0.0
 10
7.8022
 20
-17.2325
 30
0.0
 10
7.9427
 20
-17.3236
 30
0.0
 10
8.0421
 20
-17.4447
 30
0.0
 10
8.0421
 20
-17.4447
 30
0.0
 10
8.1414
 20
-17.5658
 30
0.0
 10
8.1908
 20
-17.7187
 30
0.0
 10
8.1908
 20
-17.9039
 30
0.0
 10
8.1908
 20
-17.9039
 30
0.0
 10
8.1908
 20
-18.1473
 30
0.0
 10
8.1038
 20
-18.3384
 30
0.0
 10
7.9292
 20
-18.4772
 30
0.0
 10
7.9292
 20
-18.4772
 30
0.0
 10
7.7193
 20
-18.6436
 30
0.0
 10
7.3765
 20
-18.7271
 30
0.0
 10
6.9026
 20
-18.7271
 30
0.0
  0
SPLINE
  5
70
330
1F
100
AcDbEntity
  8
ILUSTRACE
 62
   250
100
AcDbSpline
210
0.0
220
0.0
230
1.0
 70
    11
 71
     3
 72
    36
 73
    32
 74
     0
 42
0.0000000001
 43
0.0000000001
 40
0.0
 40
0.0
 40
0.0
 40
0.0
 40
0.1111111111111111
 40
0.1111111111111111
 40
0.1111111111111111
 40
0.1111111111111111
 40
0.2222222222222222
 40
0.2222222222222222
 40
0.2222222222222222
 40
0.2222222222222222
 40
0.3333333333333333
 40
0.3333333333333333
 40
0.3333333333333333
 40
0.3333333333333333
 40
0.4444444444444444
 40
0.4444444444444444
 40
0.4444444444444444
 40
0.4444444444444444
 40
0.5555555555555556
 40
0.5555555555555556
 40
0.5555555555555556
 40
0.5555555555555556
 40
0.6666666666666666
 40
0.6666666666666666
 40
0.6666666666666666
 40
0.6666666666666666
 40
0.7777777777777778
 40
0.7777777777777778
 40
0.7777777777777778
 40
0.7777777777777778
 40
1.0
 40
1.0
 40
1.0
 40
1.0
 10
6.9026
 20
-18.4084
 30
0.0
 10
7.3171
 20
-18.4084
 30
0.0
 10
7.5929
 20
-18.3596
 30
0.0
 10
7.7305
 20
-18.2626
 30
0.0
 10
7.7305
 20
-18.2626
 30
0.0
 10
7.8674
 20
-18.1656
 30
0.0
 10
7.9362
 20
-18.0462
 30
0.0
 10
7.9362
 20
-17.9039
 30
0.0
 10
7.9362
 20
-17.9039
 30
0.0
 10
7.9362
 20
-17.761
 30
0.0
 10
7.8669
 20
-17.6417
 30
0.0
 10
7.7293
 20
-17.5447
 30
0.0
 10
7.7293
 20
-17.5447
 30
0.0
 10
7.5917
 20
-17.4477
 30
0.0
 10
7.3159
 20
-17.3989
 30
0.0
 10
6.9026
 20
-17.3989
 30
0.0
 10
6.9026
 20
-17.3989
 30
0.0
 10
6.4869
 20
-17.3989
 30
0.0
 10
6.2106
 20
-17.4477
 30
0.0
 10
6.0742
 20
-17.5447
 30
0.0
 10
6.0742
 20
-17.5447
 30
0.0
 10
5.9372
 20
-17.6417
 30
0.0
 10
5.869
 20
-17.7622
 30
0.0
 10
5.869
 20
-17.9069
 30
0.0
 10
5.869
 20
-17.9069
 30
0.0
 10
5.869
 20
-18.0497
 30
0.0
 10
5.9295
 20
-18.1632
 30
0.0
 10
6.0501
 20
-18.2485
 30
0.0
 10
6.0501
 20
-18.2485
 30
0.0
 10
6.2035
 20
-18.3549
 30
0.0
 10
6.4881
 20
-18.4084
 30
0.0
 10
6.9026
 20
-18.4084
 30
0.0
  0
SPLINE
  5
71
330
1F
100
AcDbEntity
  8
ILUSTRACE
 62
   250
100
AcDbSpline
210
0.0
220
0.0
230
1.0
 70
    11
 71
     3
 72
    40
 73
    36
 74
     0
 42
0.0000000001
 43
0.0000000001
 40
0.0
 40
0.0
 40
0.0
 40
0.0
 40
0.1
 40
0.1
 40
0.1
 40
0.1
 40
0.2
 40
0.2
 40
0.2
 40
0.2
 40
0.3
 40
0.3
 40
0.3
 40
0.3
 40
0.4
 40
0.4
 40
0.4
 40
0.4
 40
0.5
 40
0.5
 40
0.5
 40
0.5
 40
0.6
 40
0.6
 40
0.6
 40
0.6
 40
0.7
 40
0.7
 40
0.7
 40
0.7
 40
0.8
 40
0.8
 40
0.8
 40
0.8
 40
1.0
 40
1.0
 40
1.0
 40
1.0
 10
-38.9049
 20
-25.0685
 30
0.0
 10
-38.9049
 20
-25.0685
 30
0.0
 10
-38.9049
 20
-25.3784
 30
0.0
 10
-38.9049
 20
-25.3784
 30
0.0
 10
-38.9049
 20
-25.3784
 30
0.0
 10
-38.9049
 20
-25.3784
 30
0.0
 10
-40.8805
 20
-25.3784
 30
0.0
 10
-40.8805
 20
-25.3784
 30
0.0
 10
-40.8805
 20
-25.3784
 30
0.0
 10
-40.8093
 20
-25.453
 30
0.0
 10
-40.7382
 20
-25.5506
 30
0.0
 10
-40.667
 20
-25.6718
 30
0.0
 10
-40.667
 20
-25.6718
 30
0.0
 10
-40.5959
 20
-25.7935
 30
0.0
 10
-40.5424
 20
-25.9022
 30
0.0
 10
-40.5071
 20
-25.9987
 30
0.0
 10
-40.5071
 20
-25.9987
 30
0.0
 10
-40.5071
 20
-25.9987
 30
0.0
 10
-40.8064
 20
-25.9987
 30
0.0
 10
-40.8064
 20
-25.9987
 30
0.0
 10
-40.8064
 20
-25.9987
 30
0.0
 10
-40.8881
 20
-25.8252
 30
0.0
 10
-40.9869
 20
-25.6735
 30
0.0
 10
-41.1027
 20
-25.5436
 30
0.0
 10
-41.1027
 20
-25.5436
 30
0.0
 10
-41.2191
 20
-25.4142
 30
0.0
 10
-41.3314
 20
-25.3219
 30
0.0
 10
-41.4408
 20
-25.2678
 30
0.0
 10
-41.4408
 20
-25.2678
 30
0.0
 10
-41.4408
 20
-25.2678
 30
0.0
 10
-41.4408
 20
-25.0685
 30
0.0
 10
-41.4408
 20
-25.0685
 30
0.0
 10
-41.4408
 20
-25.0685
 30
0.0
 10
-41.4408
 20
-25.0685
 30
0.0
 10
-38.9049
 20
-25.0685
 30
0.0
 10
-38.9049
 20
-25.0685
 30
0.0
  0
SPLINE
  5
72
330
1F
100
AcDbEntity
  8
ILUSTRACE
 62
   250
100
AcDbSpline
210
0.0
220
0.0
230
1.0
 70
    11
 71
     3
 72
    40
 73
    36
 74
     0
 42
0.0000000001
 43
0.0000000001
 40
0.0
 40
0.0
 40
0.0
 40
0.0
 40
0.1
 40
0.1
 40
0.1
 40
0.1
 40
0.2
 40
0.2
 40
0.2
 40
0.2
 40
0.3
 40
0.3
 40
0.3
 40
0.3
 40
0.4
 40
0.4
 40
0.4
 40
0.4
 40
0.5
 40
0.5
 40
0.5
 40
0.5
 40
0.6
 40
0.6
 40
0.6
 40
0.6
 40
0.7
 40
0.7
 40
0.7
 40
0.7
 40
0.8
 40
0.8
 40
0.8
 40
0.8
 40
1.0
 40
1.0
 40
1.0
 40
1.0
 10
-38.9049
 20
-23.3681
 30
0.0
 10
-38.9049
 20
-23.3681
 30
0.0
 10
-38.9049
 20
-23.678
 30
0.0
 10
-38.9049
 20
-23.678
 30
0.0
 10
-38.9049
 20
-23.678
 30
0.0
 10
-38.9049
 20
-23.678
 30
0.0
 10
-40.8805
 20
-23.678
 30
0.0
 10
-40.8805
 20
-23.678
 30
0.0
 10
-40.8805
 20
-23.678
 30
0.0
 10
-40.8093
 20
-23.7527
 30
0.0
 10
-40.7382
 20
-23.8503
 30
0.0
 10
-40.667
 20
-23.9714
 30
0.0
 10
-40.667
 20
-23.9714
 30
0.0
 10
-40.5959
 20
-24.0931
 30
0.0
 10
-40.5424
 20
-24.2019
 30
0.0
 10
-40.5071
 20
-24.2983
 30
0.0
 10
-40.5071
 20
-24.2983
 30
0.0
 10
-40.5071
 20
-24.2983
 30
0.0
 10
-40.8064
 20
-24.2983
 30
0.0
 10
-40.8064
 20
-24.2983
 30
0.0
 10
-40.8064
 20
-24.2983
 30
0.0
 10
-40.8881
 20
-24.1248
 30
0.0
 10
-40.9869
 20
-23.9732
 30
0.0
 10
-41.1027
 20
-23.8432
 30
0.0
 10
-41.1027
 20
-23.8432
 30
0.0
 10
-41.2191
 20
-23.7138
 30
0.0
 10
-41.3314
 20
-23.6215
 30
0.0
 10
-41.4408
 20
-23.5675
 30
0.0
 10
-41.4408
 20
-23.5675
 30
0.0
 10
-41.4408
 20
-23.5675
 30
0.0
 10
-41.4408
 20
-23.3681
 30
0.0
 10
-41.4408
 20
-23.3681
 30
0.0
 10
-41.4408
 20
-23.3681
 30
0.0
 10
-41.4408
 20
-23.3681
 30
0.0
 10
-38.9049
 20
-23.3681
 30
0.0
 10
-38.9049
 20
-23.3681
 30
0.0
  0
SPLINE
  5
73
330
1F
100
AcDbEntity
  8
ILUSTRACE
 62
   250
100
AcDbSpline
210
0.0
220
0.0
230
1.0
 70
    11
 71
     3
 72
    92
 73
    88
 74
     0
 42
0.0000000001
 43
0.0000000001
 40
0.0
 40
0.0
 40
0.0
 40
0.0
 40
0.0434782608695652
 40
0.0434782608695652
 40
0.0434782608695652
 40
0.0434782608695652
 40
0.0869565217391304
 40
0.0869565217391304
 40
0.0869565217391304
 40
0.0869565217391304
 40
0.1304347826086956
 40
0.1304347826086956
 40
0.1304347826086956
 40
0.1304347826086956
 40
0.1739130434782609
 40
0.1739130434782609
 40
0.1739130434782609
 40
0.1739130434782609
 40
0.2173913043478261
 40
0.2173913043478261
 40
0.2173913043478261
 40
0.2173913043478261
 40
0.2608695652173913
 40
0.2608695652173913
 40
0.2608695652173913
 40
0.2608695652173913
 40
0.3043478260869565
 40
0.3043478260869565
 40
0.3043478260869565
 40
0.3043478260869565
 40
0.3478260869565217
 40
0.3478260869565217
 40
0.3478260869565217
 40
0.3478260869565217
 40
0.391304347826087
 40
0.391304347826087
 40
0.391304347826087
 40
0.391304347826087
 40
0.4347826086956522
 40
0.4347826086956522
 40
0.4347826086956522
 40
0.4347826086956522
 40
0.4782608695652174
 40
0.4782608695652174
 40
0.4782608695652174
 40
0.4782608695652174
 40
0.5217391304347826
 40
0.5217391304347826
 40
0.5217391304347826
 40
0.5217391304347826
 40
0.5652173913043478
 40
0.5652173913043478
 40
0.5652173913043478
 40
0.5652173913043478
 40
0.6086956521739131
 40
0.6086956521739131
 40
0.6086956521739131
 40
0.6086956521739131
 40
0.6521739130434783
 40
0.6521739130434783
 40
0.6521739130434783
 40
0.6521739130434783
 40
0.6956521739130435
 40
0.6956521739130435
 40
0.6956521739130435
 40
0.6956521739130435
 40
0.7391304347826086
 40
0.7391304347826086
 40
0.7391304347826086
 40
0.7391304347826086
 40
0.782608695652174
 40
0.782608695652174
 40
0.782608695652174
 40
0.782608695652174
 40
0.8260869565217391
 40
0.8260869565217391
 40
0.8260869565217391
 40
0.8260869565217391
 40
0.8695652173913043
 40
0.8695652173913043
 40
0.8695652173913043
 40
0.8695652173913043
 40
0.9130434782608695
 40
0.9130434782608695
 40
0.9130434782608695
 40
0.9130434782608695
 40
1.0
 40
1.0
 40
1.0
 40
1.0
 10
-39.5663
 20
-22.5738
 30
0.0
 10
-39.5663
 20
-22.5738
 30
0.0
 10
-39.594
 20
-22.2481
 30
0.0
 10
-39.594
 20
-22.2481
 30
0.0
 10
-39.594
 20
-22.2481
 30
0.0
 10
-39.4353
 20
-22.224
 30
0.0
 10
-39.3165
 20
-22.1681
 30
0.0
 10
-39.2365
 20
-22.0805
 30
0.0
 10
-39.2365
 20
-22.0805
 30
0.0
 10
-39.1566
 20
-21.9923
 30
0.0
 10
-39.1166
 20
-21.8865
 30
0.0
 10
-39.1166
 20
-21.7624
 30
0.0
 10
-39.1166
 20
-21.7624
 30
0.0
 10
-39.1166
 20
-21.6131
 30
0.0
 10
-39.173
 20
-21.4867
 30
0.0
 10
-39.2853
 20
-21.3838
 30
0.0
 10
-39.2853
 20
-21.3838
 30
0.0
 10
-39.3982
 20
-21.2803
 30
0.0
 10
-39.5475
 20
-21.2285
 30
0.0
 10
-39.7333
 20
-21.2285
 30
0.0
 10
-39.7333
 20
-21.2285
 30
0.0
 10
-39.9103
 20
-21.2285
 30
0.0
 10
-40.0497
 20
-21.2779
 30
0.0
 10
-40.152
 20
-21.3773
 30
0.0
 10
-40.152
 20
-21.3773
 30
0.0
 10
-40.2543
 20
-21.4767
 30
0.0
 10
-40.3054
 20
-21.6066
 30
0.0
 10
-40.3054
 20
-21.7677
 30
0.0
 10
-40.3054
 20
-21.7677
 30
0.0
 10
-40.3054
 20
-21.8677
 30
0.0
 10
-40.2825
 20
-21.9576
 30
0.0
 10
-40.2372
 20
-22.0382
 30
0.0
 10
-40.2372
 20
-22.0382
 30
0.0
 10
-40.1919
 20
-22.1187
 30
0.0
 10
-40.1332
 20
-22.1816
 30
0.0
 10
-40.0608
 20
-22.2275
 30
0.0
 10
-40.0608
 20
-22.2275
 30
0.0
 10
-40.0608
 20
-22.2275
 30
0.0
 10
-40.0985
 20
-22.5185
 30
0.0
 10
-40.0985
 20
-22.5185
 30
0.0
 10
-40.0985
 20
-22.5185
 30
0.0
 10
-40.0985
 20
-22.5185
 30
0.0
 10
-41.3955
 20
-22.2739
 30
0.0
 10
-41.3955
 20
-22.2739
 30
0.0
 10
-41.3955
 20
-22.2739
 30
0.0
 10
-41.3955
 20
-22.2739
 30
0.0
 10
-41.3955
 20
-21.018
 30
0.0
 10
-41.3955
 20
-21.018
 30
0.0
 10
-41.3955
 20
-21.018
 30
0.0
 10
-41.3955
 20
-21.018
 30
0.0
 10
-41.0992
 20
-21.018
 30
0.0
 10
-41.0992
 20
-21.018
 30
0.0
 10
-41.0992
 20
-21.018
 30
0.0
 10
-41.0992
 20
-21.018
 30
0.0
 10
-41.0992
 20
-22.0258
 30
0.0
 10
-41.0992
 20
-22.0258
 30
0.0
 10
-41.0992
 20
-22.0258
 30
0.0
 10
-41.0992
 20
-22.0258
 30
0.0
 10
-40.4207
 20
-22.1622
 30
0.0
 10
-40.4207
 20
-22.1622
 30
0.0
 10
-40.4207
 20
-22.1622
 30
0.0
 10
-40.5265
 20
-22.0105
 30
0.0
 10
-40.5794
 20
-21.8512
 30
0.0
 10
-40.5794
 20
-21.6848
 30
0.0
 10
-40.5794
 20
-21.6848
 30
0.0
 10
-40.5794
 20
-21.4643
 30
0.0
 10
-40.503
 20
-21.2785
 30
0.0
 10
-40.3501
 20
-21.1268
 30
0.0
 10
-40.3501
 20
-21.1268
 30
0.0
 10
-40.1972
 20
-20.9751
 30
0.0
 10
-40.0009
 20
-20.8993
 30
0.0
 10
-39.761
 20
-20.8993
 30
0.0
 10
-39.761
 20
-20.8993
 30
0.0
 10
-39.5323
 20
-20.8993
 30
0.0
 10
-39.3347
 20
-20.9663
 30
0.0
 10
-39.1683
 20
-21.0992
 30
0.0
 10
-39.1683
 20
-21.0992
 30
0.0
 10
-38.9643
 20
-21.2615
 30
0.0
 10
-38.862
 20
-21.4825
 30
0.0
 10
-38.862
 20
-21.7624
 30
0.0
 10
-38.862
 20
-21.7624
 30
0.0
 10
-38.862
 20
-21.9923
 30
0.0
 10
-38.9261
 20
-22.1799
 30
0.0
 10
-39.0548
 20
-22.3251
 30
0.0
 10
-39.0548
 20
-22.3251
 30
0.0
 10
-39.1836
 20
-22.4703
 30
0.0
 10
-39.3541
 20
-22.5532
 30
0.0
 10
-39.5663
 20
-22.5738
 30
0.0
  0
SPLINE
  5
74
330
1F
100
AcDbEntity
  8
ILUSTRACE
 62
   250
100
AcDbSpline
210
0.0
220
0.0
230
1.0
 70
    11
 71
     3
 72
    92
 73
    88
 74
     0
 42
0.0000000001
 43
0.0000000001
 40
0.0
 40
0.0
 40
0.0
 40
0.0
 40
0.0434782608695652
 40
0.0434782608695652
 40
0.0434782608695652
 40
0.0434782608695652
 40
0.0869565217391304
 40
0.0869565217391304
 40
0.0869565217391304
 40
0.0869565217391304
 40
0.1304347826086956
 40
0.1304347826086956
 40
0.1304347826086956
 40
0.1304347826086956
 40
0.1739130434782609
 40
0.1739130434782609
 40
0.1739130434782609
 40
0.1739130434782609
 40
0.2173913043478261
 40
0.2173913043478261
 40
0.2173913043478261
 40
0.2173913043478261
 40
0.2608695652173913
 40
0.2608695652173913
 40
0.2608695652173913
 40
0.2608695652173913
 40
0.3043478260869565
 40
0.3043478260869565
 40
0.3043478260869565
 40
0.3043478260869565
 40
0.3478260869565217
 40
0.3478260869565217
 40
0.3478260869565217
 40
0.3478260869565217
 40
0.391304347826087
 40
0.391304347826087
 40
0.391304347826087
 40
0.391304347826087
 40
0.4347826086956522
 40
0.4347826086956522
 40
0.4347826086956522
 40
0.4347826086956522
 40
0.4782608695652174
 40
0.4782608695652174
 40
0.4782608695652174
 40
0.4782608695652174
 40
0.5217391304347826
 40
0.5217391304347826
 40
0.5217391304347826
 40
0.5217391304347826
 40
0.5652173913043478
 40
0.5652173913043478
 40
0.5652173913043478
 40
0.5652173913043478
 40
0.6086956521739131
 40
0.6086956521739131
 40
0.6086956521739131
 40
0.6086956521739131
 40
0.6521739130434783
 40
0.6521739130434783
 40
0.6521739130434783
 40
0.6521739130434783
 40
0.6956521739130435
 40
0.6956521739130435
 40
0.6956521739130435
 40
0.6956521739130435
 40
0.7391304347826086
 40
0.7391304347826086
 40
0.7391304347826086
 40
0.7391304347826086
 40
0.782608695652174
 40
0.782608695652174
 40
0.782608695652174
 40
0.782608695652174
 40
0.8260869565217391
 40
0.8260869565217391
 40
0.8260869565217391
 40
0.8260869565217391
 40
0.8695652173913043
 40
0.8695652173913043
 40
0.8695652173913043
 40
0.8695652173913043
 40
0.9130434782608695
 40
0.9130434782608695
 40
0.9130434782608695
 40
0.9130434782608695
 40
1.0
 40
1.0
 40
1.0
 40
1.0
 10
-39.1783
 20
3.9556
 30
0.0
 10
-39.1783
 20
3.9556
 30
0.0
 10
-38.8802
 20
3.9556
 30
0.0
 10
-38.8802
 20
3.9556
 30
0.0
 10
-38.8802
 20
3.9556
 30
0.0
 10
-38.8802
 20
3.9556
 30
0.0
 10
-38.8802
 20
2.2864
 30
0.0
 10
-38.8802
 20
2.2864
 30
0.0
 10
-38.8802
 20
2.2864
 30
0.0
 10
-38.9549
 20
2.2841
 30
0.0
 10
-39.0266
 20
2.2958
 30
0.0
 10
-39.0954
 20
2.3223
 30
0.0
 10
-39.0954
 20
2.3223
 30
0.0
 10
-39.2094
 20
2.3646
 30
0.0
 10
-39.3212
 20
2.4328
 30
0.0
 10
-39.4317
 20
2.5263
 30
0.0
 10
-39.4317
 20
2.5263
 30
0.0
 10
-39.5416
 20
2.6204
 30
0.0
 10
-39.6693
 20
2.7556
 30
0.0
 10
-39.8139
 20
2.932
 30
0.0
 10
-39.8139
 20
2.932
 30
0.0
 10
-40.0391
 20
3.2066
 30
0.0
 10
-40.2172
 20
3.3924
 30
0.0
 10
-40.3489
 20
3.4888
 30
0.0
 10
-40.3489
 20
3.4888
 30
0.0
 10
-40.48
 20
3.5852
 30
0.0
 10
-40.6047
 20
3.6334
 30
0.0
 10
-40.7217
 20
3.6334
 30
0.0
 10
-40.7217
 20
3.6334
 30
0.0
 10
-40.8446
 20
3.6334
 30
0.0
 10
-40.9481
 20
3.5893
 30
0.0
 10
-41.0327
 20
3.5017
 30
0.0
 10
-41.0327
 20
3.5017
 30
0.0
 10
-41.1168
 20
3.4135
 30
0.0
 10
-41.1591
 20
3.2989
 30
0.0
 10
-41.1591
 20
3.1578
 30
0.0
 10
-41.1591
 20
3.1578
 30
0.0
 10
-41.1591
 20
3.0084
 30
0.0
 10
-41.1145
 20
2.8891
 30
0.0
 10
-41.0245
 20
2.7997
 30
0.0
 10
-41.0245
 20
2.7997
 30
0.0
 10
-40.9351
 20
2.7098
 30
0.0
 10
-40.8111
 20
2.6645
 30
0.0
 10
-40.6529
 20
2.6633
 30
0.0
 10
-40.6529
 20
2.6633
 30
0.0
 10
-40.6529
 20
2.6633
 30
0.0
 10
-40.6852
 20
2.3446
 30
0.0
 10
-40.6852
 20
2.3446
 30
0.0
 10
-40.6852
 20
2.3446
 30
0.0
 10
-40.9234
 20
2.3664
 30
0.0
 10
-41.1045
 20
2.4487
 30
0.0
 10
-41.2291
 20
2.591
 30
0.0
 10
-41.2291
 20
2.591
 30
0.0
 10
-41.3538
 20
2.7333
 30
0.0
 10
-41.4161
 20
2.9249
 30
0.0
 10
-41.4161
 20
3.1648
 30
0.0
 10
-41.4161
 20
3.1648
 30
0.0
 10
-41.4161
 20
3.4071
 30
0.0
 10
-41.3485
 20
3.5987
 30
0.0
 10
-41.2144
 20
3.7399
 30
0.0
 10
-41.2144
 20
3.7399
 30
0.0
 10
-41.0798
 20
3.8816
 30
0.0
 10
-40.9134
 20
3.9521
 30
0.0
 10
-40.7146
 20
3.9521
 30
0.0
 10
-40.7146
 20
3.9521
 30
0.0
 10
-40.6135
 20
3.9521
 30
0.0
 10
-40.5141
 20
3.9315
 30
0.0
 10
-40.4165
 20
3.8898
 30
0.0
 10
-40.4165
 20
3.8898
 30
0.0
 10
-40.3189
 20
3.8486
 30
0.0
 10
-40.216
 20
3.7798
 30
0.0
 10
-40.1085
 20
3.684
 30
0.0
 10
-40.1085
 20
3.684
 30
0.0
 10
-40.0003
 20
3.5882
 30
0.0
 10
-39.8521
 20
3.4288
 30
0.0
 10
-39.664
 20
3.206
 30
0.0
 10
-39.664
 20
3.206
 30
0.0
 10
-39.5076
 20
3.0202
 30
0.0
 10
-39.4017
 20
2.9008
 30
0.0
 10
-39.3459
 20
2.8479
 30
0.0
 10
-39.3459
 20
2.8479
 30
0.0
 10
-39.2906
 20
2.795
 30
0.0
 10
-39.2347
 20
2.7515
 30
0.0
 10
-39.1783
 20
2.7168
 30
0.0
 10
-39.1783
 20
2.7168
 30
0.0
 10
-39.1783
 20
2.7168
 30
0.0
 10
-39.1783
 20
3.9556
 30
0.0
 10
-39.1783
 20
3.9556
 30
0.0
  0
SPLINE
  5
75
330
1F
100
AcDbEntity
  8
ILUSTRACE
 62
   250
100
AcDbSpline
210
0.0
220
0.0
230
1.0
 70
    11
 71
     3
 72
    52
 73
    48
 74
     0
 42
0.0000000001
 43
0.0000000001
 40
0.0
 40
0.0
 40
0.0
 40
0.0
 40
0.0769230769230769
 40
0.0769230769230769
 40
0.0769230769230769
 40
0.0769230769230769
 40
0.1538461538461539
 40
0.1538461538461539
 40
0.1538461538461539
 40
0.1538461538461539
 40
0.2307692307692308
 40
0.2307692307692308
 40
0.2307692307692308
 40
0.2307692307692308
 40
0.3076923076923077
 40
0.3076923076923077
 40
0.3076923076923077
 40
0.3076923076923077
 40
0.3846153846153846
 40
0.3846153846153846
 40
0.3846153846153846
 40
0.3846153846153846
 40
0.4615384615384616
 40
0.4615384615384616
 40
0.4615384615384616
 40
0.4615384615384616
 40
0.5384615384615384
 40
0.5384615384615384
 40
0.5384615384615384
 40
0.5384615384615384
 40
0.6153846153846154
 40
0.6153846153846154
 40
0.6153846153846154
 40
0.6153846153846154
 40
0.6923076923076923
 40
0.6923076923076923
 40
0.6923076923076923
 40
0.6923076923076923
 40
0.7692307692307693
 40
0.7692307692307693
 40
0.7692307692307693
 40
0.7692307692307693
 40
0.8461538461538461
 40
0.8461538461538461
 40
0.8461538461538461
 40
0.8461538461538461
 40
1.0
 40
1.0
 40
1.0
 40
1.0
 10
-40.1255
 20
4.2878
 30
0.0
 10
-40.4242
 20
4.2878
 30
0.0
 10
-40.6647
 20
4.3184
 30
0.0
 10
-40.8463
 20
4.3801
 30
0.0
 10
-40.8463
 20
4.3801
 30
0.0
 10
-41.0286
 20
4.4413
 30
0.0
 10
-41.1691
 20
4.533
 30
0.0
 10
-41.2679
 20
4.6541
 30
0.0
 10
-41.2679
 20
4.6541
 30
0.0
 10
-41.3667
 20
4.7752
 30
0.0
 10
-41.4161
 20
4.9275
 30
0.0
 10
-41.4161
 20
5.111
 30
0.0
 10
-41.4161
 20
5.111
 30
0.0
 10
-41.4161
 20
5.2468
 30
0.0
 10
-41.3884
 20
5.3656
 30
0.0
 10
-41.3338
 20
5.4679
 30
0.0
 10
-41.3338
 20
5.4679
 30
0.0
 10
-41.2797
 20
5.5702
 30
0.0
 10
-41.2009
 20
5.6543
 30
0.0
 10
-41.098
 20
5.7213
 30
0.0
 10
-41.098
 20
5.7213
 30
0.0
 10
-40.9951
 20
5.7877
 30
0.0
 10
-40.8699
 20
5.84
 30
0.0
 10
-40.7223
 20
5.8777
 30
0.0
 10
-40.7223
 20
5.8777
 30
0.0
 10
-40.5747
 20
5.9159
 30
0.0
 10
-40.376
 20
5.9347
 30
0.0
 10
-40.1255
 20
5.9347
 30
0.0
 10
-40.1255
 20
5.9347
 30
0.0
 10
-39.8292
 20
5.9347
 30
0.0
 10
-39.5905
 20
5.9041
 30
0.0
 10
-39.4082
 20
5.8436
 30
0.0
 10
-39.4082
 20
5.8436
 30
0.0
 10
-39.2259
 20
5.7824
 30
0.0
 10
-39.0854
 20
5.6913
 30
0.0
 10
-38.986
 20
5.5702
 30
0.0
 10
-38.986
 20
5.5702
 30
0.0
 10
-38.8867
 20
5.4491
 30
0.0
 10
-38.8373
 20
5.2962
 30
0.0
 10
-38.8373
 20
5.111
 30
0.0
 10
-38.8373
 20
5.111
 30
0.0
 10
-38.8373
 20
4.8676
 30
0.0
 10
-38.9243
 20
4.6765
 30
0.0
 10
-39.0989
 20
4.5377
 30
0.0
 10
-39.0989
 20
4.5377
 30
0.0
 10
-39.3088
 20
4.3713
 30
0.0
 10
-39.6516
 20
4.2878
 30
0.0
 10
-40.1255
 20
4.2878
 30
0.0
  0
SPLINE
  5
76
330
1F
100
AcDbEntity
  8
ILUSTRACE
 62
   250
100
AcDbSpline
210
0.0
220
0.0
230
1.0
 70
    11
 71
     3
 72
    36
 73
    32
 74
     0
 42
0.0000000001
 43
0.0000000001
 40
0.0
 40
0.0
 40
0.0
 40
0.0
 40
0.1111111111111111
 40
0.1111111111111111
 40
0.1111111111111111
 40
0.1111111111111111
 40
0.2222222222222222
 40
0.2222222222222222
 40
0.2222222222222222
 40
0.2222222222222222
 40
0.3333333333333333
 40
0.3333333333333333
 40
0.3333333333333333
 40
0.3333333333333333
 40
0.4444444444444444
 40
0.4444444444444444
 40
0.4444444444444444
 40
0.4444444444444444
 40
0.5555555555555556
 40
0.5555555555555556
 40
0.5555555555555556
 40
0.5555555555555556
 40
0.6666666666666666
 40
0.6666666666666666
 40
0.6666666666666666
 40
0.6666666666666666
 40
0.7777777777777778
 40
0.7777777777777778
 40
0.7777777777777778
 40
0.7777777777777778
 40
1.0
 40
1.0
 40
1.0
 40
1.0
 10
-40.1255
 20
4.6065
 30
0.0
 10
-39.711
 20
4.6065
 30
0.0
 10
-39.4352
 20
4.6553
 30
0.0
 10
-39.2976
 20
4.7523
 30
0.0
 10
-39.2976
 20
4.7523
 30
0.0
 10
-39.1607
 20
4.8493
 30
0.0
 10
-39.0919
 20
4.9687
 30
0.0
 10
-39.0919
 20
5.111
 30
0.0
 10
-39.0919
 20
5.111
 30
0.0
 10
-39.0919
 20
5.2538
 30
0.0
 10
-39.1612
 20
5.3732
 30
0.0
 10
-39.2988
 20
5.4702
 30
0.0
 10
-39.2988
 20
5.4702
 30
0.0
 10
-39.4364
 20
5.5672
 30
0.0
 10
-39.7122
 20
5.616
 30
0.0
 10
-40.1255
 20
5.616
 30
0.0
 10
-40.1255
 20
5.616
 30
0.0
 10
-40.5412
 20
5.616
 30
0.0
 10
-40.8175
 20
5.5672
 30
0.0
 10
-40.9539
 20
5.4702
 30
0.0
 10
-40.9539
 20
5.4702
 30
0.0
 10
-41.0909
 20
5.3732
 30
0.0
 10
-41.1591
 20
5.2527
 30
0.0
 10
-41.1591
 20
5.108
 30
0.0
 10
-41.1591
 20
5.108
 30
0.0
 10
-41.1591
 20
4.9652
 30
0.0
 10
-41.0986
 20
4.8517
 30
0.0
 10
-40.978
 20
4.7664
 30
0.0
 10
-40.978
 20
4.7664
 30
0.0
 10
-40.8246
 20
4.66
 30
0.0
 10
-40.54
 20
4.6065
 30
0.0
 10
-40.1255
 20
4.6065
 30
0.0
  0
SPLINE
  5
77
330
1F
100
AcDbEntity
  8
ILUSTRACE
 62
   250
100
AcDbSpline
210
0.0
220
0.0
230
1.0
 70
    11
 71
     3
 72
    20
 73
    16
 74
     0
 42
0.0000000001
 43
0.0000000001
 40
0.0
 40
0.0
 40
0.0
 40
0.0
 40
0.2
 40
0.2
 40
0.2
 40
0.2
 40
0.4
 40
0.4
 40
0.4
 40
0.4
 40
0.6
 40
0.6
 40
0.6
 40
0.6
 40
1.0
 40
1.0
 40
1.0
 40
1.0
 10
-39.6381
 20
7.1953
 30
0.0
 10
-39.6381
 20
7.1953
 30
0.0
 10
-39.9497
 20
7.1953
 30
0.0
 10
-39.9497
 20
7.1953
 30
0.0
 10
-39.9497
 20
7.1953
 30
0.0
 10
-39.9497
 20
7.1953
 30
0.0
 10
-39.9497
 20
8.1484
 30
0.0
 10
-39.9497
 20
8.1484
 30
0.0
 10
-39.9497
 20
8.1484
 30
0.0
 10
-39.9497
 20
8.1484
 30
0.0
 10
-39.6381
 20
8.1484
 30
0.0
 10
-39.6381
 20
8.1484
 30
0.0
 10
-39.6381
 20
8.1484
 30
0.0
 10
-39.6381
 20
8.1484
 30
0.0
 10
-39.6381
 20
7.1953
 30
0.0
 10
-39.6381
 20
7.1953
 30
0.0
  0
SPLINE
  5
78
330
1F
100
AcDbEntity
  8
ILUSTRACE
 62
   250
100
AcDbSpline
210
0.0
220
0.0
230
1.0
 70
    11
 71
     3
 72
    40
 73
    36
 74
     0
 42
0.0000000001
 43
0.0000000001
 40
0.0
 40
0.0
 40
0.0
 40
0.0
 40
0.1
 40
0.1
 40
0.1
 40
0.1
 40
0.2
 40
0.2
 40
0.2
 40
0.2
 40
0.3
 40
0.3
 40
0.3
 40
0.3
 40
0.4
 40
0.4
 40
0.4
 40
0.4
 40
0.5
 40
0.5
 40
0.5
 40
0.5
 40
0.6
 40
0.6
 40
0.6
 40
0.6
 40
0.7
 40
0.7
 40
0.7
 40
0.7
 40
0.8
 40
0.8
 40
0.8
 40
0.8
 40
1.0
 40
1.0
 40
1.0
 40
1.0
 10
-38.8802
 20
10.5526
 30
0.0
 10
-38.8802
 20
10.5526
 30
0.0
 10
-38.8802
 20
10.2427
 30
0.0
 10
-38.8802
 20
10.2427
 30
0.0
 10
-38.8802
 20
10.2427
 30
0.0
 10
-38.8802
 20
10.2427
 30
0.0
 10
-40.8558
 20
10.2427
 30
0.0
 10
-40.8558
 20
10.2427
 30
0.0
 10
-40.8558
 20
10.2427
 30
0.0
 10
-40.7846
 20
10.168
 30
0.0
 10
-40.7135
 20
10.0704
 30
0.0
 10
-40.6423
 20
9.9493
 30
0.0
 10
-40.6423
 20
9.9493
 30
0.0
 10
-40.5712
 20
9.8276
 30
0.0
 10
-40.5177
 20
9.7188
 30
0.0
 10
-40.4824
 20
9.6224
 30
0.0
 10
-40.4824
 20
9.6224
 30
0.0
 10
-40.4824
 20
9.6224
 30
0.0
 10
-40.7817
 20
9.6224
 30
0.0
 10
-40.7817
 20
9.6224
 30
0.0
 10
-40.7817
 20
9.6224
 30
0.0
 10
-40.8634
 20
9.7959
 30
0.0
 10
-40.9622
 20
9.9475
 30
0.0
 10
-41.078
 20
10.0775
 30
0.0
 10
-41.078
 20
10.0775
 30
0.0
 10
-41.1944
 20
10.2068
 30
0.0
 10
-41.3067
 20
10.2991
 30
0.0
 10
-41.4161
 20
10.3532
 30
0.0
 10
-41.4161
 20
10.3532
 30
0.0
 10
-41.4161
 20
10.3532
 30
0.0
 10
-41.4161
 20
10.5526
 30
0.0
 10
-41.4161
 20
10.5526
 30
0.0
 10
-41.4161
 20
10.5526
 30
0.0
 10
-41.4161
 20
10.5526
 30
0.0
 10
-38.8802
 20
10.5526
 30
0.0
 10
-38.8802
 20
10.5526
 30
0.0
  0
SPLINE
  5
79
330
1F
100
AcDbEntity
  8
ILUSTRACE
 62
   250
100
AcDbSpline
210
0.0
220
0.0
230
1.0
 70
    11
 71
     3
 72
    92
 73
    88
 74
     0
 42
0.0000000001
 43
0.0000000001
 40
0.0
 40
0.0
 40
0.0
 40
0.0
 40
0.0434782608695652
 40
0.0434782608695652
 40
0.0434782608695652
 40
0.0434782608695652
 40
0.0869565217391304
 40
0.0869565217391304
 40
0.0869565217391304
 40
0.0869565217391304
 40
0.1304347826086956
 40
0.1304347826086956
 40
0.1304347826086956
 40
0.1304347826086956
 40
0.1739130434782609
 40
0.1739130434782609
 40
0.1739130434782609
 40
0.1739130434782609
 40
0.2173913043478261
 40
0.2173913043478261
 40
0.2173913043478261
 40
0.2173913043478261
 40
0.2608695652173913
 40
0.2608695652173913
 40
0.2608695652173913
 40
0.2608695652173913
 40
0.3043478260869565
 40
0.3043478260869565
 40
0.3043478260869565
 40
0.3043478260869565
 40
0.3478260869565217
 40
0.3478260869565217
 40
0.3478260869565217
 40
0.3478260869565217
 40
0.391304347826087
 40
0.391304347826087
 40
0.391304347826087
 40
0.391304347826087
 40
0.4347826086956522
 40
0.4347826086956522
 40
0.4347826086956522
 40
0.4347826086956522
 40
0.4782608695652174
 40
0.4782608695652174
 40
0.4782608695652174
 40
0.4782608695652174
 40
0.5217391304347826
 40
0.5217391304347826
 40
0.5217391304347826
 40
0.5217391304347826
 40
0.5652173913043478
 40
0.5652173913043478
 40
0.5652173913043478
 40
0.5652173913043478
 40
0.6086956521739131
 40
0.6086956521739131
 40
0.6086956521739131
 40
0.6086956521739131
 40
0.6521739130434783
 40
0.6521739130434783
 40
0.6521739130434783
 40
0.6521739130434783
 40
0.6956521739130435
 40
0.6956521739130435
 40
0.6956521739130435
 40
0.6956521739130435
 40
0.7391304347826086
 40
0.7391304347826086
 40
0.7391304347826086
 40
0.7391304347826086
 40
0.782608695652174
 40
0.782608695652174
 40
0.782608695652174
 40
0.782608695652174
 40
0.8260869565217391
 40
0.8260869565217391
 40
0.8260869565217391
 40
0.8260869565217391
 40
0.8695652173913043
 40
0.8695652173913043
 40
0.8695652173913043
 40
0.8695652173913043
 40
0.9130434782608695
 40
0.9130434782608695
 40
0.9130434782608695
 40
0.9130434782608695
 40
1.0
 40
1.0
 40
1.0
 40
1.0
 10
-39.4641
 20
11.3934
 30
0.0
 10
-39.4641
 20
11.3934
 30
0.0
 10
-39.4917
 20
11.6914
 30
0.0
 10
-39.4917
 20
11.6914
 30
0.0
 10
-39.4917
 20
11.6914
 30
0.0
 10
-39.3517
 20
11.7167
 30
0.0
 10
-39.25
 20
11.7649
 30
0.0
 10
-39.1865
 20
11.8361
 30
0.0
 10
-39.1865
 20
11.8361
 30
0.0
 10
-39.1236
 20
11.9072
 30
0.0
 10
-39.0919
 20
11.9983
 30
0.0
 10
-39.0919
 20
12.1101
 30
0.0
 10
-39.0919
 20
12.1101
 30
0.0
 10
-39.0919
 20
12.2053
 30
0.0
 10
-39.1136
 20
12.2888
 30
0.0
 10
-39.1577
 20
12.3605
 30
0.0
 10
-39.1577
 20
12.3605
 30
0.0
 10
-39.2012
 20
12.4323
 30
0.0
 10
-39.2594
 20
12.4911
 30
0.0
 10
-39.3323
 20
12.5369
 30
0.0
 10
-39.3323
 20
12.5369
 30
0.0
 10
-39.4053
 20
12.5834
 30
0.0
 10
-39.504
 20
12.6216
 30
0.0
 10
-39.6275
 20
12.6527
 30
0.0
 10
-39.6275
 20
12.6527
 30
0.0
 10
-39.7516
 20
12.6833
 30
0.0
 10
-39.878
 20
12.6992
 30
0.0
 10
-40.0067
 20
12.6992
 30
0.0
 10
-40.0067
 20
12.6992
 30
0.0
 10
-40.0203
 20
12.6992
 30
0.0
 10
-40.0414
 20
12.6986
 30
0.0
 10
-40.0685
 20
12.6974
 30
0.0
 10
-40.0685
 20
12.6974
 30
0.0
 10
-39.9703
 20
12.6351
 30
0.0
 10
-39.8897
 20
12.5505
 30
0.0
 10
-39.8286
 20
12.4434
 30
0.0
 10
-39.8286
 20
12.4434
 30
0.0
 10
-39.7668
 20
12.3358
 30
0.0
 10
-39.7363
 20
12.2194
 30
0.0
 10
-39.7363
 20
12.0948
 30
0.0
 10
-39.7363
 20
12.0948
 30
0.0
 10
-39.7363
 20
11.8855
 30
0.0
 10
-39.8121
 20
11.7085
 30
0.0
 10
-39.9638
 20
11.5639
 30
0.0
 10
-39.9638
 20
11.5639
 30
0.0
 10
-40.1155
 20
11.4192
 30
0.0
 10
-40.3148
 20
11.3469
 30
0.0
 10
-40.5629
 20
11.3469
 30
0.0
 10
-40.5629
 20
11.3469
 30
0.0
 10
-40.8193
 20
11.3469
 30
0.0
 10
-41.0251
 20
11.4222
 30
0.0
 10
-41.1815
 20
11.5733
 30
0.0
 10
-41.1815
 20
11.5733
 30
0.0
 10
-41.3379
 20
11.7244
 30
0.0
 10
-41.4161
 20
11.9137
 30
0.0
 10
-41.4161
 20
12.1412
 30
0.0
 10
-41.4161
 20
12.1412
 30
0.0
 10
-41.4161
 20
12.3053
 30
0.0
 10
-41.3714
 20
12.4552
 30
0.0
 10
-41.2832
 20
12.5916
 30
0.0
 10
-41.2832
 20
12.5916
 30
0.0
 10
-41.195
 20
12.7274
 30
0.0
 10
-41.0686
 20
12.8309
 30
0.0
 10
-40.9051
 20
12.9015
 30
0.0
 10
-40.9051
 20
12.9015
 30
0.0
 10
-40.7417
 20
12.972
 30
0.0
 10
-40.5047
 20
13.0073
 30
0.0
 10
-40.1943
 20
13.0073
 30
0.0
 10
-40.1943
 20
13.0073
 30
0.0
 10
-39.8721
 20
13.0073
 30
0.0
 10
-39.6151
 20
12.9726
 30
0.0
 10
-39.4235
 20
12.9026
 30
0.0
 10
-39.4235
 20
12.9026
 30
0.0
 10
-39.2324
 20
12.8321
 30
0.0
 10
-39.0872
 20
12.728
 30
0.0
 10
-38.9872
 20
12.5898
 30
0.0
 10
-38.9872
 20
12.5898
 30
0.0
 10
-38.8872
 20
12.4511
 30
0.0
 10
-38.8373
 20
12.2894
 30
0.0
 10
-38.8373
 20
12.103
 30
0.0
 10
-38.8373
 20
12.103
 30
0.0
 10
-38.8373
 20
11.9055
 30
0.0
 10
-38.892
 20
11.7444
 30
0.0
 10
-39.0019
 20
11.6191
 30
0.0
 10
-39.0019
 20
11.6191
 30
0.0
 10
-39.1113
 20
11.4939
 30
0.0
 10
-39.2653
 20
11.4186
 30
0.0
 10
-39.4641
 20
11.3934
 30
0.0
  0
SPLINE
  5
7A
330
1F
100
AcDbEntity
  8
ILUSTRACE
 62
   250
100
AcDbSpline
210
0.0
220
0.0
230
1.0
 70
    11
 71
     3
 72
    36
 73
    32
 74
     0
 42
0.0000000001
 43
0.0000000001
 40
0.0
 40
0.0
 40
0.0
 40
0.0
 40
0.1111111111111111
 40
0.1111111111111111
 40
0.1111111111111111
 40
0.1111111111111111
 40
0.2222222222222222
 40
0.2222222222222222
 40
0.2222222222222222
 40
0.2222222222222222
 40
0.3333333333333333
 40
0.3333333333333333
 40
0.3333333333333333
 40
0.3333333333333333
 40
0.4444444444444444
 40
0.4444444444444444
 40
0.4444444444444444
 40
0.4444444444444444
 40
0.5555555555555556
 40
0.5555555555555556
 40
0.5555555555555556
 40
0.5555555555555556
 40
0.6666666666666666
 40
0.6666666666666666
 40
0.6666666666666666
 40
0.6666666666666666
 40
0.7777777777777778
 40
0.7777777777777778
 40
0.7777777777777778
 40
0.7777777777777778
 40
1.0
 40
1.0
 40
1.0
 40
1.0
 10
-40.5788
 20
12.6627
 30
0.0
 10
-40.7564
 20
12.6627
 30
0.0
 10
-40.8981
 20
12.6157
 30
0.0
 10
-41.0021
 20
12.521
 30
0.0
 10
-41.0021
 20
12.521
 30
0.0
 10
-41.1068
 20
12.4258
 30
0.0
 10
-41.1591
 20
12.3123
 30
0.0
 10
-41.1591
 20
12.1789
 30
0.0
 10
-41.1591
 20
12.1789
 30
0.0
 10
-41.1591
 20
12.0413
 30
0.0
 10
-41.1027
 20
11.9213
 30
0.0
 10
-40.9904
 20
11.819
 30
0.0
 10
-40.9904
 20
11.819
 30
0.0
 10
-40.8775
 20
11.7167
 30
0.0
 10
-40.7317
 20
11.6656
 30
0.0
 10
-40.5529
 20
11.6656
 30
0.0
 10
-40.5529
 20
11.6656
 30
0.0
 10
-40.3919
 20
11.6656
 30
0.0
 10
-40.2613
 20
11.7144
 30
0.0
 10
-40.1608
 20
11.8114
 30
0.0
 10
-40.1608
 20
11.8114
 30
0.0
 10
-40.0602
 20
11.9084
 30
0.0
 10
-40.0103
 20
12.0278
 30
0.0
 10
-40.0103
 20
12.17
 30
0.0
 10
-40.0103
 20
12.17
 30
0.0
 10
-40.0103
 20
12.3141
 30
0.0
 10
-40.0602
 20
12.4317
 30
0.0
 10
-40.1608
 20
12.524
 30
0.0
 10
-40.1608
 20
12.524
 30
0.0
 10
-40.2613
 20
12.6169
 30
0.0
 10
-40.4007
 20
12.6627
 30
0.0
 10
-40.5788
 20
12.6627
 30
0.0
  0
SPLINE
  5
7B
330
1F
100
AcDbEntity
  8
ILUSTRACE
 62
   250
100
AcDbSpline
210
0.0
220
0.0
230
1.0
 70
    11
 71
     3
 72
    80
 73
    76
 74
     0
 42
0.0000000001
 43
0.0000000001
 40
0.0
 40
0.0
 40
0.0
 40
0.0
 40
0.05
 40
0.05
 40
0.05
 40
0.05
 40
0.1
 40
0.1
 40
0.1
 40
0.1
 40
0.15
 40
0.15
 40
0.15
 40
0.15
 40
0.2
 40
0.2
 40
0.2
 40
0.2
 40
0.25
 40
0.25
 40
0.25
 40
0.25
 40
0.3
 40
0.3
 40
0.3
 40
0.3
 40
0.35
 40
0.35
 40
0.35
 40
0.35
 40
0.4
 40
0.4
 40
0.4
 40
0.4
 40
0.45
 40
0.45
 40
0.45
 40
0.45
 40
0.5
 40
0.5
 40
0.5
 40
0.5
 40
0.55
 40
0.55
 40
0.55
 40
0.55
 40
0.6
 40
0.6
 40
0.6
 40
0.6
 40
0.65
 40
0.65
 40
0.65
 40
0.65
 40
0.7
 40
0.7
 40
0.7
 40
0.7
 40
0.75
 40
0.75
 40
0.75
 40
0.75
 40
0.8
 40
0.8
 40
0.8
 40
0.8
 40
0.85
 40
0.85
 40
0.85
 40
0.85
 40
0.9
 40
0.9
 40
0.9
 40
0.9
 40
1.0
 40
1.0
 40
1.0
 40
1.0
 10
-40.787
 20
14.9176
 30
0.0
 10
-40.787
 20
14.9176
 30
0.0
 10
-40.7629
 20
14.6095
 30
0.0
 10
-40.7629
 20
14.6095
 30
0.0
 10
-40.7629
 20
14.6095
 30
0.0
 10
-40.8846
 20
14.5819
 30
0.0
 10
-40.9733
 20
14.5431
 30
0.0
 10
-41.028
 20
14.4925
 30
0.0
 10
-41.028
 20
14.4925
 30
0.0
 10
-41.1168
 20
14.4084
 30
0.0
 10
-41.1609
 20
14.3049
 30
0.0
 10
-41.1609
 20
14.182
 30
0.0
 10
-41.1609
 20
14.182
 30
0.0
 10
-41.1609
 20
14.0833
 30
0.0
 10
-41.1333
 20
13.9968
 30
0.0
 10
-41.078
 20
13.9222
 30
0.0
 10
-41.078
 20
13.9222
 30
0.0
 10
-41.0068
 20
13.8246
 30
0.0
 10
-40.9028
 20
13.7475
 30
0.0
 10
-40.7664
 20
13.6911
 30
0.0
 10
-40.7664
 20
13.6911
 30
0.0
 10
-40.63
 20
13.6352
 30
0.0
 10
-40.4354
 20
13.6058
 30
0.0
 10
-40.1825
 20
13.6035
 30
0.0
 10
-40.1825
 20
13.6035
 30
0.0
 10
-40.296
 20
13.6782
 30
0.0
 10
-40.3807
 20
13.7693
 30
0.0
 10
-40.4359
 20
13.8775
 30
0.0
 10
-40.4359
 20
13.8775
 30
0.0
 10
-40.4906
 20
13.9851
 30
0.0
 10
-40.5183
 20
14.0986
 30
0.0
 10
-40.5183
 20
14.2167
 30
0.0
 10
-40.5183
 20
14.2167
 30
0.0
 10
-40.5183
 20
14.4237
 30
0.0
 10
-40.4424
 20
14.5995
 30
0.0
 10
-40.2901
 20
14.7447
 30
0.0
 10
-40.2901
 20
14.7447
 30
0.0
 10
-40.1378
 20
14.89
 30
0.0
 10
-39.9415
 20
14.9628
 30
0.0
 10
-39.7004
 20
14.9628
 30
0.0
 10
-39.7004
 20
14.9628
 30
0.0
 10
-39.5416
 20
14.9628
 30
0.0
 10
-39.3947
 20
14.9282
 30
0.0
 10
-39.2583
 20
14.86
 30
0.0
 10
-39.2583
 20
14.86
 30
0.0
 10
-39.1224
 20
14.7918
 30
0.0
 10
-39.0178
 20
14.6977
 30
0.0
 10
-38.9455
 20
14.5783
 30
0.0
 10
-38.9455
 20
14.5783
 30
0.0
 10
-38.8732
 20
14.459
 30
0.0
 10
-38.8373
 20
14.3237
 30
0.0
 10
-38.8373
 20
14.172
 30
0.0
 10
-38.8373
 20
14.172
 30
0.0
 10
-38.8373
 20
13.9133
 30
0.0
 10
-38.9319
 20
13.7028
 30
0.0
 10
-39.1224
 20
13.54
 30
0.0
 10
-39.1224
 20
13.54
 30
0.0
 10
-39.3124
 20
13.3765
 30
0.0
 10
-39.6257
 20
13.2954
 30
0.0
 10
-40.062
 20
13.2954
 30
0.0
 10
-40.062
 20
13.2954
 30
0.0
 10
-40.55
 20
13.2954
 30
0.0
 10
-40.9046
 20
13.3853
 30
0.0
 10
-41.1262
 20
13.5658
 30
0.0
 10
-41.1262
 20
13.5658
 30
0.0
 10
-41.3191
 20
13.7228
 30
0.0
 10
-41.4161
 20
13.9345
 30
0.0
 10
-41.4161
 20
14.2014
 30
0.0
 10
-41.4161
 20
14.2014
 30
0.0
 10
-41.4161
 20
14.3996
 30
0.0
 10
-41.3602
 20
14.5624
 30
0.0
 10
-41.2485
 20
14.6895
 30
0.0
 10
-41.2485
 20
14.6895
 30
0.0
 10
-41.1374
 20
14.8165
 30
0.0
 10
-40.9833
 20
14.8923
 30
0.0
 10
-40.787
 20
14.9176
 30
0.0
  0
SPLINE
  5
7C
330
1F
100
AcDbEntity
  8
ILUSTRACE
 62
   250
100
AcDbSpline
210
0.0
220
0.0
230
1.0
 70
    11
 71
     3
 72
    40
 73
    36
 74
     0
 42
0.0000000001
 43
0.0000000001
 40
0.0
 40
0.0
 40
0.0
 40
0.0
 40
0.1
 40
0.1
 40
0.1
 40
0.1
 40
0.2
 40
0.2
 40
0.2
 40
0.2
 40
0.3
 40
0.3
 40
0.3
 40
0.3
 40
0.4
 40
0.4
 40
0.4
 40
0.4
 40
0.5
 40
0.5
 40
0.5
 40
0.5
 40
0.6
 40
0.6
 40
0.6
 40
0.6
 40
0.7
 40
0.7
 40
0.7
 40
0.7
 40
0.8
 40
0.8
 40
0.8
 40
0.8
 40
1.0
 40
1.0
 40
1.0
 40
1.0
 10
-39.6986
 20
13.6517
 30
0.0
 10
-39.5916
 20
13.6517
 30
0.0
 10
-39.4893
 20
13.6746
 30
0.0
 10
-39.3917
 20
13.7199
 30
0.0
 10
-39.3917
 20
13.7199
 30
0.0
 10
-39.2941
 20
13.7652
 30
0.0
 10
-39.22
 20
13.8287
 30
0.0
 10
-39.1689
 20
13.9098
 30
0.0
 10
-39.1689
 20
13.9098
 30
0.0
 10
-39.1177
 20
13.9915
 30
0.0
 10
-39.0919
 20
14.0774
 30
0.0
 10
-39.0919
 20
14.1667
 30
0.0
 10
-39.0919
 20
14.1667
 30
0.0
 10
-39.0919
 20
14.2979
 30
0.0
 10
-39.1448
 20
14.4102
 30
0.0
 10
-39.2506
 20
14.5042
 30
0.0
 10
-39.2506
 20
14.5042
 30
0.0
 10
-39.3564
 20
14.5983
 30
0.0
 10
-39.4999
 20
14.6454
 30
0.0
 10
-39.681
 20
14.6454
 30
0.0
 10
-39.681
 20
14.6454
 30
0.0
 10
-39.8556
 20
14.6454
 30
0.0
 10
-39.9932
 20
14.5989
 30
0.0
 10
-40.0937
 20
14.506
 30
0.0
 10
-40.0937
 20
14.506
 30
0.0
 10
-40.1943
 20
14.4131
 30
0.0
 10
-40.2443
 20
14.2961
 30
0.0
 10
-40.2443
 20
14.155
 30
0.0
 10
-40.2443
 20
14.155
 30
0.0
 10
-40.2443
 20
14.0145
 30
0.0
 10
-40.1943
 20
13.8957
 30
0.0
 10
-40.0937
 20
13.7981
 30
0.0
 10
-40.0937
 20
13.7981
 30
0.0
 10
-39.9932
 20
13.7005
 30
0.0
 10
-39.8615
 20
13.6517
 30
0.0
 10
-39.6986
 20
13.6517
 30
0.0
  0
SPLINE
  5
7D
330
1F
100
AcDbEntity
  8
ILUSTRACE
 62
   250
100
AcDbSpline
210
0.0
220
0.0
230
1.0
 70
    11
 71
     3
 72
    44
 73
    40
 74
     0
 42
0.0000000001
 43
0.0000000001
 40
0.0
 40
0.0
 40
0.0
 40
0.0
 40
0.0909090909090909
 40
0.0909090909090909
 40
0.0909090909090909
 40
0.0909090909090909
 40
0.1818181818181818
 40
0.1818181818181818
 40
0.1818181818181818
 40
0.1818181818181818
 40
0.2727272727272727
 40
0.2727272727272727
 40
0.2727272727272727
 40
0.2727272727272727
 40
0.3636363636363636
 40
0.3636363636363636
 40
0.3636363636363636
 40
0.3636363636363636
 40
0.4545454545454545
 40
0.4545454545454545
 40
0.4545454545454545
 40
0.4545454545454545
 40
0.5454545454545454
 40
0.5454545454545454
 40
0.5454545454545454
 40
0.5454545454545454
 40
0.6363636363636364
 40
0.6363636363636364
 40
0.6363636363636364
 40
0.6363636363636364
 40
0.7272727272727273
 40
0.7272727272727273
 40
0.7272727272727273
 40
0.7272727272727273
 40
0.8181818181818182
 40
0.8181818181818182
 40
0.8181818181818182
 40
0.8181818181818182
 40
1.0
 40
1.0
 40
1.0
 40
1.0
 10
-38.9907
 20
29.241
 30
0.0
 10
-39.2065
 20
29.0699
 30
0.0
 10
-39.4593
 20
28.9253
 30
0.0
 10
-39.7486
 20
28.8071
 30
0.0
 10
-39.7486
 20
28.8071
 30
0.0
 10
-40.0385
 20
28.6889
 30
0.0
 10
-40.3377
 20
28.6295
 30
0.0
 10
-40.6482
 20
28.6295
 30
0.0
 10
-40.6482
 20
28.6295
 30
0.0
 10
-40.9216
 20
28.6295
 30
0.0
 10
-41.1832
 20
28.6736
 30
0.0
 10
-41.4337
 20
28.7624
 30
0.0
 10
-41.4337
 20
28.7624
 30
0.0
 10
-41.7241
 20
28.8659
 30
0.0
 10
-42.0134
 20
29.0252
 30
0.0
 10
-42.3015
 20
29.241
 30
0.0
 10
-42.3015
 20
29.241
 30
0.0
 10
-42.3015
 20
29.241
 30
0.0
 10
-42.3015
 20
29.4633
 30
0.0
 10
-42.3015
 20
29.4633
 30
0.0
 10
-42.3015
 20
29.4633
 30
0.0
 10
-42.0628
 20
29.3245
 30
0.0
 10
-41.8923
 20
29.2328
 30
0.0
 10
-41.79
 20
29.1881
 30
0.0
 10
-41.79
 20
29.1881
 30
0.0
 10
-41.6318
 20
29.1175
 30
0.0
 10
-41.466
 20
29.0629
 30
0.0
 10
-41.2938
 20
29.0223
 30
0.0
 10
-41.2938
 20
29.0223
 30
0.0
 10
-41.0791
 20
28.9729
 30
0.0
 10
-40.8634
 20
28.9482
 30
0.0
 10
-40.6464
 20
28.9482
 30
0.0
 10
-40.6464
 20
28.9482
 30
0.0
 10
-40.0937
 20
28.9482
 30
0.0
 10
-39.5422
 20
29.1199
 30
0.0
 10
-38.9907
 20
29.4633
 30
0.0
 10
-38.9907
 20
29.4633
 30
0.0
 10
-38.9907
 20
29.4633
 30
0.0
 10
-38.9907
 20
29.241
 30
0.0
 10
-38.9907
 20
29.241
 30
0.0
  0
SPLINE
  5
7E
330
1F
100
AcDbEntity
  8
ILUSTRACE
 62
   250
100
AcDbSpline
210
0.0
220
0.0
230
1.0
 70
    11
 71
     3
 72
    48
 73
    44
 74
     0
 42
0.0000000001
 43
0.0000000001
 40
0.0
 40
0.0
 40
0.0
 40
0.0
 40
0.0833333333333333
 40
0.0833333333333333
 40
0.0833333333333333
 40
0.0833333333333333
 40
0.1666666666666667
 40
0.1666666666666667
 40
0.1666666666666667
 40
0.1666666666666667
 40
0.25
 40
0.25
 40
0.25
 40
0.25
 40
0.3333333333333333
 40
0.3333333333333333
 40
0.3333333333333333
 40
0.3333333333333333
 40
0.4166666666666667
 40
0.4166666666666667
 40
0.4166666666666667
 40
0.4166666666666667
 40
0.5
 40
0.5
 40
0.5
 40
0.5
 40
0.5833333333333334
 40
0.5833333333333334
 40
0.5833333333333334
 40
0.5833333333333334
 40
0.6666666666666666
 40
0.6666666666666666
 40
0.6666666666666666
 40
0.6666666666666666
 40
0.75
 40
0.75
 40
0.75
 40
0.75
 40
0.8333333333333334
 40
0.8333333333333334
 40
0.8333333333333334
 40
0.8333333333333334
 40
1.0
 40
1.0
 40
1.0
 40
1.0
 10
-39.7333
 20
30.7309
 30
0.0
 10
-39.7333
 20
30.7309
 30
0.0
 10
-40.3377
 20
30.7309
 30
0.0
 10
-40.3377
 20
30.7309
 30
0.0
 10
-40.3377
 20
30.7309
 30
0.0
 10
-40.3377
 20
30.7309
 30
0.0
 10
-40.3377
 20
29.6355
 30
0.0
 10
-40.3377
 20
29.6355
 30
0.0
 10
-40.3377
 20
29.6355
 30
0.0
 10
-40.3377
 20
29.6355
 30
0.0
 10
-40.6223
 20
29.6355
 30
0.0
 10
-40.6223
 20
29.6355
 30
0.0
 10
-40.6223
 20
29.6355
 30
0.0
 10
-40.6223
 20
29.6355
 30
0.0
 10
-42.2586
 20
30.7879
 30
0.0
 10
-42.2586
 20
30.7879
 30
0.0
 10
-42.2586
 20
30.7879
 30
0.0
 10
-42.2586
 20
30.7879
 30
0.0
 10
-42.2586
 20
31.0413
 30
0.0
 10
-42.2586
 20
31.0413
 30
0.0
 10
-42.2586
 20
31.0413
 30
0.0
 10
-42.2586
 20
31.0413
 30
0.0
 10
-40.6223
 20
31.0413
 30
0.0
 10
-40.6223
 20
31.0413
 30
0.0
 10
-40.6223
 20
31.0413
 30
0.0
 10
-40.6223
 20
31.0413
 30
0.0
 10
-40.6223
 20
31.3824
 30
0.0
 10
-40.6223
 20
31.3824
 30
0.0
 10
-40.6223
 20
31.3824
 30
0.0
 10
-40.6223
 20
31.3824
 30
0.0
 10
-40.3377
 20
31.3824
 30
0.0
 10
-40.3377
 20
31.3824
 30
0.0
 10
-40.3377
 20
31.3824
 30
0.0
 10
-40.3377
 20
31.3824
 30
0.0
 10
-40.3377
 20
31.0413
 30
0.0
 10
-40.3377
 20
31.0413
 30
0.0
 10
-40.3377
 20
31.0413
 30
0.0
 10
-40.3377
 20
31.0413
 30
0.0
 10
-39.7333
 20
31.0413
 30
0.0
 10
-39.7333
 20
31.0413
 30
0.0
 10
-39.7333
 20
31.0413
 30
0.0
 10
-39.7333
 20
31.0413
 30
0.0
 10
-39.7333
 20
30.7309
 30
0.0
 10
-39.7333
 20
30.7309
 30
0.0
  0
SPLINE
  5
7F
330
1F
100
AcDbEntity
  8
ILUSTRACE
 62
   250
100
AcDbSpline
210
0.0
220
0.0
230
1.0
 70
    11
 71
     3
 72
    16
 73
    12
 74
     0
 42
0.0000000001
 43
0.0000000001
 40
0.0
 40
0.0
 40
0.0
 40
0.0
 40
0.25
 40
0.25
 40
0.25
 40
0.25
 40
0.5
 40
0.5
 40
0.5
 40
0.5
 40
1.0
 40
1.0
 40
1.0
 40
1.0
 10
-40.6223
 20
30.7309
 30
0.0
 10
-40.6223
 20
30.7309
 30
0.0
 10
-41.7606
 20
30.7309
 30
0.0
 10
-41.7606
 20
30.7309
 30
0.0
 10
-41.7606
 20
30.7309
 30
0.0
 10
-41.7606
 20
30.7309
 30
0.0
 10
-40.6223
 20
29.9407
 30
0.0
 10
-40.6223
 20
29.9407
 30
0.0
 10
-40.6223
 20
29.9407
 30
0.0
 10
-40.6223
 20
29.9407
 30
0.0
 10
-40.6223
 20
30.7309
 30
0.0
 10
-40.6223
 20
30.7309
 30
0.0
  0
SPLINE
  5
80
330
1F
100
AcDbEntity
  8
ILUSTRACE
 62
   250
100
AcDbSpline
210
0.0
220
0.0
230
1.0
 70
    11
 71
     3
 72
    44
 73
    40
 74
     0
 42
0.0000000001
 43
0.0000000001
 40
0.0
 40
0.0
 40
0.0
 40
0.0
 40
0.0909090909090909
 40
0.0909090909090909
 40
0.0909090909090909
 40
0.0909090909090909
 40
0.1818181818181818
 40
0.1818181818181818
 40
0.1818181818181818
 40
0.1818181818181818
 40
0.2727272727272727
 40
0.2727272727272727
 40
0.2727272727272727
 40
0.2727272727272727
 40
0.3636363636363636
 40
0.3636363636363636
 40
0.3636363636363636
 40
0.3636363636363636
 40
0.4545454545454545
 40
0.4545454545454545
 40
0.4545454545454545
 40
0.4545454545454545
 40
0.5454545454545454
 40
0.5454545454545454
 40
0.5454545454545454
 40
0.5454545454545454
 40
0.6363636363636364
 40
0.6363636363636364
 40
0.6363636363636364
 40
0.6363636363636364
 40
0.7272727272727273
 40
0.7272727272727273
 40
0.7272727272727273
 40
0.7272727272727273
 40
0.8181818181818182
 40
0.8181818181818182
 40
0.8181818181818182
 40
0.8181818181818182
 40
1.0
 40
1.0
 40
1.0
 40
1.0
 10
-38.9907
 20
31.9886
 30
0.0
 10
-38.9907
 20
31.9886
 30
0.0
 10
-38.9907
 20
31.7663
 30
0.0
 10
-38.9907
 20
31.7663
 30
0.0
 10
-38.9907
 20
31.7663
 30
0.0
 10
-39.5422
 20
32.1097
 30
0.0
 10
-40.0937
 20
32.2814
 30
0.0
 10
-40.6464
 20
32.2814
 30
0.0
 10
-40.6464
 20
32.2814
 30
0.0
 10
-40.8622
 20
32.2814
 30
0.0
 10
-41.0762
 20
32.2567
 30
0.0
 10
-41.289
 20
32.2073
 30
0.0
 10
-41.289
 20
32.2073
 30
0.0
 10
-41.4607
 20
32.1685
 30
0.0
 10
-41.6265
 20
32.1138
 30
0.0
 10
-41.7847
 20
32.0438
 30
0.0
 10
-41.7847
 20
32.0438
 30
0.0
 10
-41.8882
 20
31.9991
 30
0.0
 10
-42.0604
 20
31.9068
 30
0.0
 10
-42.3015
 20
31.7663
 30
0.0
 10
-42.3015
 20
31.7663
 30
0.0
 10
-42.3015
 20
31.7663
 30
0.0
 10
-42.3015
 20
31.9886
 30
0.0
 10
-42.3015
 20
31.9886
 30
0.0
 10
-42.3015
 20
31.9886
 30
0.0
 10
-42.0134
 20
32.2043
 30
0.0
 10
-41.7241
 20
32.3643
 30
0.0
 10
-41.4337
 20
32.4677
 30
0.0
 10
-41.4337
 20
32.4677
 30
0.0
 10
-41.1832
 20
32.5559
 30
0.0
 10
-40.9216
 20
32.6
 30
0.0
 10
-40.6482
 20
32.6
 30
0.0
 10
-40.6482
 20
32.6
 30
0.0
 10
-40.3377
 20
32.6
 30
0.0
 10
-40.0385
 20
32.5406
 30
0.0
 10
-39.7486
 20
32.4219
 30
0.0
 10
-39.7486
 20
32.4219
 30
0.0
 10
-39.4593
 20
32.3031
 30
0.0
 10
-39.2065
 20
32.1585
 30
0.0
 10
-38.9907
 20
31.9886
 30
0.0
  0
SPLINE
  5
81
330
1F
100
AcDbEntity
  8
ILUSTRACE
 62
   250
100
AcDbSpline
210
0.0
220
0.0
230
1.0
 70
    11
 71
     3
 72
    92
 73
    88
 74
     0
 42
0.0000000001
 43
0.0000000001
 40
0.0
 40
0.0
 40
0.0
 40
0.0
 40
0.0434782608695652
 40
0.0434782608695652
 40
0.0434782608695652
 40
0.0434782608695652
 40
0.0869565217391304
 40
0.0869565217391304
 40
0.0869565217391304
 40
0.0869565217391304
 40
0.1304347826086956
 40
0.1304347826086956
 40
0.1304347826086956
 40
0.1304347826086956
 40
0.1739130434782609
 40
0.1739130434782609
 40
0.1739130434782609
 40
0.1739130434782609
 40
0.2173913043478261
 40
0.2173913043478261
 40
0.2173913043478261
 40
0.2173913043478261
 40
0.2608695652173913
 40
0.2608695652173913
 40
0.2608695652173913
 40
0.2608695652173913
 40
0.3043478260869565
 40
0.3043478260869565
 40
0.3043478260869565
 40
0.3043478260869565
 40
0.3478260869565217
 40
0.3478260869565217
 40
0.3478260869565217
 40
0.3478260869565217
 40
0.391304347826087
 40
0.391304347826087
 40
0.391304347826087
 40
0.391304347826087
 40
0.4347826086956522
 40
0.4347826086956522
 40
0.4347826086956522
 40
0.4347826086956522
 40
0.4782608695652174
 40
0.4782608695652174
 40
0.4782608695652174
 40
0.4782608695652174
 40
0.5217391304347826
 40
0.5217391304347826
 40
0.5217391304347826
 40
0.5217391304347826
 40
0.5652173913043478
 40
0.5652173913043478
 40
0.5652173913043478
 40
0.5652173913043478
 40
0.6086956521739131
 40
0.6086956521739131
 40
0.6086956521739131
 40
0.6086956521739131
 40
0.6521739130434783
 40
0.6521739130434783
 40
0.6521739130434783
 40
0.6521739130434783
 40
0.6956521739130435
 40
0.6956521739130435
 40
0.6956521739130435
 40
0.6956521739130435
 40
0.7391304347826086
 40
0.7391304347826086
 40
0.7391304347826086
 40
0.7391304347826086
 40
0.782608695652174
 40
0.782608695652174
 40
0.782608695652174
 40
0.782608695652174
 40
0.8260869565217391
 40
0.8260869565217391
 40
0.8260869565217391
 40
0.8260869565217391
 40
0.8695652173913043
 40
0.8695652173913043
 40
0.8695652173913043
 40
0.8695652173913043
 40
0.9130434782608695
 40
0.9130434782608695
 40
0.9130434782608695
 40
0.9130434782608695
 40
1.0
 40
1.0
 40
1.0
 40
1.0
 10
12.0028
 20
8.2553
 30
0.0
 10
12.0028
 20
8.2553
 30
0.0
 10
12.0028
 20
7.9572
 30
0.0
 10
12.0028
 20
7.9572
 30
0.0
 10
12.0028
 20
7.9572
 30
0.0
 10
12.0028
 20
7.9572
 30
0.0
 10
10.3336
 20
7.9572
 30
0.0
 10
10.3336
 20
7.9572
 30
0.0
 10
10.3336
 20
7.9572
 30
0.0
 10
10.3313
 20
8.0319
 30
0.0
 10
10.343
 20
8.1036
 30
0.0
 10
10.3695
 20
8.1724
 30
0.0
 10
10.3695
 20
8.1724
 30
0.0
 10
10.4118
 20
8.2864
 30
0.0
 10
10.48
 20
8.3982
 30
0.0
 10
10.5735
 20
8.5087
 30
0.0
 10
10.5735
 20
8.5087
 30
0.0
 10
10.6676
 20
8.6186
 30
0.0
 10
10.8028
 20
8.7463
 30
0.0
 10
10.9792
 20
8.8909
 30
0.0
 10
10.9792
 20
8.8909
 30
0.0
 10
11.2538
 20
9.1161
 30
0.0
 10
11.4396
 20
9.2942
 30
0.0
 10
11.536
 20
9.4259
 30
0.0
 10
11.536
 20
9.4259
 30
0.0
 10
11.6324
 20
9.557
 30
0.0
 10
11.6806
 20
9.6817
 30
0.0
 10
11.6806
 20
9.7987
 30
0.0
 10
11.6806
 20
9.7987
 30
0.0
 10
11.6806
 20
9.9216
 30
0.0
 10
11.6365
 20
10.0251
 30
0.0
 10
11.5489
 20
10.1097
 30
0.0
 10
11.5489
 20
10.1097
 30
0.0
 10
11.4607
 20
10.1938
 30
0.0
 10
11.3461
 20
10.2361
 30
0.0
 10
11.205
 20
10.2361
 30
0.0
 10
11.205
 20
10.2361
 30
0.0
 10
11.0556
 20
10.2361
 30
0.0
 10
10.9363
 20
10.1915
 30
0.0
 10
10.8469
 20
10.1015
 30
0.0
 10
10.8469
 20
10.1015
 30
0.0
 10
10.757
 20
10.0121
 30
0.0
 10
10.7117
 20
9.8881
 30
0.0
 10
10.7105
 20
9.7299
 30
0.0
 10
10.7105
 20
9.7299
 30
0.0
 10
10.7105
 20
9.7299
 30
0.0
 10
10.3918
 20
9.7622
 30
0.0
 10
10.3918
 20
9.7622
 30
0.0
 10
10.3918
 20
9.7622
 30
0.0
 10
10.4136
 20
10.0004
 30
0.0
 10
10.4959
 20
10.1815
 30
0.0
 10
10.6382
 20
10.3061
 30
0.0
 10
10.6382
 20
10.3061
 30
0.0
 10
10.7805
 20
10.4308
 30
0.0
 10
10.9721
 20
10.4931
 30
0.0
 10
11.212
 20
10.4931
 30
0.0
 10
11.212
 20
10.4931
 30
0.0
 10
11.4543
 20
10.4931
 30
0.0
 10
11.6459
 20
10.4255
 30
0.0
 10
11.7871
 20
10.2914
 30
0.0
 10
11.7871
 20
10.2914
 30
0.0
 10
11.9288
 20
10.1568
 30
0.0
 10
11.9993
 20
9.9904
 30
0.0
 10
11.9993
 20
9.7916
 30
0.0
 10
11.9993
 20
9.7916
 30
0.0
 10
11.9993
 20
9.6905
 30
0.0
 10
11.9787
 20
9.5911
 30
0.0
 10
11.937
 20
9.4935
 30
0.0
 10
11.937
 20
9.4935
 30
0.0
 10
11.8958
 20
9.3959
 30
0.0
 10
11.827
 20
9.293
 30
0.0
 10
11.7312
 20
9.1855
 30
0.0
 10
11.7312
 20
9.1855
 30
0.0
 10
11.6354
 20
9.0773
 30
0.0
 10
11.476
 20
8.9291
 30
0.0
 10
11.2532
 20
8.741
 30
0.0
 10
11.2532
 20
8.741
 30
0.0
 10
11.0674
 20
8.5846
 30
0.0
 10
10.948
 20
8.4787
 30
0.0
 10
10.8951
 20
8.4229
 30
0.0
 10
10.8951
 20
8.4229
 30
0.0
 10
10.8422
 20
8.3676
 30
0.0
 10
10.7987
 20
8.3117
 30
0.0
 10
10.764
 20
8.2553
 30
0.0
 10
10.764
 20
8.2553
 30
0.0
 10
10.764
 20
8.2553
 30
0.0
 10
12.0028
 20
8.2553
 30
0.0
 10
12.0028
 20
8.2553
 30
0.0
  0
SPLINE
  5
82
330
1F
100
AcDbEntity
  8
ILUSTRACE
 62
   250
100
AcDbSpline
210
0.0
220
0.0
230
1.0
 70
    11
 71
     3
 72
    80
 73
    76
 74
     0
 42
0.0000000001
 43
0.0000000001
 40
0.0
 40
0.0
 40
0.0
 40
0.0
 40
0.05
 40
0.05
 40
0.05
 40
0.05
 40
0.1
 40
0.1
 40
0.1
 40
0.1
 40
0.15
 40
0.15
 40
0.15
 40
0.15
 40
0.2
 40
0.2
 40
0.2
 40
0.2
 40
0.25
 40
0.25
 40
0.25
 40
0.25
 40
0.3
 40
0.3
 40
0.3
 40
0.3
 40
0.35
 40
0.35
 40
0.35
 40
0.35
 40
0.4
 40
0.4
 40
0.4
 40
0.4
 40
0.45
 40
0.45
 40
0.45
 40
0.45
 40
0.5
 40
0.5
 40
0.5
 40
0.5
 40
0.55
 40
0.55
 40
0.55
 40
0.55
 40
0.6
 40
0.6
 40
0.6
 40
0.6
 40
0.65
 40
0.65
 40
0.65
 40
0.65
 40
0.7
 40
0.7
 40
0.7
 40
0.7
 40
0.75
 40
0.75
 40
0.75
 40
0.75
 40
0.8
 40
0.8
 40
0.8
 40
0.8
 40
0.85
 40
0.85
 40
0.85
 40
0.85
 40
0.9
 40
0.9
 40
0.9
 40
0.9
 40
1.0
 40
1.0
 40
1.0
 40
1.0
 10
13.9437
 20
9.864
 30
0.0
 10
13.9437
 20
9.864
 30
0.0
 10
13.6356
 20
9.8399
 30
0.0
 10
13.6356
 20
9.8399
 30
0.0
 10
13.6356
 20
9.8399
 30
0.0
 10
13.608
 20
9.9616
 30
0.0
 10
13.5692
 20
10.0503
 30
0.0
 10
13.5186
 20
10.105
 30
0.0
 10
13.5186
 20
10.105
 30
0.0
 10
13.4345
 20
10.1938
 30
0.0
 10
13.331
 20
10.2379
 30
0.0
 10
13.2081
 20
10.2379
 30
0.0
 10
13.2081
 20
10.2379
 30
0.0
 10
13.1094
 20
10.2379
 30
0.0
 10
13.0229
 20
10.2103
 30
0.0
 10
12.9483
 20
10.155
 30
0.0
 10
12.9483
 20
10.155
 30
0.0
 10
12.8507
 20
10.0838
 30
0.0
 10
12.7736
 20
9.9798
 30
0.0
 10
12.7172
 20
9.8434
 30
0.0
 10
12.7172
 20
9.8434
 30
0.0
 10
12.6614
 20
9.707
 30
0.0
 10
12.6319
 20
9.5124
 30
0.0
 10
12.6296
 20
9.2595
 30
0.0
 10
12.6296
 20
9.2595
 30
0.0
 10
12.7043
 20
9.373
 30
0.0
 10
12.7954
 20
9.4577
 30
0.0
 10
12.9036
 20
9.5129
 30
0.0
 10
12.9036
 20
9.5129
 30
0.0
 10
13.0112
 20
9.5676
 30
0.0
 10
13.1247
 20
9.5953
 30
0.0
 10
13.2428
 20
9.5953
 30
0.0
 10
13.2428
 20
9.5953
 30
0.0
 10
13.4498
 20
9.5953
 30
0.0
 10
13.6256
 20
9.5194
 30
0.0
 10
13.7708
 20
9.3671
 30
0.0
 10
13.7708
 20
9.3671
 30
0.0
 10
13.9161
 20
9.2148
 30
0.0
 10
13.989
 20
9.0185
 30
0.0
 10
13.989
 20
8.7774
 30
0.0
 10
13.989
 20
8.7774
 30
0.0
 10
13.989
 20
8.6186
 30
0.0
 10
13.9543
 20
8.4717
 30
0.0
 10
13.8861
 20
8.3353
 30
0.0
 10
13.8861
 20
8.3353
 30
0.0
 10
13.8179
 20
8.1994
 30
0.0
 10
13.7238
 20
8.0948
 30
0.0
 10
13.6044
 20
8.0225
 30
0.0
 10
13.6044
 20
8.0225
 30
0.0
 10
13.4851
 20
7.9502
 30
0.0
 10
13.3498
 20
7.9143
 30
0.0
 10
13.1981
 20
7.9143
 30
0.0
 10
13.1981
 20
7.9143
 30
0.0
 10
12.9394
 20
7.9143
 30
0.0
 10
12.729
 20
8.0089
 30
0.0
 10
12.5661
 20
8.1994
 30
0.0
 10
12.5661
 20
8.1994
 30
0.0
 10
12.4027
 20
8.3894
 30
0.0
 10
12.3215
 20
8.7027
 30
0.0
 10
12.3215
 20
9.139
 30
0.0
 10
12.3215
 20
9.139
 30
0.0
 10
12.3215
 20
9.627
 30
0.0
 10
12.4115
 20
9.9816
 30
0.0
 10
12.592
 20
10.2032
 30
0.0
 10
12.592
 20
10.2032
 30
0.0
 10
12.7489
 20
10.3961
 30
0.0
 10
12.9606
 20
10.4931
 30
0.0
 10
13.2276
 20
10.4931
 30
0.0
 10
13.2276
 20
10.4931
 30
0.0
 10
13.4257
 20
10.4931
 30
0.0
 10
13.5885
 20
10.4372
 30
0.0
 10
13.7156
 20
10.3255
 30
0.0
 10
13.7156
 20
10.3255
 30
0.0
 10
13.8426
 20
10.2144
 30
0.0
 10
13.9184
 20
10.0603
 30
0.0
 10
13.9437
 20
9.864
 30
0.0
  0
SPLINE
  5
83
330
1F
100
AcDbEntity
  8
ILUSTRACE
 62
   250
100
AcDbSpline
210
0.0
220
0.0
230
1.0
 70
    11
 71
     3
 72
    40
 73
    36
 74
     0
 42
0.0000000001
 43
0.0000000001
 40
0.0
 40
0.0
 40
0.0
 40
0.0
 40
0.1
 40
0.1
 40
0.1
 40
0.1
 40
0.2
 40
0.2
 40
0.2
 40
0.2
 40
0.3
 40
0.3
 40
0.3
 40
0.3
 40
0.4
 40
0.4
 40
0.4
 40
0.4
 40
0.5
 40
0.5
 40
0.5
 40
0.5
 40
0.6
 40
0.6
 40
0.6
 40
0.6
 40
0.7
 40
0.7
 40
0.7
 40
0.7
 40
0.8
 40
0.8
 40
0.8
 40
0.8
 40
1.0
 40
1.0
 40
1.0
 40
1.0
 10
12.6778
 20
8.7756
 30
0.0
 10
12.6778
 20
8.6686
 30
0.0
 10
12.7007
 20
8.5663
 30
0.0
 10
12.746
 20
8.4687
 30
0.0
 10
12.746
 20
8.4687
 30
0.0
 10
12.7913
 20
8.3711
 30
0.0
 10
12.8548
 20
8.297
 30
0.0
 10
12.9359
 20
8.2459
 30
0.0
 10
12.9359
 20
8.2459
 30
0.0
 10
13.0176
 20
8.1947
 30
0.0
 10
13.1035
 20
8.1689
 30
0.0
 10
13.1929
 20
8.1689
 30
0.0
 10
13.1929
 20
8.1689
 30
0.0
 10
13.324
 20
8.1689
 30
0.0
 10
13.4363
 20
8.2218
 30
0.0
 10
13.5303
 20
8.3276
 30
0.0
 10
13.5303
 20
8.3276
 30
0.0
 10
13.6244
 20
8.4334
 30
0.0
 10
13.6715
 20
8.5769
 30
0.0
 10
13.6715
 20
8.758
 30
0.0
 10
13.6715
 20
8.758
 30
0.0
 10
13.6715
 20
8.9326
 30
0.0
 10
13.625
 20
9.0702
 30
0.0
 10
13.5321
 20
9.1707
 30
0.0
 10
13.5321
 20
9.1707
 30
0.0
 10
13.4392
 20
9.2713
 30
0.0
 10
13.3222
 20
9.3213
 30
0.0
 10
13.1811
 20
9.3213
 30
0.0
 10
13.1811
 20
9.3213
 30
0.0
 10
13.0406
 20
9.3213
 30
0.0
 10
12.9218
 20
9.2713
 30
0.0
 10
12.8242
 20
9.1707
 30
0.0
 10
12.8242
 20
9.1707
 30
0.0
 10
12.7266
 20
9.0702
 30
0.0
 10
12.6778
 20
8.9385
 30
0.0
 10
12.6778
 20
8.7756
 30
0.0
  0
SPLINE
  5
84
330
1F
100
AcDbEntity
  8
ILUSTRACE
 62
   250
100
AcDbSpline
210
0.0
220
0.0
230
1.0
 70
    11
 71
     3
 72
    52
 73
    48
 74
     0
 42
0.0000000001
 43
0.0000000001
 40
0.0
 40
0.0
 40
0.0
 40
0.0
 40
0.0769230769230769
 40
0.0769230769230769
 40
0.0769230769230769
 40
0.0769230769230769
 40
0.1538461538461539
 40
0.1538461538461539
 40
0.1538461538461539
 40
0.1538461538461539
 40
0.2307692307692308
 40
0.2307692307692308
 40
0.2307692307692308
 40
0.2307692307692308
 40
0.3076923076923077
 40
0.3076923076923077
 40
0.3076923076923077
 40
0.3076923076923077
 40
0.3846153846153846
 40
0.3846153846153846
 40
0.3846153846153846
 40
0.3846153846153846
 40
0.4615384615384616
 40
0.4615384615384616
 40
0.4615384615384616
 40
0.4615384615384616
 40
0.5384615384615384
 40
0.5384615384615384
 40
0.5384615384615384
 40
0.5384615384615384
 40
0.6153846153846154
 40
0.6153846153846154
 40
0.6153846153846154
 40
0.6153846153846154
 40
0.6923076923076923
 40
0.6923076923076923
 40
0.6923076923076923
 40
0.6923076923076923
 40
0.7692307692307693
 40
0.7692307692307693
 40
0.7692307692307693
 40
0.7692307692307693
 40
0.8461538461538461
 40
0.8461538461538461
 40
0.8461538461538461
 40
0.8461538461538461
 40
1.0
 40
1.0
 40
1.0
 40
1.0
 10
14.2971
 20
9.2025
 30
0.0
 10
14.2971
 20
9.5012
 30
0.0
 10
14.3276
 20
9.7417
 30
0.0
 10
14.3894
 20
9.9233
 30
0.0
 10
14.3894
 20
9.9233
 30
0.0
 10
14.4505
 20
10.1056
 30
0.0
 10
14.5422
 20
10.2461
 30
0.0
 10
14.6633
 20
10.3449
 30
0.0
 10
14.6633
 20
10.3449
 30
0.0
 10
14.7845
 20
10.4437
 30
0.0
 10
14.9368
 20
10.4931
 30
0.0
 10
15.1202
 20
10.4931
 30
0.0
 10
15.1202
 20
10.4931
 30
0.0
 10
15.256
 20
10.4931
 30
0.0
 10
15.3748
 20
10.4654
 30
0.0
 10
15.4771
 20
10.4108
 30
0.0
 10
15.4771
 20
10.4108
 30
0.0
 10
15.5794
 20
10.3567
 30
0.0
 10
15.6635
 20
10.2779
 30
0.0
 10
15.7305
 20
10.175
 30
0.0
 10
15.7305
 20
10.175
 30
0.0
 10
15.7969
 20
10.0721
 30
0.0
 10
15.8493
 20
9.9469
 30
0.0
 10
15.8869
 20
9.7993
 30
0.0
 10
15.8869
 20
9.7993
 30
0.0
 10
15.9251
 20
9.6517
 30
0.0
 10
15.9439
 20
9.453
 30
0.0
 10
15.9439
 20
9.2025
 30
0.0
 10
15.9439
 20
9.2025
 30
0.0
 10
15.9439
 20
8.9062
 30
0.0
 10
15.9134
 20
8.6675
 30
0.0
 10
15.8528
 20
8.4852
 30
0.0
 10
15.8528
 20
8.4852
 30
0.0
 10
15.7916
 20
8.3029
 30
0.0
 10
15.7005
 20
8.1624
 30
0.0
 10
15.5794
 20
8.063
 30
0.0
 10
15.5794
 20
8.063
 30
0.0
 10
15.4583
 20
7.9637
 30
0.0
 10
15.3054
 20
7.9143
 30
0.0
 10
15.1202
 20
7.9143
 30
0.0
 10
15.1202
 20
7.9143
 30
0.0
 10
14.8768
 20
7.9143
 30
0.0
 10
14.6857
 20
8.0013
 30
0.0
 10
14.5469
 20
8.1759
 30
0.0
 10
14.5469
 20
8.1759
 30
0.0
 10
14.3806
 20
8.3858
 30
0.0
 10
14.2971
 20
8.7286
 30
0.0
 10
14.2971
 20
9.2025
 30
0.0
  0
SPLINE
  5
85
330
1F
100
AcDbEntity
  8
ILUSTRACE
 62
   250
100
AcDbSpline
210
0.0
220
0.0
230
1.0
 70
    11
 71
     3
 72
    36
 73
    32
 74
     0
 42
0.0000000001
 43
0.0000000001
 40
0.0
 40
0.0
 40
0.0
 40
0.0
 40
0.1111111111111111
 40
0.1111111111111111
 40
0.1111111111111111
 40
0.1111111111111111
 40
0.2222222222222222
 40
0.2222222222222222
 40
0.2222222222222222
 40
0.2222222222222222
 40
0.3333333333333333
 40
0.3333333333333333
 40
0.3333333333333333
 40
0.3333333333333333
 40
0.4444444444444444
 40
0.4444444444444444
 40
0.4444444444444444
 40
0.4444444444444444
 40
0.5555555555555556
 40
0.5555555555555556
 40
0.5555555555555556
 40
0.5555555555555556
 40
0.6666666666666666
 40
0.6666666666666666
 40
0.6666666666666666
 40
0.6666666666666666
 40
0.7777777777777778
 40
0.7777777777777778
 40
0.7777777777777778
 40
0.7777777777777778
 40
1.0
 40
1.0
 40
1.0
 40
1.0
 10
14.6157
 20
9.2025
 30
0.0
 10
14.6157
 20
8.788
 30
0.0
 10
14.6645
 20
8.5122
 30
0.0
 10
14.7615
 20
8.3746
 30
0.0
 10
14.7615
 20
8.3746
 30
0.0
 10
14.8585
 20
8.2377
 30
0.0
 10
14.9779
 20
8.1689
 30
0.0
 10
15.1202
 20
8.1689
 30
0.0
 10
15.1202
 20
8.1689
 30
0.0
 10
15.2631
 20
8.1689
 30
0.0
 10
15.3824
 20
8.2382
 30
0.0
 10
15.4794
 20
8.3758
 30
0.0
 10
15.4794
 20
8.3758
 30
0.0
 10
15.5764
 20
8.5134
 30
0.0
 10
15.6253
 20
8.7892
 30
0.0
 10
15.6253
 20
9.2025
 30
0.0
 10
15.6253
 20
9.2025
 30
0.0
 10
15.6253
 20
9.6182
 30
0.0
 10
15.5764
 20
9.8945
 30
0.0
 10
15.4794
 20
10.0309
 30
0.0
 10
15.4794
 20
10.0309
 30
0.0
 10
15.3824
 20
10.1679
 30
0.0
 10
15.2619
 20
10.2361
 30
0.0
 10
15.1173
 20
10.2361
 30
0.0
 10
15.1173
 20
10.2361
 30
0.0
 10
14.9744
 20
10.2361
 30
0.0
 10
14.8609
 20
10.1756
 30
0.0
 10
14.7757
 20
10.055
 30
0.0
 10
14.7757
 20
10.055
 30
0.0
 10
14.6692
 20
9.9016
 30
0.0
 10
14.6157
 20
9.617
 30
0.0
 10
14.6157
 20
9.2025
 30
0.0
  0
SPLINE
  5
86
330
1F
100
AcDbEntity
  8
ILUSTRACE
 62
   250
100
AcDbSpline
210
0.0
220
0.0
230
1.0
 70
    11
 71
     3
 72
    80
 73
    76
 74
     0
 42
0.0000000001
 43
0.0000000001
 40
0.0
 40
0.0
 40
0.0
 40
0.0
 40
0.05
 40
0.05
 40
0.05
 40
0.05
 40
0.1
 40
0.1
 40
0.1
 40
0.1
 40
0.15
 40
0.15
 40
0.15
 40
0.15
 40
0.2
 40
0.2
 40
0.2
 40
0.2
 40
0.25
 40
0.25
 40
0.25
 40
0.25
 40
0.3
 40
0.3
 40
0.3
 40
0.3
 40
0.35
 40
0.35
 40
0.35
 40
0.35
 40
0.4
 40
0.4
 40
0.4
 40
0.4
 40
0.45
 40
0.45
 40
0.45
 40
0.45
 40
0.5
 40
0.5
 40
0.5
 40
0.5
 40
0.55
 40
0.55
 40
0.55
 40
0.55
 40
0.6
 40
0.6
 40
0.6
 40
0.6
 40
0.65
 40
0.65
 40
0.65
 40
0.65
 40
0.7
 40
0.7
 40
0.7
 40
0.7
 40
0.75
 40
0.75
 40
0.75
 40
0.75
 40
0.8
 40
0.8
 40
0.8
 40
0.8
 40
0.85
 40
0.85
 40
0.85
 40
0.85
 40
0.9
 40
0.9
 40
0.9
 40
0.9
 40
1.0
 40
1.0
 40
1.0
 40
1.0
 10
-20.5183
 20
10.124
 30
0.0
 10
-20.5183
 20
10.124
 30
0.0
 10
-20.8264
 20
10.0999
 30
0.0
 10
-20.8264
 20
10.0999
 30
0.0
 10
-20.8264
 20
10.0999
 30
0.0
 10
-20.8541
 20
10.2216
 30
0.0
 10
-20.8929
 20
10.3103
 30
0.0
 10
-20.9434
 20
10.365
 30
0.0
 10
-20.9434
 20
10.365
 30
0.0
 10
-21.0275
 20
10.4538
 30
0.0
 10
-21.131
 20
10.4979
 30
0.0
 10
-21.2539
 20
10.4979
 30
0.0
 10
-21.2539
 20
10.4979
 30
0.0
 10
-21.3526
 20
10.4979
 30
0.0
 10
-21.4391
 20
10.4703
 30
0.0
 10
-21.5138
 20
10.415
 30
0.0
 10
-21.5138
 20
10.415
 30
0.0
 10
-21.6113
 20
10.3438
 30
0.0
 10
-21.6884
 20
10.2398
 30
0.0
 10
-21.7448
 20
10.1034
 30
0.0
 10
-21.7448
 20
10.1034
 30
0.0
 10
-21.8007
 20
9.967
 30
0.0
 10
-21.8301
 20
9.7724
 30
0.0
 10
-21.8324
 20
9.5195
 30
0.0
 10
-21.8324
 20
9.5195
 30
0.0
 10
-21.7578
 20
9.633
 30
0.0
 10
-21.6666
 20
9.7177
 30
0.0
 10
-21.5584
 20
9.7729
 30
0.0
 10
-21.5584
 20
9.7729
 30
0.0
 10
-21.4508
 20
9.8276
 30
0.0
 10
-21.3374
 20
9.8553
 30
0.0
 10
-21.2192
 20
9.8553
 30
0.0
 10
-21.2192
 20
9.8553
 30
0.0
 10
-21.0122
 20
9.8553
 30
0.0
 10
-20.8364
 20
9.7794
 30
0.0
 10
-20.6912
 20
9.6271
 30
0.0
 10
-20.6912
 20
9.6271
 30
0.0
 10
-20.546
 20
9.4748
 30
0.0
 10
-20.4731
 20
9.2785
 30
0.0
 10
-20.4731
 20
9.0374
 30
0.0
 10
-20.4731
 20
9.0374
 30
0.0
 10
-20.4731
 20
8.8786
 30
0.0
 10
-20.5077
 20
8.7317
 30
0.0
 10
-20.576
 20
8.5953
 30
0.0
 10
-20.576
 20
8.5953
 30
0.0
 10
-20.6442
 20
8.4594
 30
0.0
 10
-20.7382
 20
8.3548
 30
0.0
 10
-20.8576
 20
8.2825
 30
0.0
 10
-20.8576
 20
8.2825
 30
0.0
 10
-20.9769
 20
8.2102
 30
0.0
 10
-21.1122
 20
8.1743
 30
0.0
 10
-21.2639
 20
8.1743
 30
0.0
 10
-21.2639
 20
8.1743
 30
0.0
 10
-21.5226
 20
8.1743
 30
0.0
 10
-21.7331
 20
8.2689
 30
0.0
 10
-21.8959
 20
8.4594
 30
0.0
 10
-21.8959
 20
8.4594
 30
0.0
 10
-22.0594
 20
8.6494
 30
0.0
 10
-22.1405
 20
8.9627
 30
0.0
 10
-22.1405
 20
9.399
 30
0.0
 10
-22.1405
 20
9.399
 30
0.0
 10
-22.1405
 20
9.887
 30
0.0
 10
-22.0506
 20
10.2416
 30
0.0
 10
-21.8701
 20
10.4632
 30
0.0
 10
-21.8701
 20
10.4632
 30
0.0
 10
-21.7131
 20
10.6561
 30
0.0
 10
-21.5014
 20
10.7531
 30
0.0
 10
-21.2345
 20
10.7531
 30
0.0
 10
-21.2345
 20
10.7531
 30
0.0
 10
-21.0363
 20
10.7531
 30
0.0
 10
-20.8735
 20
10.6972
 30
0.0
 10
-20.7465
 20
10.5855
 30
0.0
 10
-20.7465
 20
10.5855
 30
0.0
 10
-20.6195
 20
10.4744
 30
0.0
 10
-20.5436
 20
10.3203
 30
0.0
 10
-20.5183
 20
10.124
 30
0.0
  0
SPLINE
  5
87
330
1F
100
AcDbEntity
  8
ILUSTRACE
 62
   250
100
AcDbSpline
210
0.0
220
0.0
230
1.0
 70
    11
 71
     3
 72
    40
 73
    36
 74
     0
 42
0.0000000001
 43
0.0000000001
 40
0.0
 40
0.0
 40
0.0
 40
0.0
 40
0.1
 40
0.1
 40
0.1
 40
0.1
 40
0.2
 40
0.2
 40
0.2
 40
0.2
 40
0.3
 40
0.3
 40
0.3
 40
0.3
 40
0.4
 40
0.4
 40
0.4
 40
0.4
 40
0.5
 40
0.5
 40
0.5
 40
0.5
 40
0.6
 40
0.6
 40
0.6
 40
0.6
 40
0.7
 40
0.7
 40
0.7
 40
0.7
 40
0.8
 40
0.8
 40
0.8
 40
0.8
 40
1.0
 40
1.0
 40
1.0
 40
1.0
 10
-21.7842
 20
9.0356
 30
0.0
 10
-21.7842
 20
8.9286
 30
0.0
 10
-21.7613
 20
8.8263
 30
0.0
 10
-21.716
 20
8.7287
 30
0.0
 10
-21.716
 20
8.7287
 30
0.0
 10
-21.6707
 20
8.6311
 30
0.0
 10
-21.6072
 20
8.557
 30
0.0
 10
-21.5261
 20
8.5059
 30
0.0
 10
-21.5261
 20
8.5059
 30
0.0
 10
-21.4444
 20
8.4547
 30
0.0
 10
-21.3585
 20
8.4289
 30
0.0
 10
-21.2692
 20
8.4289
 30
0.0
 10
-21.2692
 20
8.4289
 30
0.0
 10
-21.1381
 20
8.4289
 30
0.0
 10
-21.0257
 20
8.4818
 30
0.0
 10
-20.9317
 20
8.5876
 30
0.0
 10
-20.9317
 20
8.5876
 30
0.0
 10
-20.8376
 20
8.6934
 30
0.0
 10
-20.7906
 20
8.8369
 30
0.0
 10
-20.7906
 20
9.018
 30
0.0
 10
-20.7906
 20
9.018
 30
0.0
 10
-20.7906
 20
9.1926
 30
0.0
 10
-20.837
 20
9.3302
 30
0.0
 10
-20.9299
 20
9.4307
 30
0.0
 10
-20.9299
 20
9.4307
 30
0.0
 10
-21.0228
 20
9.5313
 30
0.0
 10
-21.1398
 20
9.5813
 30
0.0
 10
-21.2809
 20
9.5813
 30
0.0
 10
-21.2809
 20
9.5813
 30
0.0
 10
-21.4214
 20
9.5813
 30
0.0
 10
-21.5402
 20
9.5313
 30
0.0
 10
-21.6378
 20
9.4307
 30
0.0
 10
-21.6378
 20
9.4307
 30
0.0
 10
-21.7354
 20
9.3302
 30
0.0
 10
-21.7842
 20
9.1985
 30
0.0
 10
-21.7842
 20
9.0356
 30
0.0
  0
SPLINE
  5
88
330
1F
100
AcDbEntity
  8
ILUSTRACE
 62
   250
100
AcDbSpline
210
0.0
220
0.0
230
1.0
 70
    11
 71
     3
 72
    52
 73
    48
 74
     0
 42
0.0000000001
 43
0.0000000001
 40
0.0
 40
0.0
 40
0.0
 40
0.0
 40
0.0769230769230769
 40
0.0769230769230769
 40
0.0769230769230769
 40
0.0769230769230769
 40
0.1538461538461539
 40
0.1538461538461539
 40
0.1538461538461539
 40
0.1538461538461539
 40
0.2307692307692308
 40
0.2307692307692308
 40
0.2307692307692308
 40
0.2307692307692308
 40
0.3076923076923077
 40
0.3076923076923077
 40
0.3076923076923077
 40
0.3076923076923077
 40
0.3846153846153846
 40
0.3846153846153846
 40
0.3846153846153846
 40
0.3846153846153846
 40
0.4615384615384616
 40
0.4615384615384616
 40
0.4615384615384616
 40
0.4615384615384616
 40
0.5384615384615384
 40
0.5384615384615384
 40
0.5384615384615384
 40
0.5384615384615384
 40
0.6153846153846154
 40
0.6153846153846154
 40
0.6153846153846154
 40
0.6153846153846154
 40
0.6923076923076923
 40
0.6923076923076923
 40
0.6923076923076923
 40
0.6923076923076923
 40
0.7692307692307693
 40
0.7692307692307693
 40
0.7692307692307693
 40
0.7692307692307693
 40
0.8461538461538461
 40
0.8461538461538461
 40
0.8461538461538461
 40
0.8461538461538461
 40
1.0
 40
1.0
 40
1.0
 40
1.0
 10
-20.165
 20
9.4625
 30
0.0
 10
-20.165
 20
9.7612
 30
0.0
 10
-20.1344
 20
10.0017
 30
0.0
 10
-20.0727
 20
10.1833
 30
0.0
 10
-20.0727
 20
10.1833
 30
0.0
 10
-20.0115
 20
10.3656
 30
0.0
 10
-19.9198
 20
10.5061
 30
0.0
 10
-19.7987
 20
10.6049
 30
0.0
 10
-19.7987
 20
10.6049
 30
0.0
 10
-19.6776
 20
10.7037
 30
0.0
 10
-19.5253
 20
10.7531
 30
0.0
 10
-19.3418
 20
10.7531
 30
0.0
 10
-19.3418
 20
10.7531
 30
0.0
 10
-19.206
 20
10.7531
 30
0.0
 10
-19.0872
 20
10.7254
 30
0.0
 10
-18.9849
 20
10.6708
 30
0.0
 10
-18.9849
 20
10.6708
 30
0.0
 10
-18.8826
 20
10.6167
 30
0.0
 10
-18.7985
 20
10.5379
 30
0.0
 10
-18.7315
 20
10.435
 30
0.0
 10
-18.7315
 20
10.435
 30
0.0
 10
-18.6651
 20
10.3321
 30
0.0
 10
-18.6128
 20
10.2069
 30
0.0
 10
-18.5751
 20
10.0593
 30
0.0
 10
-18.5751
 20
10.0593
 30
0.0
 10
-18.5369
 20
9.9117
 30
0.0
 10
-18.5181
 20
9.713
 30
0.0
 10
-18.5181
 20
9.4625
 30
0.0
 10
-18.5181
 20
9.4625
 30
0.0
 10
-18.5181
 20
9.1662
 30
0.0
 10
-18.5487
 20
8.9275
 30
0.0
 10
-18.6092
 20
8.7452
 30
0.0
 10
-18.6092
 20
8.7452
 30
0.0
 10
-18.6704
 20
8.5629
 30
0.0
 10
-18.7615
 20
8.4224
 30
0.0
 10
-18.8826
 20
8.323
 30
0.0
 10
-18.8826
 20
8.323
 30
0.0
 10
-19.0037
 20
8.2237
 30
0.0
 10
-19.1566
 20
8.1743
 30
0.0
 10
-19.3418
 20
8.1743
 30
0.0
 10
-19.3418
 20
8.1743
 30
0.0
 10
-19.5852
 20
8.1743
 30
0.0
 10
-19.7763
 20
8.2613
 30
0.0
 10
-19.9151
 20
8.4359
 30
0.0
 10
-19.9151
 20
8.4359
 30
0.0
 10
-20.0815
 20
8.6458
 30
0.0
 10
-20.165
 20
8.9886
 30
0.0
 10
-20.165
 20
9.4625
 30
0.0
  0
SPLINE
  5
89
330
1F
100
AcDbEntity
  8
ILUSTRACE
 62
   250
100
AcDbSpline
210
0.0
220
0.0
230
1.0
 70
    11
 71
     3
 72
    36
 73
    32
 74
     0
 42
0.0000000001
 43
0.0000000001
 40
0.0
 40
0.0
 40
0.0
 40
0.0
 40
0.1111111111111111
 40
0.1111111111111111
 40
0.1111111111111111
 40
0.1111111111111111
 40
0.2222222222222222
 40
0.2222222222222222
 40
0.2222222222222222
 40
0.2222222222222222
 40
0.3333333333333333
 40
0.3333333333333333
 40
0.3333333333333333
 40
0.3333333333333333
 40
0.4444444444444444
 40
0.4444444444444444
 40
0.4444444444444444
 40
0.4444444444444444
 40
0.5555555555555556
 40
0.5555555555555556
 40
0.5555555555555556
 40
0.5555555555555556
 40
0.6666666666666666
 40
0.6666666666666666
 40
0.6666666666666666
 40
0.6666666666666666
 40
0.7777777777777778
 40
0.7777777777777778
 40
0.7777777777777778
 40
0.7777777777777778
 40
1.0
 40
1.0
 40
1.0
 40
1.0
 10
-19.8463
 20
9.4625
 30
0.0
 10
-19.8463
 20
9.048
 30
0.0
 10
-19.7975
 20
8.7722
 30
0.0
 10
-19.7005
 20
8.6346
 30
0.0
 10
-19.7005
 20
8.6346
 30
0.0
 10
-19.6035
 20
8.4977
 30
0.0
 10
-19.4841
 20
8.4289
 30
0.0
 10
-19.3418
 20
8.4289
 30
0.0
 10
-19.3418
 20
8.4289
 30
0.0
 10
-19.199
 20
8.4289
 30
0.0
 10
-19.0796
 20
8.4982
 30
0.0
 10
-18.9826
 20
8.6358
 30
0.0
 10
-18.9826
 20
8.6358
 30
0.0
 10
-18.8856
 20
8.7734
 30
0.0
 10
-18.8368
 20
9.0492
 30
0.0
 10
-18.8368
 20
9.4625
 30
0.0
 10
-18.8368
 20
9.4625
 30
0.0
 10
-18.8368
 20
9.8782
 30
0.0
 10
-18.8856
 20
10.1545
 30
0.0
 10
-18.9826
 20
10.2909
 30
0.0
 10
-18.9826
 20
10.2909
 30
0.0
 10
-19.0796
 20
10.4279
 30
0.0
 10
-19.2001
 20
10.4961
 30
0.0
 10
-19.3448
 20
10.4961
 30
0.0
 10
-19.3448
 20
10.4961
 30
0.0
 10
-19.4876
 20
10.4961
 30
0.0
 10
-19.6011
 20
10.4356
 30
0.0
 10
-19.6864
 20
10.315
 30
0.0
 10
-19.6864
 20
10.315
 30
0.0
 10
-19.7928
 20
10.1616
 30
0.0
 10
-19.8463
 20
9.877
 30
0.0
 10
-19.8463
 20
9.4625
 30
0.0
  0
SPLINE
  5
8A
330
1F
100
AcDbEntity
  8
ILUSTRACE
 62
   250
100
AcDbSpline
210
0.0
220
0.0
230
1.0
 70
    11
 71
     3
 72
    44
 73
    40
 74
     0
 42
0.0000000001
 43
0.0000000001
 40
0.0
 40
0.0
 40
0.0
 40
0.0
 40
0.0909090909090909
 40
0.0909090909090909
 40
0.0909090909090909
 40
0.0909090909090909
 40
0.1818181818181818
 40
0.1818181818181818
 40
0.1818181818181818
 40
0.1818181818181818
 40
0.2727272727272727
 40
0.2727272727272727
 40
0.2727272727272727
 40
0.2727272727272727
 40
0.3636363636363636
 40
0.3636363636363636
 40
0.3636363636363636
 40
0.3636363636363636
 40
0.4545454545454545
 40
0.4545454545454545
 40
0.4545454545454545
 40
0.4545454545454545
 40
0.5454545454545454
 40
0.5454545454545454
 40
0.5454545454545454
 40
0.5454545454545454
 40
0.6363636363636364
 40
0.6363636363636364
 40
0.6363636363636364
 40
0.6363636363636364
 40
0.7272727272727273
 40
0.7272727272727273
 40
0.7272727272727273
 40
0.7272727272727273
 40
0.8181818181818182
 40
0.8181818181818182
 40
0.8181818181818182
 40
0.8181818181818182
 40
1.0
 40
1.0
 40
1.0
 40
1.0
 10
-35.2231
 20
9.8344
 30
0.0
 10
-35.2231
 20
9.8344
 30
0.0
 10
-33.8195
 20
11.9105
 30
0.0
 10
-33.8195
 20
11.9105
 30
0.0
 10
-33.8195
 20
11.9105
 30
0.0
 10
-33.8195
 20
11.9105
 30
0.0
 10
-32.2697
 20
9.7759
 30
0.0
 10
-32.2697
 20
9.7759
 30
0.0
 10
-32.2697
 20
9.7759
 30
0.0
 10
-32.2697
 20
9.7759
 30
0.0
 10
-33.1762
 20
9.7759
 30
0.0
 10
-33.1762
 20
9.7759
 30
0.0
 10
-33.1762
 20
9.7759
 30
0.0
 10
-33.1762
 20
9.7759
 30
0.0
 10
-33.1762
 20
3.1967
 30
0.0
 10
-33.1762
 20
3.1967
 30
0.0
 10
-33.1762
 20
3.1967
 30
0.0
 10
-33.1762
 20
3.1967
 30
0.0
 10
-32.3282
 20
3.1967
 30
0.0
 10
-32.3282
 20
3.1967
 30
0.0
 10
-32.3282
 20
3.1967
 30
0.0
 10
-32.3282
 20
3.1967
 30
0.0
 10
-33.761
 20
1.1206
 30
0.0
 10
-33.761
 20
1.1206
 30
0.0
 10
-33.761
 20
1.1206
 30
0.0
 10
-33.761
 20
1.1206
 30
0.0
 10
-35.1938
 20
3.1967
 30
0.0
 10
-35.1938
 20
3.1967
 30
0.0
 10
-35.1938
 20
3.1967
 30
0.0
 10
-35.1938
 20
3.1967
 30
0.0
 10
-34.3459
 20
3.1967
 30
0.0
 10
-34.3459
 20
3.1967
 30
0.0
 10
-34.3459
 20
3.1967
 30
0.0
 10
-34.3459
 20
3.1967
 30
0.0
 10
-34.3459
 20
9.8344
 30
0.0
 10
-34.3459
 20
9.8344
 30
0.0
 10
-34.3459
 20
9.8344
 30
0.0
 10
-34.3459
 20
9.8344
 30
0.0
 10
-35.2231
 20
9.8344
 30
0.0
 10
-35.2231
 20
9.8344
 30
0.0
  0
SPLINE
  5
8B
330
1F
100
AcDbEntity
  8
ILUSTRACE
  6
NEW_LINE1
100
AcDbSpline
210
0.0
220
0.0
230
1.0
 70
    24
 71
     3
 72
     8
 73
     4
 74
     0
 42
0.0000000001
 43
0.0000000001
 40
0.0
 40
0.0
 40
0.0
 40
0.0
 40
1.0
 40
1.0
 40
1.0
 40
1.0
 10
-26.9478
 20
-29.0041
 30
0.0
 10
-26.9478
 20
-29.0041
 30
0.0
 10
-26.9478
 20
26.9518
 30
0.0
 10
-26.9478
 20
26.9518
 30
0.0
  0
SPLINE
  5
8D
330
1F
100
AcDbEntity
  8
ILUSTRACE
  6
NEW_LINE2
100
AcDbSpline
210
0.0
220
0.0
230
1.0
 70
    24
 71
     3
 72
     8
 73
     4
 74
     0
 42
0.0000000001
 43
0.0000000001
 40
0.0
 40
0.0
 40
0.0
 40
0.0
 40
1.0
 40
1.0
 40
1.0
 40
1.0
 10
-14.2428
 20
-28.6007
 30
0.0
 10
-14.2428
 20
-28.6007
 30
0.0
 10
-14.2428
 20
-7.9554
 30
0.0
 10
-14.2428
 20
-7.9554
 30
0.0
  0
SPLINE
  5
8F
330
1F
100
AcDbEntity
  8
ILUSTRACE
  6
NEW_LINE3
100
AcDbSpline
210
0.0
220
0.0
230
1.0
 70
    24
 71
     3
 72
     8
 73
     4
 74
     0
 42
0.0000000001
 43
0.0000000001
 40
0.0
 40
0.0
 40
0.0
 40
0.0
 40
1.0
 40
1.0
 40
1.0
 40
1.0
 10
-16.1477
 20
-9.4908
 30
0.0
 10
-16.1477
 20
-9.4908
 30
0.0
 10
42.3015
 20
-9.4908
 30
0.0
 10
42.3015
 20
-9.4908
 30
0.0
  0
SPLINE
  5
91
330
1F
100
AcDbEntity
  8
ILUSTRACE
100
AcDbSpline
210
0.0
220
0.0
230
1.0
 70
    11
 71
     3
 72
    52
 73
    48
 74
     0
 42
0.0000000001
 43
0.0000000001
 40
0.0
 40
0.0
 40
0.0
 40
0.0
 40
0.0769230769230769
 40
0.0769230769230769
 40
0.0769230769230769
 40
0.0769230769230769
 40
0.1538461538461539
 40
0.1538461538461539
 40
0.1538461538461539
 40
0.1538461538461539
 40
0.2307692307692308
 40
0.2307692307692308
 40
0.2307692307692308
 40
0.2307692307692308
 40
0.3076923076923077
 40
0.3076923076923077
 40
0.3076923076923077
 40
0.3076923076923077
 40
0.3846153846153846
 40
0.3846153846153846
 40
0.3846153846153846
 40
0.3846153846153846
 40
0.4615384615384616
 40
0.4615384615384616
 40
0.4615384615384616
 40
0.4615384615384616
 40
0.5384615384615384
 40
0.5384615384615384
 40
0.5384615384615384
 40
0.5384615384615384
 40
0.6153846153846154
 40
0.6153846153846154
 40
0.6153846153846154
 40
0.6153846153846154
 40
0.6923076923076923
 40
0.6923076923076923
 40
0.6923076923076923
 40
0.6923076923076923
 40
0.7692307692307693
 40
0.7692307692307693
 40
0.7692307692307693
 40
0.7692307692307693
 40
0.8461538461538461
 40
0.8461538461538461
 40
0.8461538461538461
 40
0.8461538461538461
 40
1.0
 40
1.0
 40
1.0
 40
1.0
 10
-14.1076
 20
-14.8214
 30
0.0
 10
-14.6432
 20
-14.8448
 30
0.0
 10
-15.1456
 20
-14.9549
 30
0.0
 10
-15.6143
 20
-15.2258
 30
0.0
 10
-15.6143
 20
-15.2258
 30
0.0
 10
-15.9179
 20
-15.4016
 30
0.0
 10
-16.1904
 20
-15.6306
 30
0.0
 10
-16.4159
 20
-15.8995
 30
0.0
 10
-16.4159
 20
-15.8995
 30
0.0
 10
-17.2213
 20
-16.861
 30
0.0
 10
-17.3434
 20
-18.2616
 30
0.0
 10
-16.7172
 20
-19.3479
 30
0.0
 10
-16.7172
 20
-19.3479
 30
0.0
 10
-16.5418
 20
-19.6519
 30
0.0
 10
-16.3133
 20
-19.9249
 30
0.0
 10
-16.0446
 20
-20.1509
 30
0.0
 10
-16.0446
 20
-20.1509
 30
0.0
 10
-15.7758
 20
-20.3764
 30
0.0
 10
-15.4678
 20
-20.5547
 30
0.0
 10
-15.1381
 20
-20.6749
 30
0.0
 10
-15.1381
 20
-20.6749
 30
0.0
 10
-14.8087
 20
-20.795
 30
0.0
 10
-14.4585
 20
-20.8569
 30
0.0
 10
-14.1076
 20
-20.8569
 30
0.0
 10
-14.1076
 20
-20.8569
 30
0.0
 10
-13.7569
 20
-20.8569
 30
0.0
 10
-13.4066
 20
-20.795
 30
0.0
 10
-13.0772
 20
-20.6749
 30
0.0
 10
-13.0772
 20
-20.6749
 30
0.0
 10
-12.7475
 20
-20.5547
 30
0.0
 10
-12.4398
 20
-20.3764
 30
0.0
 10
-12.1709
 20
-20.1509
 30
0.0
 10
-12.1709
 20
-20.1509
 30
0.0
 10
-11.9023
 20
-19.9249
 30
0.0
 10
-11.6738
 20
-19.6519
 30
0.0
 10
-11.4983
 20
-19.3479
 30
0.0
 10
-11.4983
 20
-19.3479
 30
0.0
 10
-10.872
 20
-18.2616
 30
0.0
 10
-10.994
 20
-16.861
 30
0.0
 10
-11.7995
 20
-15.8995
 30
0.0
 10
-11.7995
 20
-15.8995
 30
0.0
 10
-12.0251
 20
-15.6306
 30
0.0
 10
-12.2974
 20
-15.4016
 30
0.0
 10
-12.6013
 20
-15.2258
 30
0.0
 10
-12.6013
 20
-15.2258
 30
0.0
 10
-13.0697
 20
-14.9549
 30
0.0
 10
-13.5724
 20
-14.8448
 30
0.0
 10
-14.1076
 20
-14.8214
 30
0.0
  0
SPLINE
  5
92
330
1F
100
AcDbEntity
  8
ILUSTRACE
  6
NEW_LINE4
100
AcDbSpline
210
0.0
220
0.0
230
1.0
 70
    11
 71
     3
 72
    52
 73
    48
 74
     0
 42
0.0000000001
 43
0.0000000001
 40
0.0
 40
0.0
 40
0.0
 40
0.0
 40
0.0769230769230769
 40
0.0769230769230769
 40
0.0769230769230769
 40
0.0769230769230769
 40
0.1538461538461539
 40
0.1538461538461539
 40
0.1538461538461539
 40
0.1538461538461539
 40
0.2307692307692308
 40
0.2307692307692308
 40
0.2307692307692308
 40
0.2307692307692308
 40
0.3076923076923077
 40
0.3076923076923077
 40
0.3076923076923077
 40
0.3076923076923077
 40
0.3846153846153846
 40
0.3846153846153846
 40
0.3846153846153846
 40
0.3846153846153846
 40
0.4615384615384616
 40
0.4615384615384616
 40
0.4615384615384616
 40
0.4615384615384616
 40
0.5384615384615384
 40
0.5384615384615384
 40
0.5384615384615384
 40
0.5384615384615384
 40
0.6153846153846154
 40
0.6153846153846154
 40
0.6153846153846154
 40
0.6153846153846154
 40
0.6923076923076923
 40
0.6923076923076923
 40
0.6923076923076923
 40
0.6923076923076923
 40
0.7692307692307693
 40
0.7692307692307693
 40
0.7692307692307693
 40
0.7692307692307693
 40
0.8461538461538461
 40
0.8461538461538461
 40
0.8461538461538461
 40
0.8461538461538461
 40
1.0
 40
1.0
 40
1.0
 40
1.0
 10
-14.4084
 20
-12.3979
 30
0.0
 10
-14.944
 20
-12.4213
 30
0.0
 10
-15.4464
 20
-12.5314
 30
0.0
 10
-15.9151
 20
-12.8023
 30
0.0
 10
-15.9151
 20
-12.8023
 30
0.0
 10
-16.2187
 20
-12.9781
 30
0.0
 10
-16.4912
 20
-13.2071
 30
0.0
 10
-16.7167
 20
-13.476
 30
0.0
 10
-16.7167
 20
-13.476
 30
0.0
 10
-17.5221
 20
-14.4375
 30
0.0
 10
-17.6442
 20
-15.8381
 30
0.0
 10
-17.018
 20
-16.9244
 30
0.0
 10
-17.018
 20
-16.9244
 30
0.0
 10
-16.8426
 20
-17.2284
 30
0.0
 10
-16.6141
 20
-17.5014
 30
0.0
 10
-16.3454
 20
-17.7274
 30
0.0
 10
-16.3454
 20
-17.7274
 30
0.0
 10
-16.0766
 20
-17.9529
 30
0.0
 10
-15.7686
 20
-18.1312
 30
0.0
 10
-15.4389
 20
-18.2514
 30
0.0
 10
-15.4389
 20
-18.2514
 30
0.0
 10
-15.1095
 20
-18.3715
 30
0.0
 10
-14.7593
 20
-18.4334
 30
0.0
 10
-14.4084
 20
-18.4334
 30
0.0
 10
-14.4084
 20
-18.4334
 30
0.0
 10
-14.0577
 20
-18.4334
 30
0.0
 10
-13.7074
 20
-18.3715
 30
0.0
 10
-13.378
 20
-18.2514
 30
0.0
 10
-13.378
 20
-18.2514
 30
0.0
 10
-13.0483
 20
-18.1312
 30
0.0
 10
-12.7406
 20
-17.9529
 30
0.0
 10
-12.4717
 20
-17.7274
 30
0.0
 10
-12.4717
 20
-17.7274
 30
0.0
 10
-12.2031
 20
-17.5014
 30
0.0
 10
-11.9746
 20
-17.2284
 30
0.0
 10
-11.7991
 20
-16.9244
 30
0.0
 10
-11.7991
 20
-16.9244
 30
0.0
 10
-11.1728
 20
-15.8381
 30
0.0
 10
-11.2948
 20
-14.4375
 30
0.0
 10
-12.1003
 20
-13.476
 30
0.0
 10
-12.1003
 20
-13.476
 30
0.0
 10
-12.3259
 20
-13.2071
 30
0.0
 10
-12.5982
 20
-12.9781
 30
0.0
 10
-12.9021
 20
-12.8023
 30
0.0
 10
-12.9021
 20
-12.8023
 30
0.0
 10
-13.3705
 20
-12.5314
 30
0.0
 10
-13.8732
 20
-12.4213
 30
0.0
 10
-14.4084
 20
-12.3979
 30
0.0
  0
SPLINE
  5
94
330
1F
100
AcDbEntity
  8
ILUSTRACE
100
AcDbSpline
210
0.0
220
0.0
230
1.0
 70
    24
 71
     3
 72
     8
 73
     4
 74
     0
 42
0.0000000001
 43
0.0000000001
 40
0.0
 40
0.0
 40
0.0
 40
0.0
 40
1.0
 40
1.0
 40
1.0
 40
1.0
 10
-17.7622
 20
-23.2228
 30
0.0
 10
-17.7622
 20
-23.2228
 30
0.0
 10
-18.2844
 20
-23.2228
 30
0.0
 10
-18.2844
 20
-23.2228
 30
0.0
  0
SPLINE
  5
95
330
1F
100
AcDbEntity
  8
ILUSTRACE
100
AcDbSpline
210
0.0
220
0.0
230
1.0
 70
    24
 71
     3
 72
     8
 73
     4
 74
     0
 42
0.0000000001
 43
0.0000000001
 40
0.0
 40
0.0
 40
0.0
 40
0.0
 40
1.0
 40
1.0
 40
1.0
 40
1.0
 10
-9.0354
 20
-12.7811
 30
0.0
 10
-9.0354
 20
-12.7811
 30
0.0
 10
-10.3486
 20
-12.7811
 30
0.0
 10
-10.3486
 20
-12.7811
 30
0.0
  0
SPLINE
  5
96
330
1F
100
AcDbEntity
  8
ILUSTRACE
100
AcDbSpline
210
0.0
220
0.0
230
1.0
 70
    24
 71
     3
 72
     8
 73
     4
 74
     0
 42
0.0000000001
 43
0.0000000001
 40
0.0
 40
0.0
 40
0.0
 40
0.0
 40
1.0
 40
1.0
 40
1.0
 40
1.0
 10
-9.9311
 20
-23.2228
 30
0.0
 10
-9.9311
 20
-23.2228
 30
0.0
 10
-10.4532
 20
-23.2228
 30
0.0
 10
-10.4532
 20
-23.2228
 30
0.0
  0
SPLINE
  5
97
330
1F
100
AcDbEntity
  8
ILUSTRACE
100
AcDbSpline
210
0.0
220
0.0
230
1.0
 70
    24
 71
     3
 72
     8
 73
     4
 74
     0
 42
0.0000000001
 43
0.0000000001
 40
0.0
 40
0.0
 40
0.0
 40
0.0
 40
1.0
 40
1.0
 40
1.0
 40
1.0
 10
-9.9311
 20
-23.2228
 30
0.0
 10
-9.9311
 20
-23.2228
 30
0.0
 10
-9.9311
 20
-13.1988
 30
0.0
 10
-9.9311
 20
-13.1988
 30
0.0
  0
SPLINE
  5
98
330
1F
100
AcDbEntity
  8
ILUSTRACE
100
AcDbSpline
210
0.0
220
0.0
230
1.0
 70
    24
 71
     3
 72
     8
 73
     4
 74
     0
 42
0.0000000001
 43
0.0000000001
 40
0.0
 40
0.0
 40
0.0
 40
0.0
 40
1.0
 40
1.0
 40
1.0
 40
1.0
 10
-8.5923
 20
-13.1988
 30
0.0
 10
-8.5923
 20
-13.1988
 30
0.0
 10
-9.9311
 20
-13.1988
 30
0.0
 10
-9.9311
 20
-13.1988
 30
0.0
  0
SPLINE
  5
99
330
1F
100
AcDbEntity
  8
ILUSTRACE
100
AcDbSpline
210
0.0
220
0.0
230
1.0
 70
    24
 71
     3
 72
     8
 73
     4
 74
     0
 42
0.0000000001
 43
0.0000000001
 40
0.0
 40
0.0
 40
0.0
 40
0.0
 40
1.0
 40
1.0
 40
1.0
 40
1.0
 10
-10.3486
 20
-12.7811
 30
0.0
 10
-10.3486
 20
-12.7811
 30
0.0
 10
-11.8106
 20
-11.3194
 30
0.0
 10
-11.8106
 20
-11.3194
 30
0.0
  0
SPLINE
  5
9A
330
1F
100
AcDbEntity
  8
ILUSTRACE
100
AcDbSpline
210
0.0
220
0.0
230
1.0
 70
    24
 71
     3
 72
     8
 73
     4
 74
     0
 42
0.0000000001
 43
0.0000000001
 40
0.0
 40
0.0
 40
0.0
 40
0.0
 40
1.0
 40
1.0
 40
1.0
 40
1.0
 10
-10.3486
 20
-15.1998
 30
0.0
 10
-10.3486
 20
-15.1998
 30
0.0
 10
-10.3486
 20
-23.2228
 30
0.0
 10
-10.3486
 20
-23.2228
 30
0.0
  0
SPLINE
  5
9B
330
1F
100
AcDbEntity
  8
ILUSTRACE
100
AcDbSpline
210
0.0
220
0.0
230
1.0
 70
    24
 71
     3
 72
     8
 73
     4
 74
     0
 42
0.0000000001
 43
0.0000000001
 40
0.0
 40
0.0
 40
0.0
 40
0.0
 40
1.0
 40
1.0
 40
1.0
 40
1.0
 10
-17.8667
 20
-23.2228
 30
0.0
 10
-17.8667
 20
-23.2228
 30
0.0
 10
-17.8667
 20
-14.4519
 30
0.0
 10
-17.8667
 20
-14.4519
 30
0.0
  0
SPLINE
  5
9C
330
1F
100
AcDbEntity
  8
ILUSTRACE
100
AcDbSpline
210
0.0
220
0.0
230
1.0
 70
    24
 71
     3
 72
    12
 73
     8
 74
     0
 42
0.0000000001
 43
0.0000000001
 40
0.0
 40
0.0
 40
0.0
 40
0.0
 40
0.3333333333333333
 40
0.3333333333333333
 40
0.3333333333333333
 40
0.3333333333333333
 40
1.0
 40
1.0
 40
1.0
 40
1.0
 10
-18.2844
 20
-12.5382
 30
0.0
 10
-18.2844
 20
-12.5382
 30
0.0
 10
-18.2844
 20
-22.8051
 30
0.0
 10
-18.2844
 20
-22.8051
 30
0.0
 10
-18.2844
 20
-22.8051
 30
0.0
 10
-18.2844
 20
-22.8051
 30
0.0
 10
-18.2844
 20
-23.2228
 30
0.0
 10
-18.2844
 20
-23.2228
 30
0.0
  0
SPLINE
  5
9D
330
1F
100
AcDbEntity
  8
ILUSTRACE
100
AcDbSpline
210
0.0
220
0.0
230
1.0
 70
     8
 71
     3
 72
    24
 73
    20
 74
     0
 42
0.0000000001
 43
0.0000000001
 40
0.0
 40
0.0
 40
0.0
 40
0.0
 40
0.1666666666666667
 40
0.1666666666666667
 40
0.1666666666666667
 40
0.1666666666666667
 40
0.3333333333333333
 40
0.3333333333333333
 40
0.3333333333333333
 40
0.3333333333333333
 40
0.5
 40
0.5
 40
0.5
 40
0.5
 40
0.6666666666666666
 40
0.6666666666666666
 40
0.6666666666666666
 40
0.6666666666666666
 40
1.0
 40
1.0
 40
1.0
 40
1.0
 10
-17.8667
 20
-14.4519
 30
0.0
 10
-17.8667
 20
-14.4519
 30
0.0
 10
-17.5713
 20
-14.1565
 30
0.0
 10
-17.5713
 20
-14.1565
 30
0.0
 10
-17.5713
 20
-14.1565
 30
0.0
 10
-17.5713
 20
-14.1565
 30
0.0
 10
-17.5356
 20
-14.1205
 30
0.0
 10
-17.5356
 20
-14.1205
 30
0.0
 10
-17.5356
 20
-14.1205
 30
0.0
 10
-17.5356
 20
-14.1205
 30
0.0
 10
-17.2403
 20
-13.8253
 30
0.0
 10
-17.2403
 20
-13.8253
 30
0.0
 10
-17.2403
 20
-13.8253
 30
0.0
 10
-17.2403
 20
-13.8253
 30
0.0
 10
-17.2255
 20
-13.4078
 30
0.0
 10
-17.2255
 20
-13.4078
 30
0.0
 10
-17.2255
 20
-13.4078
 30
0.0
 10
-17.2255
 20
-13.4078
 30
0.0
 10
-17.1702
 20
-11.8231
 30
0.0
 10
-17.1702
 20
-11.8231
 30
0.0
  0
SPLINE
  5
9E
330
1F
100
AcDbEntity
  8
ILUSTRACE
100
AcDbSpline
210
0.0
220
0.0
230
1.0
 70
     8
 71
     3
 72
    28
 73
    24
 74
     0
 42
0.0000000001
 43
0.0000000001
 40
0.0
 40
0.0
 40
0.0
 40
0.0
 40
0.1428571428571428
 40
0.1428571428571428
 40
0.1428571428571428
 40
0.1428571428571428
 40
0.2857142857142857
 40
0.2857142857142857
 40
0.2857142857142857
 40
0.2857142857142857
 40
0.4285714285714285
 40
0.4285714285714285
 40
0.4285714285714285
 40
0.4285714285714285
 40
0.5714285714285714
 40
0.5714285714285714
 40
0.5714285714285714
 40
0.5714285714285714
 40
0.7142857142857143
 40
0.7142857142857143
 40
0.7142857142857143
 40
0.7142857142857143
 40
1.0
 40
1.0
 40
1.0
 40
1.0
 10
-10.3486
 20
-15.1998
 30
0.0
 10
-10.3486
 20
-15.1998
 30
0.0
 10
-10.644
 20
-14.9042
 30
0.0
 10
-10.644
 20
-14.9042
 30
0.0
 10
-10.644
 20
-14.9042
 30
0.0
 10
-10.644
 20
-14.9042
 30
0.0
 10
-11.4276
 20
-14.1205
 30
0.0
 10
-11.4276
 20
-14.1205
 30
0.0
 10
-11.4276
 20
-14.1205
 30
0.0
 10
-11.4276
 20
-14.1205
 30
0.0
 10
-11.7231
 20
-13.8253
 30
0.0
 10
-11.7231
 20
-13.8253
 30
0.0
 10
-11.7231
 20
-13.8253
 30
0.0
 10
-11.7231
 20
-13.8253
 30
0.0
 10
-11.7376
 20
-13.4078
 30
0.0
 10
-11.7376
 20
-13.4078
 30
0.0
 10
-11.7376
 20
-13.4078
 30
0.0
 10
-11.7376
 20
-13.4078
 30
0.0
 10
-11.7959
 20
-11.7367
 30
0.0
 10
-11.7959
 20
-11.7367
 30
0.0
 10
-11.7959
 20
-11.7367
 30
0.0
 10
-11.7959
 20
-11.7367
 30
0.0
 10
-11.8106
 20
-11.3194
 30
0.0
 10
-11.8106
 20
-11.3194
 30
0.0
  0
SPLINE
  5
9F
330
1F
100
AcDbEntity
  8
ILUSTRACE
100
AcDbSpline
210
0.0
220
0.0
230
1.0
 70
    24
 71
     3
 72
     8
 73
     4
 74
     0
 42
0.0000000001
 43
0.0000000001
 40
0.0
 40
0.0
 40
0.0
 40
0.0
 40
1.0
 40
1.0
 40
1.0
 40
1.0
 10
-10.3486
 20
-23.1588
 30
0.0
 10
-10.3486
 20
-23.1588
 30
0.0
 10
-9.9311
 20
-22.741
 30
0.0
 10
-9.9311
 20
-22.741
 30
0.0
  0
SPLINE
  5
A0
330
1F
100
AcDbEntity
  8
ILUSTRACE
100
AcDbSpline
210
0.0
220
0.0
230
1.0
 70
    24
 71
     3
 72
     8
 73
     4
 74
     0
 42
0.0000000001
 43
0.0000000001
 40
0.0
 40
0.0
 40
0.0
 40
0.0
 40
1.0
 40
1.0
 40
1.0
 40
1.0
 10
-10.3486
 20
-22.6217
 30
0.0
 10
-10.3486
 20
-22.6217
 30
0.0
 10
-9.9309
 20
-22.204
 30
0.0
 10
-9.9309
 20
-22.204
 30
0.0
  0
SPLINE
  5
A1
330
1F
100
AcDbEntity
  8
ILUSTRACE
100
AcDbSpline
210
0.0
220
0.0
230
1.0
 70
    24
 71
     3
 72
     8
 73
     4
 74
     0
 42
0.0000000001
 43
0.0000000001
 40
0.0
 40
0.0
 40
0.0
 40
0.0
 40
1.0
 40
1.0
 40
1.0
 40
1.0
 10
-10.3486
 20
-22.0845
 30
0.0
 10
-10.3486
 20
-22.0845
 30
0.0
 10
-9.9311
 20
-21.6668
 30
0.0
 10
-9.9311
 20
-21.6668
 30
0.0
  0
SPLINE
  5
A2
330
1F
100
AcDbEntity
  8
ILUSTRACE
100
AcDbSpline
210
0.0
220
0.0
230
1.0
 70
    24
 71
     3
 72
     8
 73
     4
 74
     0
 42
0.0000000001
 43
0.0000000001
 40
0.0
 40
0.0
 40
0.0
 40
0.0
 40
1.0
 40
1.0
 40
1.0
 40
1.0
 10
-10.3486
 20
-21.5472
 30
0.0
 10
-10.3486
 20
-21.5472
 30
0.0
 10
-9.9311
 20
-21.1299
 30
0.0
 10
-9.9311
 20
-21.1299
 30
0.0
  0
SPLINE
  5
A3
330
1F
100
AcDbEntity
  8
ILUSTRACE
100
AcDbSpline
210
0.0
220
0.0
230
1.0
 70
    24
 71
     3
 72
     8
 73
     4
 74
     0
 42
0.0000000001
 43
0.0000000001
 40
0.0
 40
0.0
 40
0.0
 40
0.0
 40
1.0
 40
1.0
 40
1.0
 40
1.0
 10
-10.3486
 20
-21.0104
 30
0.0
 10
-10.3486
 20
-21.0104
 30
0.0
 10
-9.9311
 20
-20.5927
 30
0.0
 10
-9.9311
 20
-20.5927
 30
0.0
  0
SPLINE
  5
A4
330
1F
100
AcDbEntity
  8
ILUSTRACE
100
AcDbSpline
210
0.0
220
0.0
230
1.0
 70
    24
 71
     3
 72
     8
 73
     4
 74
     0
 42
0.0000000001
 43
0.0000000001
 40
0.0
 40
0.0
 40
0.0
 40
0.0
 40
1.0
 40
1.0
 40
1.0
 40
1.0
 10
-10.3486
 20
-20.4731
 30
0.0
 10
-10.3486
 20
-20.4731
 30
0.0
 10
-9.9311
 20
-20.0556
 30
0.0
 10
-9.9311
 20
-20.0556
 30
0.0
  0
SPLINE
  5
A5
330
1F
100
AcDbEntity
  8
ILUSTRACE
100
AcDbSpline
210
0.0
220
0.0
230
1.0
 70
    24
 71
     3
 72
     8
 73
     4
 74
     0
 42
0.0000000001
 43
0.0000000001
 40
0.0
 40
0.0
 40
0.0
 40
0.0
 40
1.0
 40
1.0
 40
1.0
 40
1.0
 10
-10.3486
 20
-19.9359
 30
0.0
 10
-10.3486
 20
-19.9359
 30
0.0
 10
-9.9311
 20
-19.5183
 30
0.0
 10
-9.9311
 20
-19.5183
 30
0.0
  0
SPLINE
  5
A6
330
1F
100
AcDbEntity
  8
ILUSTRACE
100
AcDbSpline
210
0.0
220
0.0
230
1.0
 70
    24
 71
     3
 72
     8
 73
     4
 74
     0
 42
0.0000000001
 43
0.0000000001
 40
0.0
 40
0.0
 40
0.0
 40
0.0
 40
1.0
 40
1.0
 40
1.0
 40
1.0
 10
-10.3486
 20
-19.3988
 30
0.0
 10
-10.3486
 20
-19.3988
 30
0.0
 10
-9.9311
 20
-18.9811
 30
0.0
 10
-9.9311
 20
-18.9811
 30
0.0
  0
SPLINE
  5
A7
330
1F
100
AcDbEntity
  8
ILUSTRACE
100
AcDbSpline
210
0.0
220
0.0
230
1.0
 70
    24
 71
     3
 72
     8
 73
     4
 74
     0
 42
0.0000000001
 43
0.0000000001
 40
0.0
 40
0.0
 40
0.0
 40
0.0
 40
1.0
 40
1.0
 40
1.0
 40
1.0
 10
-10.3486
 20
-18.8618
 30
0.0
 10
-10.3486
 20
-18.8618
 30
0.0
 10
-9.9309
 20
-18.444
 30
0.0
 10
-9.9309
 20
-18.444
 30
0.0
  0
SPLINE
  5
A8
330
1F
100
AcDbEntity
  8
ILUSTRACE
100
AcDbSpline
210
0.0
220
0.0
230
1.0
 70
    24
 71
     3
 72
     8
 73
     4
 74
     0
 42
0.0000000001
 43
0.0000000001
 40
0.0
 40
0.0
 40
0.0
 40
0.0
 40
1.0
 40
1.0
 40
1.0
 40
1.0
 10
-10.3486
 20
-18.3247
 30
0.0
 10
-10.3486
 20
-18.3247
 30
0.0
 10
-9.9309
 20
-17.907
 30
0.0
 10
-9.9309
 20
-17.907
 30
0.0
  0
SPLINE
  5
A9
330
1F
100
AcDbEntity
  8
ILUSTRACE
100
AcDbSpline
210
0.0
220
0.0
230
1.0
 70
    24
 71
     3
 72
     8
 73
     4
 74
     0
 42
0.0000000001
 43
0.0000000001
 40
0.0
 40
0.0
 40
0.0
 40
0.0
 40
1.0
 40
1.0
 40
1.0
 40
1.0
 10
-10.3486
 20
-17.7874
 30
0.0
 10
-10.3486
 20
-17.7874
 30
0.0
 10
-9.9309
 20
-17.3697
 30
0.0
 10
-9.9309
 20
-17.3697
 30
0.0
  0
SPLINE
  5
AA
330
1F
100
AcDbEntity
  8
ILUSTRACE
100
AcDbSpline
210
0.0
220
0.0
230
1.0
 70
    24
 71
     3
 72
     8
 73
     4
 74
     0
 42
0.0000000001
 43
0.0000000001
 40
0.0
 40
0.0
 40
0.0
 40
0.0
 40
1.0
 40
1.0
 40
1.0
 40
1.0
 10
-10.3486
 20
-17.2503
 30
0.0
 10
-10.3486
 20
-17.2503
 30
0.0
 10
-9.9309
 20
-16.8326
 30
0.0
 10
-9.9309
 20
-16.8326
 30
0.0
  0
SPLINE
  5
AB
330
1F
100
AcDbEntity
  8
ILUSTRACE
100
AcDbSpline
210
0.0
220
0.0
230
1.0
 70
    24
 71
     3
 72
     8
 73
     4
 74
     0
 42
0.0000000001
 43
0.0000000001
 40
0.0
 40
0.0
 40
0.0
 40
0.0
 40
1.0
 40
1.0
 40
1.0
 40
1.0
 10
-10.3486
 20
-16.7133
 30
0.0
 10
-10.3486
 20
-16.7133
 30
0.0
 10
-9.9309
 20
-16.2956
 30
0.0
 10
-9.9309
 20
-16.2956
 30
0.0
  0
SPLINE
  5
AC
330
1F
100
AcDbEntity
  8
ILUSTRACE
100
AcDbSpline
210
0.0
220
0.0
230
1.0
 70
    24
 71
     3
 72
     8
 73
     4
 74
     0
 42
0.0000000001
 43
0.0000000001
 40
0.0
 40
0.0
 40
0.0
 40
0.0
 40
1.0
 40
1.0
 40
1.0
 40
1.0
 10
-10.3486
 20
-16.176
 30
0.0
 10
-10.3486
 20
-16.176
 30
0.0
 10
-9.9309
 20
-15.7585
 30
0.0
 10
-9.9309
 20
-15.7585
 30
0.0
  0
SPLINE
  5
AD
330
1F
100
AcDbEntity
  8
ILUSTRACE
100
AcDbSpline
210
0.0
220
0.0
230
1.0
 70
    24
 71
     3
 72
     8
 73
     4
 74
     0
 42
0.0000000001
 43
0.0000000001
 40
0.0
 40
0.0
 40
0.0
 40
0.0
 40
1.0
 40
1.0
 40
1.0
 40
1.0
 10
-10.3486
 20
-15.639
 30
0.0
 10
-10.3486
 20
-15.639
 30
0.0
 10
-9.9309
 20
-15.2215
 30
0.0
 10
-9.9309
 20
-15.2215
 30
0.0
  0
SPLINE
  5
AE
330
1F
100
AcDbEntity
  8
ILUSTRACE
100
AcDbSpline
210
0.0
220
0.0
230
1.0
 70
    24
 71
     3
 72
     8
 73
     4
 74
     0
 42
0.0000000001
 43
0.0000000001
 40
0.0
 40
0.0
 40
0.0
 40
0.0
 40
1.0
 40
1.0
 40
1.0
 40
1.0
 10
-18.2844
 20
-23.0376
 30
0.0
 10
-18.2844
 20
-23.0376
 30
0.0
 10
-17.8665
 20
-22.6198
 30
0.0
 10
-17.8665
 20
-22.6198
 30
0.0
  0
SPLINE
  5
AF
330
1F
100
AcDbEntity
  8
ILUSTRACE
100
AcDbSpline
210
0.0
220
0.0
230
1.0
 70
    24
 71
     3
 72
     8
 73
     4
 74
     0
 42
0.0000000001
 43
0.0000000001
 40
0.0
 40
0.0
 40
0.0
 40
0.0
 40
1.0
 40
1.0
 40
1.0
 40
1.0
 10
-10.3977
 20
-15.1508
 30
0.0
 10
-10.3977
 20
-15.1508
 30
0.0
 10
-9.9309
 20
-14.6842
 30
0.0
 10
-9.9309
 20
-14.6842
 30
0.0
  0
SPLINE
  5
B0
330
1F
100
AcDbEntity
  8
ILUSTRACE
100
AcDbSpline
210
0.0
220
0.0
230
1.0
 70
    24
 71
     3
 72
     8
 73
     4
 74
     0
 42
0.0000000001
 43
0.0000000001
 40
0.0
 40
0.0
 40
0.0
 40
0.0
 40
1.0
 40
1.0
 40
1.0
 40
1.0
 10
-18.2844
 20
-22.5005
 30
0.0
 10
-18.2844
 20
-22.5005
 30
0.0
 10
-17.8667
 20
-22.0828
 30
0.0
 10
-17.8667
 20
-22.0828
 30
0.0
  0
SPLINE
  5
B1
330
1F
100
AcDbEntity
  8
ILUSTRACE
100
AcDbSpline
210
0.0
220
0.0
230
1.0
 70
    24
 71
     3
 72
     8
 73
     4
 74
     0
 42
0.0000000001
 43
0.0000000001
 40
0.0
 40
0.0
 40
0.0
 40
0.0
 40
1.0
 40
1.0
 40
1.0
 40
1.0
 10
-10.6661
 20
-14.8821
 30
0.0
 10
-10.6661
 20
-14.8821
 30
0.0
 10
-9.9309
 20
-14.1472
 30
0.0
 10
-9.9309
 20
-14.1472
 30
0.0
  0
SPLINE
  5
B2
330
1F
100
AcDbEntity
  8
ILUSTRACE
100
AcDbSpline
210
0.0
220
0.0
230
1.0
 70
    24
 71
     3
 72
     8
 73
     4
 74
     0
 42
0.0000000001
 43
0.0000000001
 40
0.0
 40
0.0
 40
0.0
 40
0.0
 40
1.0
 40
1.0
 40
1.0
 40
1.0
 10
-18.2844
 20
-21.9634
 30
0.0
 10
-18.2844
 20
-21.9634
 30
0.0
 10
-17.8665
 20
-21.5457
 30
0.0
 10
-17.8665
 20
-21.5457
 30
0.0
  0
SPLINE
  5
B3
330
1F
100
AcDbEntity
  8
ILUSTRACE
100
AcDbSpline
210
0.0
220
0.0
230
1.0
 70
    24
 71
     3
 72
     8
 73
     4
 74
     0
 42
0.0000000001
 43
0.0000000001
 40
0.0
 40
0.0
 40
0.0
 40
0.0
 40
1.0
 40
1.0
 40
1.0
 40
1.0
 10
-10.9349
 20
-14.6137
 30
0.0
 10
-10.9349
 20
-14.6137
 30
0.0
 10
-9.9309
 20
-13.6099
 30
0.0
 10
-9.9309
 20
-13.6099
 30
0.0
  0
SPLINE
  5
B4
330
1F
100
AcDbEntity
  8
ILUSTRACE
100
AcDbSpline
210
0.0
220
0.0
230
1.0
 70
    24
 71
     3
 72
     8
 73
     4
 74
     0
 42
0.0000000001
 43
0.0000000001
 40
0.0
 40
0.0
 40
0.0
 40
0.0
 40
1.0
 40
1.0
 40
1.0
 40
1.0
 10
-18.2844
 20
-21.4261
 30
0.0
 10
-18.2844
 20
-21.4261
 30
0.0
 10
-17.8665
 20
-21.0085
 30
0.0
 10
-17.8665
 20
-21.0085
 30
0.0
  0
SPLINE
  5
B5
330
1F
100
AcDbEntity
  8
ILUSTRACE
100
AcDbSpline
210
0.0
220
0.0
230
1.0
 70
    24
 71
     3
 72
     8
 73
     4
 74
     0
 42
0.0000000001
 43
0.0000000001
 40
0.0
 40
0.0
 40
0.0
 40
0.0
 40
1.0
 40
1.0
 40
1.0
 40
1.0
 10
-11.2033
 20
-14.3451
 30
0.0
 10
-11.2033
 20
-14.3451
 30
0.0
 10
-9.6392
 20
-12.7811
 30
0.0
 10
-9.6392
 20
-12.7811
 30
0.0
  0
SPLINE
  5
B6
330
1F
100
AcDbEntity
  8
ILUSTRACE
100
AcDbSpline
210
0.0
220
0.0
230
1.0
 70
    24
 71
     3
 72
     8
 73
     4
 74
     0
 42
0.0000000001
 43
0.0000000001
 40
0.0
 40
0.0
 40
0.0
 40
0.0
 40
1.0
 40
1.0
 40
1.0
 40
1.0
 10
-18.2844
 20
-20.8889
 30
0.0
 10
-18.2844
 20
-20.8889
 30
0.0
 10
-17.8667
 20
-20.4716
 30
0.0
 10
-17.8667
 20
-20.4716
 30
0.0
  0
SPLINE
  5
B7
330
1F
100
AcDbEntity
  8
ILUSTRACE
100
AcDbSpline
210
0.0
220
0.0
230
1.0
 70
    24
 71
     3
 72
     8
 73
     4
 74
     0
 42
0.0000000001
 43
0.0000000001
 40
0.0
 40
0.0
 40
0.0
 40
0.0
 40
1.0
 40
1.0
 40
1.0
 40
1.0
 10
-11.4718
 20
-14.0767
 30
0.0
 10
-11.4718
 20
-14.0767
 30
0.0
 10
-10.1766
 20
-12.7811
 30
0.0
 10
-10.1766
 20
-12.7811
 30
0.0
  0
SPLINE
  5
B8
330
1F
100
AcDbEntity
  8
ILUSTRACE
100
AcDbSpline
210
0.0
220
0.0
230
1.0
 70
    24
 71
     3
 72
     8
 73
     4
 74
     0
 42
0.0000000001
 43
0.0000000001
 40
0.0
 40
0.0
 40
0.0
 40
0.0
 40
1.0
 40
1.0
 40
1.0
 40
1.0
 10
-18.2844
 20
-20.3519
 30
0.0
 10
-18.2844
 20
-20.3519
 30
0.0
 10
-17.8667
 20
-19.9344
 30
0.0
 10
-17.8667
 20
-19.9344
 30
0.0
  0
SPLINE
  5
B9
330
1F
100
AcDbEntity
  8
ILUSTRACE
100
AcDbSpline
210
0.0
220
0.0
230
1.0
 70
    24
 71
     3
 72
     8
 73
     4
 74
     0
 42
0.0000000001
 43
0.0000000001
 40
0.0
 40
0.0
 40
0.0
 40
0.0
 40
1.0
 40
1.0
 40
1.0
 40
1.0
 10
-11.7243
 20
-13.7919
 30
0.0
 10
-11.7243
 20
-13.7919
 30
0.0
 10
-10.5312
 20
-12.5987
 30
0.0
 10
-10.5312
 20
-12.5987
 30
0.0
  0
SPLINE
  5
BA
330
1F
100
AcDbEntity
  8
ILUSTRACE
100
AcDbSpline
210
0.0
220
0.0
230
1.0
 70
    24
 71
     3
 72
     8
 73
     4
 74
     0
 42
0.0000000001
 43
0.0000000001
 40
0.0
 40
0.0
 40
0.0
 40
0.0
 40
1.0
 40
1.0
 40
1.0
 40
1.0
 10
-18.2844
 20
-19.8148
 30
0.0
 10
-18.2844
 20
-19.8148
 30
0.0
 10
-17.8667
 20
-19.3971
 30
0.0
 10
-17.8667
 20
-19.3971
 30
0.0
  0
SPLINE
  5
BB
330
1F
100
AcDbEntity
  8
ILUSTRACE
100
AcDbSpline
210
0.0
220
0.0
230
1.0
 70
    24
 71
     3
 72
     8
 73
     4
 74
     0
 42
0.0000000001
 43
0.0000000001
 40
0.0
 40
0.0
 40
0.0
 40
0.0
 40
1.0
 40
1.0
 40
1.0
 40
1.0
 10
-11.7423
 20
-13.2728
 30
0.0
 10
-11.7423
 20
-13.2728
 30
0.0
 10
-10.7996
 20
-12.33
 30
0.0
 10
-10.7996
 20
-12.33
 30
0.0
  0
SPLINE
  5
BC
330
1F
100
AcDbEntity
  8
ILUSTRACE
100
AcDbSpline
210
0.0
220
0.0
230
1.0
 70
    24
 71
     3
 72
     8
 73
     4
 74
     0
 42
0.0000000001
 43
0.0000000001
 40
0.0
 40
0.0
 40
0.0
 40
0.0
 40
1.0
 40
1.0
 40
1.0
 40
1.0
 10
-18.2844
 20
-19.2778
 30
0.0
 10
-18.2844
 20
-19.2778
 30
0.0
 10
-17.8667
 20
-18.8599
 30
0.0
 10
-17.8667
 20
-18.8599
 30
0.0
  0
SPLINE
  5
BD
330
1F
100
AcDbEntity
  8
ILUSTRACE
100
AcDbSpline
210
0.0
220
0.0
230
1.0
 70
    24
 71
     3
 72
     8
 73
     4
 74
     0
 42
0.0000000001
 43
0.0000000001
 40
0.0
 40
0.0
 40
0.0
 40
0.0
 40
1.0
 40
1.0
 40
1.0
 40
1.0
 10
-11.7605
 20
-12.7538
 30
0.0
 10
-11.7605
 20
-12.7538
 30
0.0
 10
-11.0682
 20
-12.0615
 30
0.0
 10
-11.0682
 20
-12.0615
 30
0.0
  0
SPLINE
  5
BE
330
1F
100
AcDbEntity
  8
ILUSTRACE
100
AcDbSpline
210
0.0
220
0.0
230
1.0
 70
    24
 71
     3
 72
     8
 73
     4
 74
     0
 42
0.0000000001
 43
0.0000000001
 40
0.0
 40
0.0
 40
0.0
 40
0.0
 40
1.0
 40
1.0
 40
1.0
 40
1.0
 10
-18.2844
 20
-18.7406
 30
0.0
 10
-18.2844
 20
-18.7406
 30
0.0
 10
-17.8667
 20
-18.323
 30
0.0
 10
-17.8667
 20
-18.323
 30
0.0
  0
SPLINE
  5
BF
330
1F
100
AcDbEntity
  8
ILUSTRACE
100
AcDbSpline
210
0.0
220
0.0
230
1.0
 70
    24
 71
     3
 72
     8
 73
     4
 74
     0
 42
0.0000000001
 43
0.0000000001
 40
0.0
 40
0.0
 40
0.0
 40
0.0
 40
1.0
 40
1.0
 40
1.0
 40
1.0
 10
-11.7785
 20
-12.2349
 30
0.0
 10
-11.7785
 20
-12.2349
 30
0.0
 10
-11.3369
 20
-11.793
 30
0.0
 10
-11.3369
 20
-11.793
 30
0.0
  0
SPLINE
  5
C0
330
1F
100
AcDbEntity
  8
ILUSTRACE
100
AcDbSpline
210
0.0
220
0.0
230
1.0
 70
    24
 71
     3
 72
     8
 73
     4
 74
     0
 42
0.0000000001
 43
0.0000000001
 40
0.0
 40
0.0
 40
0.0
 40
0.0
 40
1.0
 40
1.0
 40
1.0
 40
1.0
 10
-18.2844
 20
-18.2035
 30
0.0
 10
-18.2844
 20
-18.2035
 30
0.0
 10
-17.8667
 20
-17.7858
 30
0.0
 10
-17.8667
 20
-17.7858
 30
0.0
  0
SPLINE
  5
C1
330
1F
100
AcDbEntity
  8
ILUSTRACE
100
AcDbSpline
210
0.0
220
0.0
230
1.0
 70
    24
 71
     3
 72
     8
 73
     4
 74
     0
 42
0.0000000001
 43
0.0000000001
 40
0.0
 40
0.0
 40
0.0
 40
0.0
 40
1.0
 40
1.0
 40
1.0
 40
1.0
 10
-11.7967
 20
-11.7159
 30
0.0
 10
-11.7967
 20
-11.7159
 30
0.0
 10
-11.6055
 20
-11.5245
 30
0.0
 10
-11.6055
 20
-11.5245
 30
0.0
  0
SPLINE
  5
C2
330
1F
100
AcDbEntity
  8
ILUSTRACE
100
AcDbSpline
210
0.0
220
0.0
230
1.0
 70
    24
 71
     3
 72
     8
 73
     4
 74
     0
 42
0.0000000001
 43
0.0000000001
 40
0.0
 40
0.0
 40
0.0
 40
0.0
 40
1.0
 40
1.0
 40
1.0
 40
1.0
 10
-18.2844
 20
-17.6662
 30
0.0
 10
-18.2844
 20
-17.6662
 30
0.0
 10
-17.8667
 20
-17.2487
 30
0.0
 10
-17.8667
 20
-17.2487
 30
0.0
  0
SPLINE
  5
C3
330
1F
100
AcDbEntity
  8
ILUSTRACE
100
AcDbSpline
210
0.0
220
0.0
230
1.0
 70
    24
 71
     3
 72
     8
 73
     4
 74
     0
 42
0.0000000001
 43
0.0000000001
 40
0.0
 40
0.0
 40
0.0
 40
0.0
 40
1.0
 40
1.0
 40
1.0
 40
1.0
 10
-18.2844
 20
-17.1292
 30
0.0
 10
-18.2844
 20
-17.1292
 30
0.0
 10
-17.8667
 20
-16.7116
 30
0.0
 10
-17.8667
 20
-16.7116
 30
0.0
  0
SPLINE
  5
C4
330
1F
100
AcDbEntity
  8
ILUSTRACE
100
AcDbSpline
210
0.0
220
0.0
230
1.0
 70
    24
 71
     3
 72
     8
 73
     4
 74
     0
 42
0.0000000001
 43
0.0000000001
 40
0.0
 40
0.0
 40
0.0
 40
0.0
 40
1.0
 40
1.0
 40
1.0
 40
1.0
 10
-18.2844
 20
-16.5919
 30
0.0
 10
-18.2844
 20
-16.5919
 30
0.0
 10
-17.8667
 20
-16.1743
 30
0.0
 10
-17.8667
 20
-16.1743
 30
0.0
  0
SPLINE
  5
C5
330
1F
100
AcDbEntity
  8
ILUSTRACE
100
AcDbSpline
210
0.0
220
0.0
230
1.0
 70
    24
 71
     3
 72
     8
 73
     4
 74
     0
 42
0.0000000001
 43
0.0000000001
 40
0.0
 40
0.0
 40
0.0
 40
0.0
 40
1.0
 40
1.0
 40
1.0
 40
1.0
 10
-18.2844
 20
-16.055
 30
0.0
 10
-18.2844
 20
-16.055
 30
0.0
 10
-17.8667
 20
-15.6374
 30
0.0
 10
-17.8667
 20
-15.6374
 30
0.0
  0
SPLINE
  5
C6
330
1F
100
AcDbEntity
  8
ILUSTRACE
100
AcDbSpline
210
0.0
220
0.0
230
1.0
 70
    24
 71
     3
 72
     8
 73
     4
 74
     0
 42
0.0000000001
 43
0.0000000001
 40
0.0
 40
0.0
 40
0.0
 40
0.0
 40
1.0
 40
1.0
 40
1.0
 40
1.0
 10
-18.2844
 20
-15.5178
 30
0.0
 10
-18.2844
 20
-15.5178
 30
0.0
 10
-17.8667
 20
-15.1001
 30
0.0
 10
-17.8667
 20
-15.1001
 30
0.0
  0
SPLINE
  5
C7
330
1F
100
AcDbEntity
  8
ILUSTRACE
100
AcDbSpline
210
0.0
220
0.0
230
1.0
 70
    24
 71
     3
 72
     8
 73
     4
 74
     0
 42
0.0000000001
 43
0.0000000001
 40
0.0
 40
0.0
 40
0.0
 40
0.0
 40
1.0
 40
1.0
 40
1.0
 40
1.0
 10
-18.2844
 20
-14.9808
 30
0.0
 10
-18.2844
 20
-14.9808
 30
0.0
 10
-17.8667
 20
-14.5632
 30
0.0
 10
-17.8667
 20
-14.5632
 30
0.0
  0
SPLINE
  5
C8
330
1F
100
AcDbEntity
  8
ILUSTRACE
100
AcDbSpline
210
0.0
220
0.0
230
1.0
 70
    24
 71
     3
 72
     8
 73
     4
 74
     0
 42
0.0000000001
 43
0.0000000001
 40
0.0
 40
0.0
 40
0.0
 40
0.0
 40
1.0
 40
1.0
 40
1.0
 40
1.0
 10
-18.2844
 20
-14.4435
 30
0.0
 10
-18.2844
 20
-14.4435
 30
0.0
 10
-17.2247
 20
-13.3841
 30
0.0
 10
-17.2247
 20
-13.3841
 30
0.0
  0
SPLINE
  5
C9
330
1F
100
AcDbEntity
  8
ILUSTRACE
100
AcDbSpline
210
0.0
220
0.0
230
1.0
 70
    24
 71
     3
 72
     8
 73
     4
 74
     0
 42
0.0000000001
 43
0.0000000001
 40
0.0
 40
0.0
 40
0.0
 40
0.0
 40
1.0
 40
1.0
 40
1.0
 40
1.0
 10
-18.2844
 20
-13.9064
 30
0.0
 10
-18.2844
 20
-13.9064
 30
0.0
 10
-17.2052
 20
-12.8274
 30
0.0
 10
-17.2052
 20
-12.8274
 30
0.0
  0
SPLINE
  5
CA
330
1F
100
AcDbEntity
  8
ILUSTRACE
100
AcDbSpline
210
0.0
220
0.0
230
1.0
 70
    24
 71
     3
 72
     8
 73
     4
 74
     0
 42
0.0000000001
 43
0.0000000001
 40
0.0
 40
0.0
 40
0.0
 40
0.0
 40
1.0
 40
1.0
 40
1.0
 40
1.0
 10
-18.2844
 20
-13.3694
 30
0.0
 10
-18.2844
 20
-13.3694
 30
0.0
 10
-17.186
 20
-12.2709
 30
0.0
 10
-17.186
 20
-12.2709
 30
0.0
  0
SPLINE
  5
CB
330
1F
100
AcDbEntity
  8
ILUSTRACE
100
AcDbSpline
210
0.0
220
0.0
230
1.0
 70
    24
 71
     3
 72
     8
 73
     4
 74
     0
 42
0.0000000001
 43
0.0000000001
 40
0.0
 40
0.0
 40
0.0
 40
0.0
 40
1.0
 40
1.0
 40
1.0
 40
1.0
 10
-18.2844
 20
-12.8321
 30
0.0
 10
-18.2844
 20
-12.8321
 30
0.0
 10
-17.4007
 20
-11.9483
 30
0.0
 10
-17.4007
 20
-11.9483
 30
0.0
  0
SPLINE
  5
CC
330
1F
100
AcDbEntity
  8
ILUSTRACE
100
AcDbSpline
210
0.0
220
0.0
230
1.0
 70
    24
 71
     3
 72
     8
 73
     4
 74
     0
 42
0.0000000001
 43
0.0000000001
 40
0.0
 40
0.0
 40
0.0
 40
0.0
 40
1.0
 40
1.0
 40
1.0
 40
1.0
 10
-9.5198
 20
-13.1988
 30
0.0
 10
-9.5198
 20
-13.1988
 30
0.0
 10
-9.1022
 20
-12.7811
 30
0.0
 10
-9.1022
 20
-12.7811
 30
0.0
  0
SPLINE
  5
CD
330
1F
100
AcDbEntity
  8
ILUSTRACE
100
AcDbSpline
210
0.0
220
0.0
230
1.0
 70
    24
 71
     3
 72
     8
 73
     4
 74
     0
 42
0.0000000001
 43
0.0000000001
 40
0.0
 40
0.0
 40
0.0
 40
0.0
 40
1.0
 40
1.0
 40
1.0
 40
1.0
 10
-8.9828
 20
-13.1988
 30
0.0
 10
-8.9828
 20
-13.1988
 30
0.0
 10
-8.7888
 20
-13.0048
 30
0.0
 10
-8.7888
 20
-13.0048
 30
0.0
  0
SPLINE
  5
CE
330
1F
100
AcDbEntity
  8
ILUSTRACE
100
AcDbSpline
210
0.0
220
0.0
230
1.0
 70
    24
 71
     3
 72
     8
 73
     4
 74
     0
 42
0.0000000001
 43
0.0000000001
 40
0.0
 40
0.0
 40
0.0
 40
0.0
 40
1.0
 40
1.0
 40
1.0
 40
1.0
 10
-19.7475
 20
-20.8114
 30
0.0
 10
-19.7475
 20
-20.8114
 30
0.0
 10
-19.1241
 20
-20.188
 30
0.0
 10
-19.1241
 20
-20.188
 30
0.0
  0
SPLINE
  5
CF
330
1F
100
AcDbEntity
  8
ILUSTRACE
100
AcDbSpline
210
0.0
220
0.0
230
1.0
 70
    24
 71
     3
 72
     8
 73
     4
 74
     0
 42
0.0000000001
 43
0.0000000001
 40
0.0
 40
0.0
 40
0.0
 40
0.0
 40
1.0
 40
1.0
 40
1.0
 40
1.0
 10
-19.8506
 20
-21.6664
 30
0.0
 10
-19.8506
 20
-21.6664
 30
0.0
 10
-18.5554
 20
-20.3714
 30
0.0
 10
-18.5554
 20
-20.3714
 30
0.0
  0
SPLINE
  5
D0
330
1F
100
AcDbEntity
  8
ILUSTRACE
100
AcDbSpline
210
0.0
220
0.0
230
1.0
 70
    24
 71
     3
 72
     8
 73
     4
 74
     0
 42
0.0000000001
 43
0.0000000001
 40
0.0
 40
0.0
 40
0.0
 40
0.0
 40
1.0
 40
1.0
 40
1.0
 40
1.0
 10
-19.837
 20
-22.4049
 30
0.0
 10
-19.837
 20
-22.4049
 30
0.0
 10
-19.0572
 20
-21.6247
 30
0.0
 10
-19.0572
 20
-21.6247
 30
0.0
  0
SPLINE
  5
D1
330
1F
100
AcDbEntity
  8
ILUSTRACE
100
AcDbSpline
210
0.0
220
0.0
230
1.0
 70
    24
 71
     3
 72
     8
 73
     4
 74
     0
 42
0.0000000001
 43
0.0000000001
 40
0.0
 40
0.0
 40
0.0
 40
0.0
 40
1.0
 40
1.0
 40
1.0
 40
1.0
 10
-19.5177
 20
-22.8374
 30
0.0
 10
-19.5177
 20
-22.8374
 30
0.0
 10
-19.0572
 20
-22.3769
 30
0.0
 10
-19.0572
 20
-22.3769
 30
0.0
  0
SPLINE
  5
D2
330
1F
100
AcDbEntity
  8
ILUSTRACE
100
AcDbSpline
210
0.0
220
0.0
230
1.0
 70
    24
 71
     3
 72
     8
 73
     4
 74
     0
 42
0.0000000001
 43
0.0000000001
 40
0.0
 40
0.0
 40
0.0
 40
0.0
 40
1.0
 40
1.0
 40
1.0
 40
1.0
 10
-9.8267
 20
-20.5079
 30
0.0
 10
-9.8267
 20
-20.5079
 30
0.0
 10
-9.9311
 20
-20.5079
 30
0.0
 10
-9.9311
 20
-20.5079
 30
0.0
  0
SPLINE
  5
D3
330
1F
100
AcDbEntity
  8
ILUSTRACE
100
AcDbSpline
210
0.0
220
0.0
230
1.0
 70
    24
 71
     3
 72
     8
 73
     4
 74
     0
 42
0.0000000001
 43
0.0000000001
 40
0.0
 40
0.0
 40
0.0
 40
0.0
 40
1.0
 40
1.0
 40
1.0
 40
1.0
 10
-18.2844
 20
-20.5079
 30
0.0
 10
-18.2844
 20
-20.5079
 30
0.0
 10
-18.3889
 20
-20.5079
 30
0.0
 10
-18.3889
 20
-20.5079
 30
0.0
  0
SPLINE
  5
D4
330
1F
100
AcDbEntity
  8
ILUSTRACE
100
AcDbSpline
210
0.0
220
0.0
230
1.0
 70
     8
 71
     3
 72
    12
 73
     8
 74
     0
 42
0.0000000001
 43
0.0000000001
 40
0.0
 40
0.0
 40
0.0
 40
0.0
 40
0.3333333333333333
 40
0.3333333333333333
 40
0.3333333333333333
 40
0.3333333333333333
 40
1.0
 40
1.0
 40
1.0
 40
1.0
 10
-9.5132
 20
-20.1945
 30
0.0
 10
-9.5132
 20
-20.1945
 30
0.0
 10
-9.8267
 20
-20.5079
 30
0.0
 10
-9.8267
 20
-20.5079
 30
0.0
 10
-9.8267
 20
-20.5079
 30
0.0
 10
-9.8267
 20
-20.5079
 30
0.0
 10
-9.8267
 20
-20.821
 30
0.0
 10
-9.8267
 20
-20.821
 30
0.0
  0
SPLINE
  5
D5
330
1F
100
AcDbEntity
  8
ILUSTRACE
100
AcDbSpline
210
0.0
220
0.0
230
1.0
 70
     8
 71
     3
 72
    12
 73
     8
 74
     0
 42
0.0000000001
 43
0.0000000001
 40
0.0
 40
0.0
 40
0.0
 40
0.0
 40
0.3333333333333333
 40
0.3333333333333333
 40
0.3333333333333333
 40
0.3333333333333333
 40
1.0
 40
1.0
 40
1.0
 40
1.0
 10
-18.702
 20
-20.1945
 30
0.0
 10
-18.702
 20
-20.1945
 30
0.0
 10
-18.3889
 20
-20.5079
 30
0.0
 10
-18.3889
 20
-20.5079
 30
0.0
 10
-18.3889
 20
-20.5079
 30
0.0
 10
-18.3889
 20
-20.5079
 30
0.0
 10
-18.3889
 20
-20.821
 30
0.0
 10
-18.3889
 20
-20.821
 30
0.0
  0
SPLINE
  5
D6
330
1F
100
AcDbEntity
  8
ILUSTRACE
100
AcDbSpline
210
0.0
220
0.0
230
1.0
 70
    24
 71
     3
 72
     8
 73
     4
 74
     0
 42
0.0000000001
 43
0.0000000001
 40
0.0
 40
0.0
 40
0.0
 40
0.0
 40
1.0
 40
1.0
 40
1.0
 40
1.0
 10
-9.8314
 20
-20.821
 30
0.0
 10
-9.8314
 20
-20.821
 30
0.0
 10
-9.2023
 20
-20.1922
 30
0.0
 10
-9.2023
 20
-20.1922
 30
0.0
  0
SPLINE
  5
D7
330
1F
100
AcDbEntity
  8
ILUSTRACE
100
AcDbSpline
210
0.0
220
0.0
230
1.0
 70
    24
 71
     3
 72
     8
 73
     4
 74
     0
 42
0.0000000001
 43
0.0000000001
 40
0.0
 40
0.0
 40
0.0
 40
0.0
 40
1.0
 40
1.0
 40
1.0
 40
1.0
 10
-9.4251
 20
-21.167
 30
0.0
 10
-9.4251
 20
-21.167
 30
0.0
 10
-8.5835
 20
-20.3252
 30
0.0
 10
-8.5835
 20
-20.3252
 30
0.0
  0
SPLINE
  5
D8
330
1F
100
AcDbEntity
  8
ILUSTRACE
100
AcDbSpline
210
0.0
220
0.0
230
1.0
 70
    24
 71
     3
 72
     8
 73
     4
 74
     0
 42
0.0000000001
 43
0.0000000001
 40
0.0
 40
0.0
 40
0.0
 40
0.0
 40
1.0
 40
1.0
 40
1.0
 40
1.0
 10
-9.1583
 20
-21.652
 30
0.0
 10
-9.1583
 20
-21.652
 30
0.0
 10
-8.4692
 20
-20.9628
 30
0.0
 10
-8.4692
 20
-20.9628
 30
0.0
  0
SPLINE
  5
D9
330
1F
100
AcDbEntity
  8
ILUSTRACE
100
AcDbSpline
210
0.0
220
0.0
230
1.0
 70
    24
 71
     3
 72
     8
 73
     4
 74
     0
 42
0.0000000001
 43
0.0000000001
 40
0.0
 40
0.0
 40
0.0
 40
0.0
 40
1.0
 40
1.0
 40
1.0
 40
1.0
 10
-9.1583
 20
-22.404
 30
0.0
 10
-9.1583
 20
-22.404
 30
0.0
 10
-8.3647
 20
-21.6106
 30
0.0
 10
-8.3647
 20
-21.6106
 30
0.0
  0
SPLINE
  5
DA
330
1F
100
AcDbEntity
  8
ILUSTRACE
100
AcDbSpline
210
0.0
220
0.0
230
1.0
 70
    24
 71
     3
 72
     8
 73
     4
 74
     0
 42
0.0000000001
 43
0.0000000001
 40
0.0
 40
0.0
 40
0.0
 40
0.0
 40
1.0
 40
1.0
 40
1.0
 40
1.0
 10
-9.1583
 20
-23.156
 30
0.0
 10
-9.1583
 20
-23.156
 30
0.0
 10
-8.3647
 20
-22.3626
 30
0.0
 10
-8.3647
 20
-22.3626
 30
0.0
  0
SPLINE
  5
DB
330
1F
100
AcDbEntity
  8
ILUSTRACE
100
AcDbSpline
210
0.0
220
0.0
230
1.0
 70
    24
 71
     3
 72
     8
 73
     4
 74
     0
 42
0.0000000001
 43
0.0000000001
 40
0.0
 40
0.0
 40
0.0
 40
0.0
 40
1.0
 40
1.0
 40
1.0
 40
1.0
 10
-9.1164
 20
-23.8658
 30
0.0
 10
-9.1164
 20
-23.8658
 30
0.0
 10
-8.3647
 20
-23.1145
 30
0.0
 10
-8.3647
 20
-23.1145
 30
0.0
  0
SPLINE
  5
DC
330
1F
100
AcDbEntity
  8
ILUSTRACE
100
AcDbSpline
210
0.0
220
0.0
230
1.0
 70
    24
 71
     3
 72
     8
 73
     4
 74
     0
 42
0.0000000001
 43
0.0000000001
 40
0.0
 40
0.0
 40
0.0
 40
0.0
 40
1.0
 40
1.0
 40
1.0
 40
1.0
 10
-19.8506
 20
-22.3853
 30
0.0
 10
-19.8506
 20
-22.3853
 30
0.0
 10
-19.8506
 20
-21.1344
 30
0.0
 10
-19.8506
 20
-21.1344
 30
0.0
  0
SPLINE
  5
DD
330
1F
100
AcDbEntity
  8
ILUSTRACE
100
AcDbSpline
210
0.0
220
0.0
230
1.0
 70
    24
 71
     3
 72
     8
 73
     4
 74
     0
 42
0.0000000001
 43
0.0000000001
 40
0.0
 40
0.0
 40
0.0
 40
0.0
 40
1.0
 40
1.0
 40
1.0
 40
1.0
 10
-19.8506
 20
-21.1344
 30
0.0
 10
-19.8506
 20
-21.1344
 30
0.0
 10
-19.746
 20
-21.1344
 30
0.0
 10
-19.746
 20
-21.1344
 30
0.0
  0
SPLINE
  5
DE
330
1F
100
AcDbEntity
  8
ILUSTRACE
100
AcDbSpline
210
0.0
220
0.0
230
1.0
 70
    24
 71
     3
 72
     8
 73
     4
 74
     0
 42
0.0000000001
 43
0.0000000001
 40
0.0
 40
0.0
 40
0.0
 40
0.0
 40
1.0
 40
1.0
 40
1.0
 40
1.0
 10
-9.1164
 20
-23.745
 30
0.0
 10
-9.1164
 20
-23.745
 30
0.0
 10
-9.4251
 20
-23.745
 30
0.0
 10
-9.4251
 20
-23.745
 30
0.0
  0
SPLINE
  5
DF
330
1F
100
AcDbEntity
  8
ILUSTRACE
100
AcDbSpline
210
0.0
220
0.0
230
1.0
 70
    24
 71
     3
 72
     8
 73
     4
 74
     0
 42
0.0000000001
 43
0.0000000001
 40
0.0
 40
0.0
 40
0.0
 40
0.0
 40
1.0
 40
1.0
 40
1.0
 40
1.0
 10
-8.3647
 20
-23.1531
 30
0.0
 10
-8.3647
 20
-23.1531
 30
0.0
 10
-8.3647
 20
-21.1344
 30
0.0
 10
-8.3647
 20
-21.1344
 30
0.0
  0
SPLINE
  5
E0
330
1F
100
AcDbEntity
  8
ILUSTRACE
100
AcDbSpline
210
0.0
220
0.0
230
1.0
 70
    24
 71
     3
 72
     8
 73
     4
 74
     0
 42
0.0000000001
 43
0.0000000001
 40
0.0
 40
0.0
 40
0.0
 40
0.0
 40
1.0
 40
1.0
 40
1.0
 40
1.0
 10
-8.3647
 20
-21.1344
 30
0.0
 10
-8.3647
 20
-21.1344
 30
0.0
 10
-8.4694
 20
-21.1344
 30
0.0
 10
-8.4694
 20
-21.1344
 30
0.0
  0
SPLINE
  5
E1
330
1F
100
AcDbEntity
  8
ILUSTRACE
100
AcDbSpline
210
0.0
220
0.0
230
1.0
 70
    24
 71
     3
 72
     8
 73
     4
 74
     0
 42
0.0000000001
 43
0.0000000001
 40
0.0
 40
0.0
 40
0.0
 40
0.0
 40
1.0
 40
1.0
 40
1.0
 40
1.0
 10
-19.746
 20
-21.1344
 30
0.0
 10
-19.746
 20
-21.1344
 30
0.0
 10
-19.746
 20
-20.8735
 30
0.0
 10
-19.746
 20
-20.8735
 30
0.0
  0
SPLINE
  5
E2
330
1F
100
AcDbEntity
  8
ILUSTRACE
100
AcDbSpline
210
0.0
220
0.0
230
1.0
 70
     8
 71
     3
 72
     8
 73
     4
 74
     0
 42
0.0000000001
 43
0.0000000001
 40
0.0
 40
0.0
 40
0.0
 40
0.0
 40
1.0
 40
1.0
 40
1.0
 40
1.0
 10
-19.746
 20
-20.8735
 30
0.0
 10
-19.746
 20
-20.8128
 30
0.0
 10
-19.7576
 20
-20.5997
 30
0.0
 10
-19.732
 20
-20.5041
 30
0.0
  0
SPLINE
  5
E3
330
1F
100
AcDbEntity
  8
ILUSTRACE
100
AcDbSpline
210
0.0
220
0.0
230
1.0
 70
    24
 71
     3
 72
     8
 73
     4
 74
     0
 42
0.0000000001
 43
0.0000000001
 40
0.0
 40
0.0
 40
0.0
 40
0.0
 40
1.0
 40
1.0
 40
1.0
 40
1.0
 10
-19.732
 20
-20.5041
 30
0.0
 10
-19.732
 20
-20.5041
 30
0.0
 10
-19.6902
 20
-20.4034
 30
0.0
 10
-19.6902
 20
-20.4034
 30
0.0
  0
SPLINE
  5
E4
330
1F
100
AcDbEntity
  8
ILUSTRACE
100
AcDbSpline
210
0.0
220
0.0
230
1.0
 70
     8
 71
     3
 72
     8
 73
     4
 74
     0
 42
0.0000000001
 43
0.0000000001
 40
0.0
 40
0.0
 40
0.0
 40
0.0
 40
1.0
 40
1.0
 40
1.0
 40
1.0
 10
-19.6902
 20
-20.4034
 30
0.0
 10
-19.53
 20
-20.1259
 30
0.0
 10
-19.1751
 20
-20.1945
 30
0.0
 10
-18.9109
 20
-20.1945
 30
0.0
  0
SPLINE
  5
E5
330
1F
100
AcDbEntity
  8
ILUSTRACE
100
AcDbSpline
210
0.0
220
0.0
230
1.0
 70
    24
 71
     3
 72
    12
 73
     8
 74
     0
 42
0.0000000001
 43
0.0000000001
 40
0.0
 40
0.0
 40
0.0
 40
0.0
 40
0.3333333333333333
 40
0.3333333333333333
 40
0.3333333333333333
 40
0.3333333333333333
 40
1.0
 40
1.0
 40
1.0
 40
1.0
 10
-18.9109
 20
-20.1945
 30
0.0
 10
-18.9109
 20
-20.1945
 30
0.0
 10
-18.702
 20
-20.1945
 30
0.0
 10
-18.702
 20
-20.1945
 30
0.0
 10
-18.702
 20
-20.1945
 30
0.0
 10
-18.702
 20
-20.1945
 30
0.0
 10
-18.2844
 20
-20.1945
 30
0.0
 10
-18.2844
 20
-20.1945
 30
0.0
  0
SPLINE
  5
E6
330
1F
100
AcDbEntity
  8
ILUSTRACE
100
AcDbSpline
210
0.0
220
0.0
230
1.0
 70
    24
 71
     3
 72
    12
 73
     8
 74
     0
 42
0.0000000001
 43
0.0000000001
 40
0.0
 40
0.0
 40
0.0
 40
0.0
 40
0.3333333333333333
 40
0.3333333333333333
 40
0.3333333333333333
 40
0.3333333333333333
 40
1.0
 40
1.0
 40
1.0
 40
1.0
 10
-9.9311
 20
-20.1945
 30
0.0
 10
-9.9311
 20
-20.1945
 30
0.0
 10
-9.5132
 20
-20.1945
 30
0.0
 10
-9.5132
 20
-20.1945
 30
0.0
 10
-9.5132
 20
-20.1945
 30
0.0
 10
-9.5132
 20
-20.1945
 30
0.0
 10
-9.3047
 20
-20.1945
 30
0.0
 10
-9.3047
 20
-20.1945
 30
0.0
  0
SPLINE
  5
E7
330
1F
100
AcDbEntity
  8
ILUSTRACE
100
AcDbSpline
210
0.0
220
0.0
230
1.0
 70
     8
 71
     3
 72
     8
 73
     4
 74
     0
 42
0.0000000001
 43
0.0000000001
 40
0.0
 40
0.0
 40
0.0
 40
0.0
 40
1.0
 40
1.0
 40
1.0
 40
1.0
 10
-9.3047
 20
-20.1945
 30
0.0
 10
-9.0404
 20
-20.1945
 30
0.0
 10
-8.6855
 20
-20.1259
 30
0.0
 10
-8.5252
 20
-20.4034
 30
0.0
  0
SPLINE
  5
E8
330
1F
100
AcDbEntity
  8
ILUSTRACE
100
AcDbSpline
210
0.0
220
0.0
230
1.0
 70
    24
 71
     3
 72
     8
 73
     4
 74
     0
 42
0.0000000001
 43
0.0000000001
 40
0.0
 40
0.0
 40
0.0
 40
0.0
 40
1.0
 40
1.0
 40
1.0
 40
1.0
 10
-8.5252
 20
-20.4034
 30
0.0
 10
-8.5252
 20
-20.4034
 30
0.0
 10
-8.4834
 20
-20.5041
 30
0.0
 10
-8.4834
 20
-20.5041
 30
0.0
  0
SPLINE
  5
E9
330
1F
100
AcDbEntity
  8
ILUSTRACE
100
AcDbSpline
210
0.0
220
0.0
230
1.0
 70
     8
 71
     3
 72
     8
 73
     4
 74
     0
 42
0.0000000001
 43
0.0000000001
 40
0.0
 40
0.0
 40
0.0
 40
0.0
 40
1.0
 40
1.0
 40
1.0
 40
1.0
 10
-8.4834
 20
-20.5041
 30
0.0
 10
-8.458
 20
-20.5997
 30
0.0
 10
-8.4694
 20
-20.8128
 30
0.0
 10
-8.4694
 20
-20.8735
 30
0.0
  0
SPLINE
  5
EA
330
1F
100
AcDbEntity
  8
ILUSTRACE
100
AcDbSpline
210
0.0
220
0.0
230
1.0
 70
    24
 71
     3
 72
     8
 73
     4
 74
     0
 42
0.0000000001
 43
0.0000000001
 40
0.0
 40
0.0
 40
0.0
 40
0.0
 40
1.0
 40
1.0
 40
1.0
 40
1.0
 10
-8.4694
 20
-20.8735
 30
0.0
 10
-8.4694
 20
-20.8735
 30
0.0
 10
-8.4694
 20
-21.1344
 30
0.0
 10
-8.4694
 20
-21.1344
 30
0.0
  0
SPLINE
  5
EB
330
1F
100
AcDbEntity
  8
ILUSTRACE
100
AcDbSpline
210
0.0
220
0.0
230
1.0
 70
    24
 71
     3
 72
     8
 73
     4
 74
     0
 42
0.0000000001
 43
0.0000000001
 40
0.0
 40
0.0
 40
0.0
 40
0.0
 40
1.0
 40
1.0
 40
1.0
 40
1.0
 10
-9.1583
 20
-21.512
 30
0.0
 10
-9.1583
 20
-21.512
 30
0.0
 10
-9.1583
 20
-23.9184
 30
0.0
 10
-9.1583
 20
-23.9184
 30
0.0
  0
SPLINE
  5
EC
330
1F
100
AcDbEntity
  8
ILUSTRACE
100
AcDbSpline
210
0.0
220
0.0
230
1.0
 70
    24
 71
     3
 72
     8
 73
     4
 74
     0
 42
0.0000000001
 43
0.0000000001
 40
0.0
 40
0.0
 40
0.0
 40
0.0
 40
1.0
 40
1.0
 40
1.0
 40
1.0
 10
-9.4507
 20
-21.3434
 30
0.0
 10
-9.4507
 20
-21.3434
 30
0.0
 10
-9.1583
 20
-21.512
 30
0.0
 10
-9.1583
 20
-21.512
 30
0.0
  0
SPLINE
  5
ED
330
1F
100
AcDbEntity
  8
ILUSTRACE
100
AcDbSpline
210
0.0
220
0.0
230
1.0
 70
    24
 71
     3
 72
     8
 73
     4
 74
     0
 42
0.0000000001
 43
0.0000000001
 40
0.0
 40
0.0
 40
0.0
 40
0.0
 40
1.0
 40
1.0
 40
1.0
 40
1.0
 10
-19.0572
 20
-23.3625
 30
0.0
 10
-19.0572
 20
-23.3625
 30
0.0
 10
-19.0572
 20
-21.512
 30
0.0
 10
-19.0572
 20
-21.512
 30
0.0
  0
SPLINE
  5
EE
330
1F
100
AcDbEntity
  8
ILUSTRACE
100
AcDbSpline
210
0.0
220
0.0
230
1.0
 70
    24
 71
     3
 72
     8
 73
     4
 74
     0
 42
0.0000000001
 43
0.0000000001
 40
0.0
 40
0.0
 40
0.0
 40
0.0
 40
1.0
 40
1.0
 40
1.0
 40
1.0
 10
-19.0572
 20
-21.512
 30
0.0
 10
-19.0572
 20
-21.512
 30
0.0
 10
-18.7648
 20
-21.3434
 30
0.0
 10
-18.7648
 20
-21.3434
 30
0.0
  0
SPLINE
  5
EF
330
1F
100
AcDbEntity
  8
ILUSTRACE
100
AcDbSpline
210
0.0
220
0.0
230
1.0
 70
     8
 71
     3
 72
    24
 73
    20
 74
     0
 42
0.0000000001
 43
0.0000000001
 40
0.0
 40
0.0
 40
0.0
 40
0.0
 40
0.1666666666666667
 40
0.1666666666666667
 40
0.1666666666666667
 40
0.1666666666666667
 40
0.3333333333333333
 40
0.3333333333333333
 40
0.3333333333333333
 40
0.3333333333333333
 40
0.5
 40
0.5
 40
0.5
 40
0.5
 40
0.6666666666666666
 40
0.6666666666666666
 40
0.6666666666666666
 40
0.6666666666666666
 40
1.0
 40
1.0
 40
1.0
 40
1.0
 10
-18.6498
 20
-21.1344
 30
0.0
 10
-18.6498
 20
-21.1344
 30
0.0
 10
-18.5623
 20
-21.5429
 30
0.0
 10
-18.5623
 20
-21.5429
 30
0.0
 10
-18.5623
 20
-21.5429
 30
0.0
 10
-18.5623
 20
-21.5429
 30
0.0
 10
-18.4241
 20
-22.1878
 30
0.0
 10
-18.4241
 20
-22.1878
 30
0.0
 10
-18.4241
 20
-22.1878
 30
0.0
 10
-18.4241
 20
-22.1878
 30
0.0
 10
-18.3364
 20
-22.5962
 30
0.0
 10
-18.3364
 20
-22.5962
 30
0.0
 10
-18.3364
 20
-22.5962
 30
0.0
 10
-18.3364
 20
-22.5962
 30
0.0
 10
-18.3364
 20
-23.0139
 30
0.0
 10
-18.3364
 20
-23.0139
 30
0.0
 10
-18.3364
 20
-23.0139
 30
0.0
 10
-18.3364
 20
-23.0139
 30
0.0
 10
-18.3364
 20
-24.0165
 30
0.0
 10
-18.3364
 20
-24.0165
 30
0.0
  0
SPLINE
  5
F0
330
1F
100
AcDbEntity
  8
ILUSTRACE
100
AcDbSpline
210
0.0
220
0.0
230
1.0
 70
     8
 71
     3
 72
    24
 73
    20
 74
     0
 42
0.0000000001
 43
0.0000000001
 40
0.0
 40
0.0
 40
0.0
 40
0.0
 40
0.1666666666666667
 40
0.1666666666666667
 40
0.1666666666666667
 40
0.1666666666666667
 40
0.3333333333333333
 40
0.3333333333333333
 40
0.3333333333333333
 40
0.3333333333333333
 40
0.5
 40
0.5
 40
0.5
 40
0.5
 40
0.6666666666666666
 40
0.6666666666666666
 40
0.6666666666666666
 40
0.6666666666666666
 40
1.0
 40
1.0
 40
1.0
 40
1.0
 10
-9.5656
 20
-21.1344
 30
0.0
 10
-9.5656
 20
-21.1344
 30
0.0
 10
-9.6531
 20
-21.5429
 30
0.0
 10
-9.6531
 20
-21.5429
 30
0.0
 10
-9.6531
 20
-21.5429
 30
0.0
 10
-9.6531
 20
-21.5429
 30
0.0
 10
-9.7914
 20
-22.1878
 30
0.0
 10
-9.7914
 20
-22.1878
 30
0.0
 10
-9.7914
 20
-22.1878
 30
0.0
 10
-9.7914
 20
-22.1878
 30
0.0
 10
-9.8788
 20
-22.5962
 30
0.0
 10
-9.8788
 20
-22.5962
 30
0.0
 10
-9.8788
 20
-22.5962
 30
0.0
 10
-9.8788
 20
-22.5962
 30
0.0
 10
-9.8788
 20
-23.0139
 30
0.0
 10
-9.8788
 20
-23.0139
 30
0.0
 10
-9.8788
 20
-23.0139
 30
0.0
 10
-9.8788
 20
-23.0139
 30
0.0
 10
-9.8788
 20
-24.4447
 30
0.0
 10
-9.8788
 20
-24.4447
 30
0.0
  0
SPLINE
  5
F1
330
1F
100
AcDbEntity
  8
ILUSTRACE
100
AcDbSpline
210
0.0
220
0.0
230
1.0
 70
    24
 71
     3
 72
     8
 73
     4
 74
     0
 42
0.0000000001
 43
0.0000000001
 40
0.0
 40
0.0
 40
0.0
 40
0.0
 40
1.0
 40
1.0
 40
1.0
 40
1.0
 10
-18.4349
 20
-22.1371
 30
0.0
 10
-18.4349
 20
-22.1371
 30
0.0
 10
-19.0572
 20
-21.5151
 30
0.0
 10
-19.0572
 20
-21.5151
 30
0.0
  0
SPLINE
  5
F2
330
1F
100
AcDbEntity
  8
ILUSTRACE
100
AcDbSpline
210
0.0
220
0.0
230
1.0
 70
    24
 71
     3
 72
     8
 73
     4
 74
     0
 42
0.0000000001
 43
0.0000000001
 40
0.0
 40
0.0
 40
0.0
 40
0.0
 40
1.0
 40
1.0
 40
1.0
 40
1.0
 10
-18.3364
 20
-22.6652
 30
0.0
 10
-18.3364
 20
-22.6652
 30
0.0
 10
-19.0572
 20
-21.9448
 30
0.0
 10
-19.0572
 20
-21.9448
 30
0.0
  0
SPLINE
  5
F3
330
1F
100
AcDbEntity
  8
ILUSTRACE
100
AcDbSpline
210
0.0
220
0.0
230
1.0
 70
    24
 71
     3
 72
     8
 73
     4
 74
     0
 42
0.0000000001
 43
0.0000000001
 40
0.0
 40
0.0
 40
0.0
 40
0.0
 40
1.0
 40
1.0
 40
1.0
 40
1.0
 10
-18.3364
 20
-23.0947
 30
0.0
 10
-18.3364
 20
-23.0947
 30
0.0
 10
-19.0572
 20
-22.3743
 30
0.0
 10
-19.0572
 20
-22.3743
 30
0.0
  0
SPLINE
  5
F4
330
1F
100
AcDbEntity
  8
ILUSTRACE
100
AcDbSpline
210
0.0
220
0.0
230
1.0
 70
    24
 71
     3
 72
     8
 73
     4
 74
     0
 42
0.0000000001
 43
0.0000000001
 40
0.0
 40
0.0
 40
0.0
 40
0.0
 40
1.0
 40
1.0
 40
1.0
 40
1.0
 10
-18.3364
 20
-23.5246
 30
0.0
 10
-18.3364
 20
-23.5246
 30
0.0
 10
-19.0572
 20
-22.8042
 30
0.0
 10
-19.0572
 20
-22.8042
 30
0.0
  0
SPLINE
  5
F5
330
1F
100
AcDbEntity
  8
ILUSTRACE
100
AcDbSpline
210
0.0
220
0.0
230
1.0
 70
    24
 71
     3
 72
     8
 73
     4
 74
     0
 42
0.0000000001
 43
0.0000000001
 40
0.0
 40
0.0
 40
0.0
 40
0.0
 40
1.0
 40
1.0
 40
1.0
 40
1.0
 10
-18.3364
 20
-23.9542
 30
0.0
 10
-18.3364
 20
-23.9542
 30
0.0
 10
-19.0572
 20
-23.2338
 30
0.0
 10
-19.0572
 20
-23.2338
 30
0.0
  0
SPLINE
  5
F6
330
1F
100
AcDbEntity
  8
ILUSTRACE
100
AcDbSpline
210
0.0
220
0.0
230
1.0
 70
    24
 71
     3
 72
     8
 73
     4
 74
     0
 42
0.0000000001
 43
0.0000000001
 40
0.0
 40
0.0
 40
0.0
 40
0.0
 40
1.0
 40
1.0
 40
1.0
 40
1.0
 10
-9.1583
 20
-21.8632
 30
0.0
 10
-9.1583
 20
-21.8632
 30
0.0
 10
-9.6318
 20
-21.3897
 30
0.0
 10
-9.6318
 20
-21.3897
 30
0.0
  0
SPLINE
  5
F7
330
1F
100
AcDbEntity
  8
ILUSTRACE
100
AcDbSpline
210
0.0
220
0.0
230
1.0
 70
    24
 71
     3
 72
     8
 73
     4
 74
     0
 42
0.0000000001
 43
0.0000000001
 40
0.0
 40
0.0
 40
0.0
 40
0.0
 40
1.0
 40
1.0
 40
1.0
 40
1.0
 10
-9.1583
 20
-22.2929
 30
0.0
 10
-9.1583
 20
-22.2929
 30
0.0
 10
-9.706
 20
-21.7453
 30
0.0
 10
-9.706
 20
-21.7453
 30
0.0
  0
SPLINE
  5
F8
330
1F
100
AcDbEntity
  8
ILUSTRACE
100
AcDbSpline
210
0.0
220
0.0
230
1.0
 70
    24
 71
     3
 72
     8
 73
     4
 74
     0
 42
0.0000000001
 43
0.0000000001
 40
0.0
 40
0.0
 40
0.0
 40
0.0
 40
1.0
 40
1.0
 40
1.0
 40
1.0
 10
-9.1583
 20
-22.7224
 30
0.0
 10
-9.1583
 20
-22.7224
 30
0.0
 10
-9.7739
 20
-22.107
 30
0.0
 10
-9.7739
 20
-22.107
 30
0.0
  0
SPLINE
  5
F9
330
1F
100
AcDbEntity
  8
ILUSTRACE
100
AcDbSpline
210
0.0
220
0.0
230
1.0
 70
    24
 71
     3
 72
     8
 73
     4
 74
     0
 42
0.0000000001
 43
0.0000000001
 40
0.0
 40
0.0
 40
0.0
 40
0.0
 40
1.0
 40
1.0
 40
1.0
 40
1.0
 10
-9.1565
 20
-23.1541
 30
0.0
 10
-9.1565
 20
-23.1541
 30
0.0
 10
-9.8499
 20
-22.4607
 30
0.0
 10
-9.8499
 20
-22.4607
 30
0.0
  0
SPLINE
  5
FA
330
1F
100
AcDbEntity
  8
ILUSTRACE
100
AcDbSpline
210
0.0
220
0.0
230
1.0
 70
    24
 71
     3
 72
     8
 73
     4
 74
     0
 42
0.0000000001
 43
0.0000000001
 40
0.0
 40
0.0
 40
0.0
 40
0.0
 40
1.0
 40
1.0
 40
1.0
 40
1.0
 10
-9.1583
 20
-23.582
 30
0.0
 10
-9.1583
 20
-23.582
 30
0.0
 10
-9.8788
 20
-22.8615
 30
0.0
 10
-9.8788
 20
-22.8615
 30
0.0
  0
SPLINE
  5
FB
330
1F
100
AcDbEntity
  8
ILUSTRACE
100
AcDbSpline
210
0.0
220
0.0
230
1.0
 70
    24
 71
     3
 72
     8
 73
     4
 74
     0
 42
0.0000000001
 43
0.0000000001
 40
0.0
 40
0.0
 40
0.0
 40
0.0
 40
1.0
 40
1.0
 40
1.0
 40
1.0
 10
-9.2096
 20
-23.9601
 30
0.0
 10
-9.2096
 20
-23.9601
 30
0.0
 10
-9.8788
 20
-23.2911
 30
0.0
 10
-9.8788
 20
-23.2911
 30
0.0
  0
SPLINE
  5
FC
330
1F
100
AcDbEntity
  8
ILUSTRACE
100
AcDbSpline
210
0.0
220
0.0
230
1.0
 70
    24
 71
     3
 72
     8
 73
     4
 74
     0
 42
0.0000000001
 43
0.0000000001
 40
0.0
 40
0.0
 40
0.0
 40
0.0
 40
1.0
 40
1.0
 40
1.0
 40
1.0
 10
-9.4509
 20
-24.1486
 30
0.0
 10
-9.4509
 20
-24.1486
 30
0.0
 10
-9.8788
 20
-23.7209
 30
0.0
 10
-9.8788
 20
-23.7209
 30
0.0
  0
SPLINE
  5
FD
330
1F
100
AcDbEntity
  8
ILUSTRACE
100
AcDbSpline
210
0.0
220
0.0
230
1.0
 70
    24
 71
     3
 72
     8
 73
     4
 74
     0
 42
0.0000000001
 43
0.0000000001
 40
0.0
 40
0.0
 40
0.0
 40
0.0
 40
1.0
 40
1.0
 40
1.0
 40
1.0
 10
-9.702
 20
-24.3275
 30
0.0
 10
-9.702
 20
-24.3275
 30
0.0
 10
-9.8788
 20
-24.1506
 30
0.0
 10
-9.8788
 20
-24.1506
 30
0.0
  0
SPLINE
  5
FE
330
1F
100
AcDbEntity
  8
ILUSTRACE
 62
   250
100
AcDbSpline
210
0.0
220
0.0
230
1.0
 70
    11
 71
     3
 72
    20
 73
    16
 74
     0
 42
0.0000000001
 43
0.0000000001
 40
0.0
 40
0.0
 40
0.0
 40
0.0
 40
0.2
 40
0.2
 40
0.2
 40
0.2
 40
0.4
 40
0.4
 40
0.4
 40
0.4
 40
0.6
 40
0.6
 40
0.6
 40
0.6
 40
1.0
 40
1.0
 40
1.0
 40
1.0
 10
-18.3365
 20
-22.0737
 30
0.0
 10
-18.3365
 20
-22.0737
 30
0.0
 10
-18.4415
 20
-22.0737
 30
0.0
 10
-18.4415
 20
-22.0737
 30
0.0
 10
-18.4415
 20
-22.0737
 30
0.0
 10
-18.4415
 20
-22.0737
 30
0.0
 10
-18.7021
 20
-20.821
 30
0.0
 10
-18.7021
 20
-20.821
 30
0.0
 10
-18.7021
 20
-20.821
 30
0.0
 10
-18.7021
 20
-20.821
 30
0.0
 10
-18.3365
 20
-20.821
 30
0.0
 10
-18.3365
 20
-20.821
 30
0.0
 10
-18.3365
 20
-20.821
 30
0.0
 10
-18.3365
 20
-20.821
 30
0.0
 10
-18.3365
 20
-22.0737
 30
0.0
 10
-18.3365
 20
-22.0737
 30
0.0
  0
SPLINE
  5
FF
330
1F
100
AcDbEntity
  8
ILUSTRACE
 62
   250
100
AcDbSpline
210
0.0
220
0.0
230
1.0
 70
    11
 71
     3
 72
    20
 73
    16
 74
     0
 42
0.0000000001
 43
0.0000000001
 40
0.0
 40
0.0
 40
0.0
 40
0.0
 40
0.2
 40
0.2
 40
0.2
 40
0.2
 40
0.4
 40
0.4
 40
0.4
 40
0.4
 40
0.6
 40
0.6
 40
0.6
 40
0.6
 40
1.0
 40
1.0
 40
1.0
 40
1.0
 10
-9.8788
 20
-22.0711
 30
0.0
 10
-9.8788
 20
-22.0711
 30
0.0
 10
-9.7738
 20
-22.0711
 30
0.0
 10
-9.7738
 20
-22.0711
 30
0.0
 10
-9.7738
 20
-22.0711
 30
0.0
 10
-9.7738
 20
-22.0711
 30
0.0
 10
-9.5132
 20
-20.8184
 30
0.0
 10
-9.5132
 20
-20.8184
 30
0.0
 10
-9.5132
 20
-20.8184
 30
0.0
 10
-9.5132
 20
-20.8184
 30
0.0
 10
-9.8788
 20
-20.8184
 30
0.0
 10
-9.8788
 20
-20.8184
 30
0.0
 10
-9.8788
 20
-20.8184
 30
0.0
 10
-9.8788
 20
-20.8184
 30
0.0
 10
-9.8788
 20
-22.0711
 30
0.0
 10
-9.8788
 20
-22.0711
 30
0.0
  0
SPLINE
  5
100
330
1F
100
AcDbEntity
  8
ILUSTRACE
100
AcDbSpline
210
0.0
220
0.0
230
1.0
 70
    24
 71
     3
 72
     8
 73
     4
 74
     0
 42
0.0000000001
 43
0.0000000001
 40
0.0
 40
0.0
 40
0.0
 40
0.0
 40
1.0
 40
1.0
 40
1.0
 40
1.0
 10
-11.3929
 20
-19.3593
 30
0.0
 10
-11.3929
 20
-19.3593
 30
0.0
 10
-11.5055
 20
-19.3593
 30
0.0
 10
-11.5055
 20
-19.3593
 30
0.0
  0
SPLINE
  5
101
330
1F
100
AcDbEntity
  8
ILUSTRACE
100
AcDbSpline
210
0.0
220
0.0
230
1.0
 70
    24
 71
     3
 72
     8
 73
     4
 74
     0
 42
0.0000000001
 43
0.0000000001
 40
0.0
 40
0.0
 40
0.0
 40
0.0
 40
1.0
 40
1.0
 40
1.0
 40
1.0
 10
-16.7099
 20
-19.3593
 30
0.0
 10
-16.7099
 20
-19.3593
 30
0.0
 10
-16.8227
 20
-19.3593
 30
0.0
 10
-16.8227
 20
-19.3593
 30
0.0
  0
SPLINE
  5
102
330
1F
100
AcDbEntity
  8
ILUSTRACE
100
AcDbSpline
210
0.0
220
0.0
230
1.0
 70
    24
 71
     3
 72
     8
 73
     4
 74
     0
 42
0.0000000001
 43
0.0000000001
 40
0.0
 40
0.0
 40
0.0
 40
0.0
 40
1.0
 40
1.0
 40
1.0
 40
1.0
 10
-16.3218
 20
-19.8815
 30
0.0
 10
-16.3218
 20
-19.8815
 30
0.0
 10
-16.6826
 20
-19.8815
 30
0.0
 10
-16.6826
 20
-19.8815
 30
0.0
  0
SPLINE
  5
103
330
1F
100
AcDbEntity
  8
ILUSTRACE
100
AcDbSpline
210
0.0
220
0.0
230
1.0
 70
    24
 71
     3
 72
     8
 73
     4
 74
     0
 42
0.0000000001
 43
0.0000000001
 40
0.0
 40
0.0
 40
0.0
 40
0.0
 40
1.0
 40
1.0
 40
1.0
 40
1.0
 10
-11.1841
 20
-21.183
 30
0.0
 10
-11.1841
 20
-21.183
 30
0.0
 10
-17.0312
 20
-21.183
 30
0.0
 10
-17.0312
 20
-21.183
 30
0.0
  0
SPLINE
  5
104
330
1F
100
AcDbEntity
  8
ILUSTRACE
100
AcDbSpline
210
0.0
220
0.0
230
1.0
 70
    24
 71
     3
 72
     8
 73
     4
 74
     0
 42
0.0000000001
 43
0.0000000001
 40
0.0
 40
0.0
 40
0.0
 40
0.0
 40
1.0
 40
1.0
 40
1.0
 40
1.0
 10
-11.5328
 20
-19.8815
 30
0.0
 10
-11.5328
 20
-19.8815
 30
0.0
 10
-11.8934
 20
-19.8815
 30
0.0
 10
-11.8934
 20
-19.8815
 30
0.0
  0
SPLINE
  5
105
330
1F
100
AcDbEntity
  8
ILUSTRACE
100
AcDbSpline
210
0.0
220
0.0
230
1.0
 70
    24
 71
     3
 72
     8
 73
     4
 74
     0
 42
0.0000000001
 43
0.0000000001
 40
0.0
 40
0.0
 40
0.0
 40
0.0
 40
1.0
 40
1.0
 40
1.0
 40
1.0
 10
-17.5533
 20
-24.058
 30
0.0
 10
-17.5533
 20
-24.058
 30
0.0
 10
-10.6621
 20
-24.058
 30
0.0
 10
-10.6621
 20
-24.058
 30
0.0
  0
SPLINE
  5
106
330
1F
100
AcDbEntity
  8
ILUSTRACE
 62
   250
100
AcDbSpline
210
0.0
220
0.0
230
1.0
 70
    11
 71
     3
 72
   128
 73
   124
 74
     0
 42
0.0000000001
 43
0.0000000001
 40
0.0
 40
0.0
 40
0.0
 40
0.0
 40
0.03125
 40
0.03125
 40
0.03125
 40
0.03125
 40
0.0625
 40
0.0625
 40
0.0625
 40
0.0625
 40
0.09375
 40
0.09375
 40
0.09375
 40
0.09375
 40
0.125
 40
0.125
 40
0.125
 40
0.125
 40
0.15625
 40
0.15625
 40
0.15625
 40
0.15625
 40
0.1875
 40
0.1875
 40
0.1875
 40
0.1875
 40
0.21875
 40
0.21875
 40
0.21875
 40
0.21875
 40
0.25
 40
0.25
 40
0.25
 40
0.25
 40
0.28125
 40
0.28125
 40
0.28125
 40
0.28125
 40
0.3125
 40
0.3125
 40
0.3125
 40
0.3125
 40
0.34375
 40
0.34375
 40
0.34375
 40
0.34375
 40
0.375
 40
0.375
 40
0.375
 40
0.375
 40
0.40625
 40
0.40625
 40
0.40625
 40
0.40625
 40
0.4375
 40
0.4375
 40
0.4375
 40
0.4375
 40
0.46875
 40
0.46875
 40
0.46875
 40
0.46875
 40
0.5
 40
0.5
 40
0.5
 40
0.5
 40
0.53125
 40
0.53125
 40
0.53125
 40
0.53125
 40
0.5625
 40
0.5625
 40
0.5625
 40
0.5625
 40
0.59375
 40
0.59375
 40
0.59375
 40
0.59375
 40
0.625
 40
0.625
 40
0.625
 40
0.625
 40
0.65625
 40
0.65625
 40
0.65625
 40
0.65625
 40
0.6875
 40
0.6875
 40
0.6875
 40
0.6875
 40
0.71875
 40
0.71875
 40
0.71875
 40
0.71875
 40
0.75
 40
0.75
 40
0.75
 40
0.75
 40
0.78125
 40
0.78125
 40
0.78125
 40
0.78125
 40
0.8125
 40
0.8125
 40
0.8125
 40
0.8125
 40
0.84375
 40
0.84375
 40
0.84375
 40
0.84375
 40
0.875
 40
0.875
 40
0.875
 40
0.875
 40
0.90625
 40
0.90625
 40
0.90625
 40
0.90625
 40
0.9375
 40
0.9375
 40
0.9375
 40
0.9375
 40
1.0
 40
1.0
 40
1.0
 40
1.0
 10
-17.7621
 20
-20.062
 30
0.0
 10
-17.7621
 20
-20.062
 30
0.0
 10
-17.4492
 20
-19.8817
 30
0.0
 10
-17.4492
 20
-19.8817
 30
0.0
 10
-17.4492
 20
-19.8817
 30
0.0
 10
-17.4492
 20
-19.8817
 30
0.0
 10
-16.9627
 20
-19.8817
 30
0.0
 10
-16.9627
 20
-19.8817
 30
0.0
 10
-16.9627
 20
-19.8817
 30
0.0
 10
-16.9627
 20
-19.8817
 30
0.0
 10
-16.8229
 20
-19.3595
 30
0.0
 10
-16.8229
 20
-19.3595
 30
0.0
 10
-16.8229
 20
-19.3595
 30
0.0
 10
-16.8229
 20
-19.3595
 30
0.0
 10
-16.8166
 20
-19.3595
 30
0.0
 10
-16.8166
 20
-19.3595
 30
0.0
 10
-16.8166
 20
-19.3595
 30
0.0
 10
-16.8166
 20
-19.3595
 30
0.0
 10
-16.6829
 20
-19.8831
 30
0.0
 10
-16.6829
 20
-19.8831
 30
0.0
 10
-16.6829
 20
-19.8831
 30
0.0
 10
-16.6829
 20
-19.8831
 30
0.0
 10
-16.7907
 20
-20.2848
 30
0.0
 10
-16.7907
 20
-20.2848
 30
0.0
 10
-16.7907
 20
-20.2848
 30
0.0
 10
-16.7907
 20
-20.2848
 30
0.0
 10
-16.9232
 20
-20.779
 30
0.0
 10
-16.9232
 20
-20.779
 30
0.0
 10
-16.9232
 20
-20.779
 30
0.0
 10
-16.9232
 20
-20.779
 30
0.0
 10
-17.0291
 20
-21.1831
 30
0.0
 10
-17.0291
 20
-21.1831
 30
0.0
 10
-17.0291
 20
-21.1831
 30
0.0
 10
-17.0291
 20
-21.1831
 30
0.0
 10
-17.0312
 20
-21.6
 30
0.0
 10
-17.0312
 20
-21.6
 30
0.0
 10
-17.0312
 20
-21.6
 30
0.0
 10
-17.0312
 20
-21.6
 30
0.0
 10
-17.0312
 20
-23.6407
 30
0.0
 10
-17.0312
 20
-23.6407
 30
0.0
 10
-17.0312
 20
-23.6407
 30
0.0
 10
-17.0312
 20
-23.6407
 30
0.0
 10
-17.0346
 20
-24.058
 30
0.0
 10
-17.0346
 20
-24.058
 30
0.0
 10
-17.0346
 20
-24.058
 30
0.0
 10
-17.0346
 20
-24.058
 30
0.0
 10
-17.5534
 20
-24.0583
 30
0.0
 10
-17.5534
 20
-24.0583
 30
0.0
 10
-17.5534
 20
-24.0583
 30
0.0
 10
-18.0697
 20
-24.0583
 30
0.0
 10
-17.8725
 20
-24.1567
 30
0.0
 10
-18.1797
 20
-23.8494
 30
0.0
 10
-18.1797
 20
-23.8494
 30
0.0
 10
-18.1797
 20
-23.8494
 30
0.0
 10
-18.1797
 20
-23.4318
 30
0.0
 10
-18.1797
 20
-23.4318
 30
0.0
 10
-18.1797
 20
-23.4318
 30
0.0
 10
-18.1797
 20
-23.4318
 30
0.0
 10
-17.7621
 20
-23.4318
 30
0.0
 10
-17.7621
 20
-23.4318
 30
0.0
 10
-17.7621
 20
-23.4318
 30
0.0
 10
-17.7621
 20
-23.4318
 30
0.0
 10
-17.7621
 20
-22.7457
 30
0.0
 10
-17.7621
 20
-22.7457
 30
0.0
 10
-17.7621
 20
-22.7457
 30
0.0
 10
-17.7621
 20
-22.7457
 30
0.0
 10
-17.8017
 20
-22.6924
 30
0.0
 10
-17.8017
 20
-22.6924
 30
0.0
 10
-17.8017
 20
-22.6924
 30
0.0
 10
-17.8168
 20
-22.6625
 30
0.0
 10
-17.825
 20
-22.6297
 30
0.0
 10
-17.825
 20
-22.5963
 30
0.0
 10
-17.825
 20
-22.5963
 30
0.0
 10
-17.825
 20
-22.5629
 30
0.0
 10
-17.8168
 20
-22.5297
 30
0.0
 10
-17.8017
 20
-22.5006
 30
0.0
 10
-17.8017
 20
-22.5006
 30
0.0
 10
-17.8017
 20
-22.5006
 30
0.0
 10
-17.7621
 20
-22.447
 30
0.0
 10
-17.7621
 20
-22.447
 30
0.0
 10
-17.7621
 20
-22.447
 30
0.0
 10
-17.7621
 20
-22.447
 30
0.0
 10
-17.7621
 20
-21.701
 30
0.0
 10
-17.7621
 20
-21.701
 30
0.0
 10
-17.7621
 20
-21.701
 30
0.0
 10
-17.7621
 20
-21.701
 30
0.0
 10
-17.8017
 20
-21.6483
 30
0.0
 10
-17.8017
 20
-21.6483
 30
0.0
 10
-17.8017
 20
-21.6483
 30
0.0
 10
-17.8168
 20
-21.6184
 30
0.0
 10
-17.825
 20
-21.5853
 30
0.0
 10
-17.825
 20
-21.5521
 30
0.0
 10
-17.825
 20
-21.5521
 30
0.0
 10
-17.825
 20
-21.5188
 30
0.0
 10
-17.8168
 20
-21.4856
 30
0.0
 10
-17.8017
 20
-21.456
 30
0.0
 10
-17.8017
 20
-21.456
 30
0.0
 10
-17.8017
 20
-21.456
 30
0.0
 10
-17.7621
 20
-21.4032
 30
0.0
 10
-17.7621
 20
-21.4032
 30
0.0
 10
-17.7621
 20
-21.4032
 30
0.0
 10
-17.7621
 20
-21.4032
 30
0.0
 10
-17.7621
 20
-20.6572
 30
0.0
 10
-17.7621
 20
-20.6572
 30
0.0
 10
-17.7621
 20
-20.6572
 30
0.0
 10
-17.7621
 20
-20.6572
 30
0.0
 10
-17.8017
 20
-20.6042
 30
0.0
 10
-17.8017
 20
-20.6042
 30
0.0
 10
-17.8017
 20
-20.6042
 30
0.0
 10
-17.8168
 20
-20.5741
 30
0.0
 10
-17.825
 20
-20.5413
 30
0.0
 10
-17.825
 20
-20.5081
 30
0.0
 10
-17.825
 20
-20.5081
 30
0.0
 10
-17.825
 20
-20.4747
 30
0.0
 10
-17.8168
 20
-20.4414
 30
0.0
 10
-17.8017
 20
-20.4121
 30
0.0
 10
-17.8017
 20
-20.4121
 30
0.0
 10
-17.8017
 20
-20.4121
 30
0.0
 10
-17.7621
 20
-20.3585
 30
0.0
 10
-17.7621
 20
-20.3585
 30
0.0
 10
-17.7621
 20
-20.3585
 30
0.0
 10
-17.7621
 20
-20.3585
 30
0.0
 10
-17.7621
 20
-20.062
 30
0.0
 10
-17.7621
 20
-20.062
 30
0.0
  0
SPLINE
  5
107
330
1F
100
AcDbEntity
  8
ILUSTRACE
 62
   250
100
AcDbSpline
210
0.0
220
0.0
230
1.0
 70
    11
 71
     3
 72
   128
 73
   124
 74
     0
 42
0.0000000001
 43
0.0000000001
 40
0.0
 40
0.0
 40
0.0
 40
0.0
 40
0.03125
 40
0.03125
 40
0.03125
 40
0.03125
 40
0.0625
 40
0.0625
 40
0.0625
 40
0.0625
 40
0.09375
 40
0.09375
 40
0.09375
 40
0.09375
 40
0.125
 40
0.125
 40
0.125
 40
0.125
 40
0.15625
 40
0.15625
 40
0.15625
 40
0.15625
 40
0.1875
 40
0.1875
 40
0.1875
 40
0.1875
 40
0.21875
 40
0.21875
 40
0.21875
 40
0.21875
 40
0.25
 40
0.25
 40
0.25
 40
0.25
 40
0.28125
 40
0.28125
 40
0.28125
 40
0.28125
 40
0.3125
 40
0.3125
 40
0.3125
 40
0.3125
 40
0.34375
 40
0.34375
 40
0.34375
 40
0.34375
 40
0.375
 40
0.375
 40
0.375
 40
0.375
 40
0.40625
 40
0.40625
 40
0.40625
 40
0.40625
 40
0.4375
 40
0.4375
 40
0.4375
 40
0.4375
 40
0.46875
 40
0.46875
 40
0.46875
 40
0.46875
 40
0.5
 40
0.5
 40
0.5
 40
0.5
 40
0.53125
 40
0.53125
 40
0.53125
 40
0.53125
 40
0.5625
 40
0.5625
 40
0.5625
 40
0.5625
 40
0.59375
 40
0.59375
 40
0.59375
 40
0.59375
 40
0.625
 40
0.625
 40
0.625
 40
0.625
 40
0.65625
 40
0.65625
 40
0.65625
 40
0.65625
 40
0.6875
 40
0.6875
 40
0.6875
 40
0.6875
 40
0.71875
 40
0.71875
 40
0.71875
 40
0.71875
 40
0.75
 40
0.75
 40
0.75
 40
0.75
 40
0.78125
 40
0.78125
 40
0.78125
 40
0.78125
 40
0.8125
 40
0.8125
 40
0.8125
 40
0.8125
 40
0.84375
 40
0.84375
 40
0.84375
 40
0.84375
 40
0.875
 40
0.875
 40
0.875
 40
0.875
 40
0.90625
 40
0.90625
 40
0.90625
 40
0.90625
 40
0.9375
 40
0.9375
 40
0.9375
 40
0.9375
 40
1.0
 40
1.0
 40
1.0
 40
1.0
 10
-10.4512
 20
-20.0662
 30
0.0
 10
-10.4512
 20
-20.0662
 30
0.0
 10
-10.7641
 20
-19.8859
 30
0.0
 10
-10.7641
 20
-19.8859
 30
0.0
 10
-10.7641
 20
-19.8859
 30
0.0
 10
-10.7641
 20
-19.8859
 30
0.0
 10
-11.2506
 20
-19.8859
 30
0.0
 10
-11.2506
 20
-19.8859
 30
0.0
 10
-11.2506
 20
-19.8859
 30
0.0
 10
-11.2506
 20
-19.8859
 30
0.0
 10
-11.3904
 20
-19.3637
 30
0.0
 10
-11.3904
 20
-19.3637
 30
0.0
 10
-11.3904
 20
-19.3637
 30
0.0
 10
-11.3904
 20
-19.3637
 30
0.0
 10
-11.3967
 20
-19.3637
 30
0.0
 10
-11.3967
 20
-19.3637
 30
0.0
 10
-11.3967
 20
-19.3637
 30
0.0
 10
-11.3967
 20
-19.3637
 30
0.0
 10
-11.5304
 20
-19.8873
 30
0.0
 10
-11.5304
 20
-19.8873
 30
0.0
 10
-11.5304
 20
-19.8873
 30
0.0
 10
-11.5304
 20
-19.8873
 30
0.0
 10
-11.4226
 20
-20.289
 30
0.0
 10
-11.4226
 20
-20.289
 30
0.0
 10
-11.4226
 20
-20.289
 30
0.0
 10
-11.4226
 20
-20.289
 30
0.0
 10
-11.2901
 20
-20.7832
 30
0.0
 10
-11.2901
 20
-20.7832
 30
0.0
 10
-11.2901
 20
-20.7832
 30
0.0
 10
-11.2901
 20
-20.7832
 30
0.0
 10
-11.1842
 20
-21.1873
 30
0.0
 10
-11.1842
 20
-21.1873
 30
0.0
 10
-11.1842
 20
-21.1873
 30
0.0
 10
-11.1842
 20
-21.1873
 30
0.0
 10
-11.1821
 20
-21.6042
 30
0.0
 10
-11.1821
 20
-21.6042
 30
0.0
 10
-11.1821
 20
-21.6042
 30
0.0
 10
-11.1821
 20
-21.6042
 30
0.0
 10
-11.1821
 20
-23.6449
 30
0.0
 10
-11.1821
 20
-23.6449
 30
0.0
 10
-11.1821
 20
-23.6449
 30
0.0
 10
-11.1821
 20
-23.6449
 30
0.0
 10
-11.1787
 20
-24.0622
 30
0.0
 10
-11.1787
 20
-24.0622
 30
0.0
 10
-11.1787
 20
-24.0622
 30
0.0
 10
-11.1787
 20
-24.0622
 30
0.0
 10
-10.6599
 20
-24.0625
 30
0.0
 10
-10.6599
 20
-24.0625
 30
0.0
 10
-10.6599
 20
-24.0625
 30
0.0
 10
-10.1436
 20
-24.0625
 30
0.0
 10
-10.3408
 20
-24.1609
 30
0.0
 10
-10.0336
 20
-23.8536
 30
0.0
 10
-10.0336
 20
-23.8536
 30
0.0
 10
-10.0336
 20
-23.8536
 30
0.0
 10
-10.0336
 20
-23.436
 30
0.0
 10
-10.0336
 20
-23.436
 30
0.0
 10
-10.0336
 20
-23.436
 30
0.0
 10
-10.0336
 20
-23.436
 30
0.0
 10
-10.4512
 20
-23.436
 30
0.0
 10
-10.4512
 20
-23.436
 30
0.0
 10
-10.4512
 20
-23.436
 30
0.0
 10
-10.4512
 20
-23.436
 30
0.0
 10
-10.4512
 20
-22.7499
 30
0.0
 10
-10.4512
 20
-22.7499
 30
0.0
 10
-10.4512
 20
-22.7499
 30
0.0
 10
-10.4512
 20
-22.7499
 30
0.0
 10
-10.4116
 20
-22.6966
 30
0.0
 10
-10.4116
 20
-22.6966
 30
0.0
 10
-10.4116
 20
-22.6966
 30
0.0
 10
-10.3965
 20
-22.6667
 30
0.0
 10
-10.3883
 20
-22.6339
 30
0.0
 10
-10.3883
 20
-22.6005
 30
0.0
 10
-10.3883
 20
-22.6005
 30
0.0
 10
-10.3883
 20
-22.5671
 30
0.0
 10
-10.3965
 20
-22.5339
 30
0.0
 10
-10.4116
 20
-22.5048
 30
0.0
 10
-10.4116
 20
-22.5048
 30
0.0
 10
-10.4116
 20
-22.5048
 30
0.0
 10
-10.4512
 20
-22.4512
 30
0.0
 10
-10.4512
 20
-22.4512
 30
0.0
 10
-10.4512
 20
-22.4512
 30
0.0
 10
-10.4512
 20
-22.4512
 30
0.0
 10
-10.4512
 20
-21.7052
 30
0.0
 10
-10.4512
 20
-21.7052
 30
0.0
 10
-10.4512
 20
-21.7052
 30
0.0
 10
-10.4512
 20
-21.7052
 30
0.0
 10
-10.4116
 20
-21.6525
 30
0.0
 10
-10.4116
 20
-21.6525
 30
0.0
 10
-10.4116
 20
-21.6525
 30
0.0
 10
-10.3965
 20
-21.6226
 30
0.0
 10
-10.3883
 20
-21.5895
 30
0.0
 10
-10.3883
 20
-21.5563
 30
0.0
 10
-10.3883
 20
-21.5563
 30
0.0
 10
-10.3883
 20
-21.523
 30
0.0
 10
-10.3965
 20
-21.4898
 30
0.0
 10
-10.4116
 20
-21.4602
 30
0.0
 10
-10.4116
 20
-21.4602
 30
0.0
 10
-10.4116
 20
-21.4602
 30
0.0
 10
-10.4512
 20
-21.4074
 30
0.0
 10
-10.4512
 20
-21.4074
 30
0.0
 10
-10.4512
 20
-21.4074
 30
0.0
 10
-10.4512
 20
-21.4074
 30
0.0
 10
-10.4512
 20
-20.6614
 30
0.0
 10
-10.4512
 20
-20.6614
 30
0.0
 10
-10.4512
 20
-20.6614
 30
0.0
 10
-10.4512
 20
-20.6614
 30
0.0
 10
-10.4116
 20
-20.6084
 30
0.0
 10
-10.4116
 20
-20.6084
 30
0.0
 10
-10.4116
 20
-20.6084
 30
0.0
 10
-10.3965
 20
-20.5783
 30
0.0
 10
-10.3883
 20
-20.5455
 30
0.0
 10
-10.3883
 20
-20.5123
 30
0.0
 10
-10.3883
 20
-20.5123
 30
0.0
 10
-10.3883
 20
-20.4789
 30
0.0
 10
-10.3965
 20
-20.4456
 30
0.0
 10
-10.4116
 20
-20.4163
 30
0.0
 10
-10.4116
 20
-20.4163
 30
0.0
 10
-10.4116
 20
-20.4163
 30
0.0
 10
-10.4512
 20
-20.3627
 30
0.0
 10
-10.4512
 20
-20.3627
 30
0.0
 10
-10.4512
 20
-20.3627
 30
0.0
 10
-10.4512
 20
-20.3627
 30
0.0
 10
-10.4512
 20
-20.0662
 30
0.0
 10
-10.4512
 20
-20.0662
 30
0.0
  0
SPLINE
  5
108
330
1F
100
AcDbEntity
  8
ILUSTRACE
100
AcDbSpline
210
0.0
220
0.0
230
1.0
 70
     8
 71
     3
 72
    16
 73
    12
 74
     0
 42
0.0000000001
 43
0.0000000001
 40
0.0
 40
0.0
 40
0.0
 40
0.0
 40
0.25
 40
0.25
 40
0.25
 40
0.25
 40
0.5
 40
0.5
 40
0.5
 40
0.5
 40
1.0
 40
1.0
 40
1.0
 40
1.0
 10
-19.9465
 20
-22.3544
 30
0.0
 10
-18.2212
 20
-25.134
 30
0.0
 10
-15.8438
 20
-24.7954
 30
0.0
 10
-12.6956
 20
-24.6749
 30
0.0
 10
-12.6956
 20
-24.6749
 30
0.0
 10
-12.6956
 20
-24.6749
 30
0.0
 10
-9.8619
 20
-24.5664
 30
0.0
 10
-9.8619
 20
-24.5664
 30
0.0
 10
-9.8619
 20
-24.5664
 30
0.0
 10
-9.662
 20
-24.5587
 30
0.0
 10
-8.32
 20
-23.331
 30
0.0
 10
-8.32
 20
-23.1807
 30
0.0
  0
SPLINE
  5
109
330
1F
100
AcDbEntity
  8
ILUSTRACE
 62
   250
100
AcDbSpline
210
0.0
220
0.0
230
1.0
 70
     8
 71
     3
 72
    12
 73
     8
 74
     0
 42
0.0000000001
 43
0.0000000001
 40
0.0
 40
0.0
 40
0.0
 40
0.0
 40
0.3333333333333333
 40
0.3333333333333333
 40
0.3333333333333333
 40
0.3333333333333333
 40
1.0
 40
1.0
 40
1.0
 40
1.0
 10
-18.2963
 20
-12.4378
 30
0.0
 10
-16.5211
 20
-11.2609
 30
0.0
 10
-14.8959
 20
-11.0438
 30
0.0
 10
-12.6457
 20
-11.0438
 30
0.0
 10
-12.6457
 20
-11.0438
 30
0.0
 10
-11.5955
 20
-11.0438
 30
0.0
 10
-8.5202
 20
-12.2876
 30
0.0
 10
-8.5202
 20
-13.164
 30
0.0
  0
SPLINE
  5
10A
330
1F
100
AcDbEntity
  8
ILUSTRACE
 62
   250
100
AcDbSpline
210
0.0
220
0.0
230
1.0
 70
    24
 71
     3
 72
     8
 73
     4
 74
     0
 42
0.0000000001
 43
0.0000000001
 40
0.0
 40
0.0
 40
0.0
 40
0.0
 40
1.0
 40
1.0
 40
1.0
 40
1.0
 10
26.6664
 20
-13.232
 30
0.0
 10
26.6664
 20
-13.232
 30
0.0
 10
-8.512
 20
-13.232
 30
0.0
 10
-8.512
 20
-13.232
 30
0.0
  0
SPLINE
  5
10B
330
1F
100
AcDbEntity
  8
ILUSTRACE
100
AcDbSpline
210
0.0
220
0.0
230
1.0
 70
    24
 71
     3
 72
     8
 73
     4
 74
     0
 42
0.0000000001
 43
0.0000000001
 40
0.0
 40
0.0
 40
0.0
 40
0.0
 40
1.0
 40
1.0
 40
1.0
 40
1.0
 10
40.5486
 20
-13.232
 30
0.0
 10
40.5486
 20
-13.232
 30
0.0
 10
32.1348
 20
-13.232
 30
0.0
 10
32.1348
 20
-13.232
 30
0.0
  0
SPLINE
  5
10C
330
1F
100
AcDbEntity
  8
ILUSTRACE
100
AcDbSpline
210
0.0
220
0.0
230
1.0
 70
    24
 71
     3
 72
     8
 73
     4
 74
     0
 42
0.0000000001
 43
0.0000000001
 40
0.0
 40
0.0
 40
0.0
 40
0.0
 40
1.0
 40
1.0
 40
1.0
 40
1.0
 10
40.5486
 20
-4.8179
 30
0.0
 10
40.5486
 20
-4.8179
 30
0.0
 10
40.5486
 20
-13.232
 30
0.0
 10
40.5486
 20
-13.232
 30
0.0
  0
SPLINE
  5
10D
330
1F
100
AcDbEntity
  8
ILUSTRACE
100
AcDbSpline
210
0.0
220
0.0
230
1.0
 70
    24
 71
     3
 72
     8
 73
     4
 74
     0
 42
0.0000000001
 43
0.0000000001
 40
0.0
 40
0.0
 40
0.0
 40
0.0
 40
1.0
 40
1.0
 40
1.0
 40
1.0
 10
32.1348
 20
-4.8179
 30
0.0
 10
32.1348
 20
-4.8179
 30
0.0
 10
40.5486
 20
-4.8179
 30
0.0
 10
40.5486
 20
-4.8179
 30
0.0
  0
SPLINE
  5
10E
330
1F
100
AcDbEntity
  8
ILUSTRACE
 62
   250
100
AcDbSpline
210
0.0
220
0.0
230
1.0
 70
     8
 71
     3
 72
     8
 73
     4
 74
     0
 42
0.0000000001
 43
0.0000000001
 40
0.0
 40
0.0
 40
0.0
 40
0.0
 40
1.0
 40
1.0
 40
1.0
 40
1.0
 10
-11.8757
 20
-11.2888
 30
0.0
 10
-12.4428
 20
-10.7129
 30
0.0
 10
-13.0187
 20
-10.145
 30
0.0
 10
-13.59
 20
-9.5736
 30
0.0
  0
SPLINE
  5
10F
330
1F
100
AcDbEntity
  8
ILUSTRACE
 62
   250
100
AcDbSpline
210
0.0
220
0.0
230
1.0
 70
    24
 71
     3
 72
    16
 73
    12
 74
     0
 42
0.0000000001
 43
0.0000000001
 40
0.0
 40
0.0
 40
0.0
 40
0.0
 40
0.25
 40
0.25
 40
0.25
 40
0.25
 40
0.5
 40
0.5
 40
0.5
 40
0.5
 40
1.0
 40
1.0
 40
1.0
 40
1.0
 10
26.6664
 20
-4.8179
 30
0.0
 10
26.6664
 20
-4.8179
 30
0.0
 10
26.2458
 20
-4.8179
 30
0.0
 10
26.2458
 20
-4.8179
 30
0.0
 10
26.2458
 20
-4.8179
 30
0.0
 10
26.2458
 20
-4.8179
 30
0.0
 10
-13.7189
 20
-4.8179
 30
0.0
 10
-13.7189
 20
-4.8179
 30
0.0
 10
-13.7189
 20
-4.8179
 30
0.0
 10
-13.7189
 20
-4.8179
 30
0.0
 10
-14.14
 20
-4.8179
 30
0.0
 10
-14.14
 20
-4.8179
 30
0.0
  0
SPLINE
  5
110
330
1F
100
AcDbEntity
  8
ILUSTRACE
 62
   250
100
AcDbSpline
210
0.0
220
0.0
230
1.0
 70
     8
 71
     3
 72
    20
 73
    16
 74
     0
 42
0.0000000001
 43
0.0000000001
 40
0.0
 40
0.0
 40
0.0
 40
0.0
 40
0.2
 40
0.2
 40
0.2
 40
0.2
 40
0.4
 40
0.4
 40
0.4
 40
0.4
 40
0.6
 40
0.6
 40
0.6
 40
0.6
 40
1.0
 40
1.0
 40
1.0
 40
1.0
 10
-14.14
 20
-4.8179
 30
0.0
 10
-14.6357
 20
-4.8393
 30
0.0
 10
-15.108
 20
-4.9011
 30
0.0
 10
-15.5785
 20
-5.0719
 30
0.0
 10
-15.5785
 20
-5.0719
 30
0.0
 10
-16.738
 20
-5.4938
 30
0.0
 10
-17.6707
 20
-6.4266
 30
0.0
 10
-18.093
 20
-7.5859
 30
0.0
 10
-18.093
 20
-7.5859
 30
0.0
 10
-18.2181
 20
-7.931
 30
0.0
 10
-18.2983
 20
-8.2925
 30
0.0
 10
-18.3307
 20
-8.658
 30
0.0
 10
-18.3307
 20
-8.658
 30
0.0
 10
-18.3524
 20
-8.9108
 30
0.0
 10
-18.3461
 20
-9.1937
 30
0.0
 10
-18.3461
 20
-9.4452
 30
0.0
  0
SPLINE
  5
111
330
1F
100
AcDbEntity
  8
ILUSTRACE
 62
   250
100
AcDbSpline
210
0.0
220
0.0
230
1.0
 70
    24
 71
     3
 72
    12
 73
     8
 74
     0
 42
0.0000000001
 43
0.0000000001
 40
0.0
 40
0.0
 40
0.0
 40
0.0
 40
0.3333333333333333
 40
0.3333333333333333
 40
0.3333333333333333
 40
0.3333333333333333
 40
1.0
 40
1.0
 40
1.0
 40
1.0
 10
-18.3461
 20
-9.4452
 30
0.0
 10
-18.3461
 20
-9.4452
 30
0.0
 10
-18.3461
 20
-12.3297
 30
0.0
 10
-18.3461
 20
-12.3297
 30
0.0
 10
-18.3461
 20
-12.3297
 30
0.0
 10
-18.3461
 20
-12.3297
 30
0.0
 10
-18.3461
 20
-12.4497
 30
0.0
 10
-18.3461
 20
-12.4497
 30
0.0
  0
SPLINE
  5
112
330
1F
100
AcDbEntity
  8
ILUSTRACE
100
AcDbSpline
210
0.0
220
0.0
230
1.0
 70
    24
 71
     3
 72
     8
 73
     4
 74
     0
 42
0.0000000001
 43
0.0000000001
 40
0.0
 40
0.0
 40
0.0
 40
0.0
 40
1.0
 40
1.0
 40
1.0
 40
1.0
 10
32.1348
 20
-0.8216
 30
0.0
 10
32.1348
 20
-0.8216
 30
0.0
 10
32.1348
 20
-17.2282
 30
0.0
 10
32.1348
 20
-17.2282
 30
0.0
  0
SPLINE
  5
113
330
1F
100
AcDbEntity
  8
ILUSTRACE
100
AcDbSpline
210
0.0
220
0.0
230
1.0
 70
    24
 71
     3
 72
     8
 73
     4
 74
     0
 42
0.0000000001
 43
0.0000000001
 40
0.0
 40
0.0
 40
0.0
 40
0.0
 40
1.0
 40
1.0
 40
1.0
 40
1.0
 10
31.5039
 20
-16.5973
 30
0.0
 10
31.5039
 20
-16.5973
 30
0.0
 10
31.5039
 20
-1.453
 30
0.0
 10
31.5039
 20
-1.453
 30
0.0
  0
SPLINE
  5
114
330
1F
100
AcDbEntity
  8
ILUSTRACE
100
AcDbSpline
210
0.0
220
0.0
230
1.0
 70
     8
 71
     3
 72
     8
 73
     4
 74
     0
 42
0.0000000001
 43
0.0000000001
 40
0.0
 40
0.0
 40
0.0
 40
0.0
 40
1.0
 40
1.0
 40
1.0
 40
1.0
 10
32.1348
 20
-0.8216
 30
0.0
 10
31.9249
 20
-1.0319
 30
0.0
 10
31.7147
 20
-1.2423
 30
0.0
 10
31.5039
 20
-1.453
 30
0.0
  0
SPLINE
  5
115
330
1F
100
AcDbEntity
  8
ILUSTRACE
100
AcDbSpline
210
0.0
220
0.0
230
1.0
 70
    24
 71
     3
 72
     8
 73
     4
 74
     0
 42
0.0000000001
 43
0.0000000001
 40
0.0
 40
0.0
 40
0.0
 40
0.0
 40
1.0
 40
1.0
 40
1.0
 40
1.0
 10
31.5039
 20
-1.453
 30
0.0
 10
31.5039
 20
-1.453
 30
0.0
 10
29.6111
 20
-1.453
 30
0.0
 10
29.6111
 20
-1.453
 30
0.0
  0
SPLINE
  5
116
330
1F
100
AcDbEntity
  8
ILUSTRACE
100
AcDbSpline
210
0.0
220
0.0
230
1.0
 70
     8
 71
     3
 72
    16
 73
    12
 74
     0
 42
0.0000000001
 43
0.0000000001
 40
0.0
 40
0.0
 40
0.0
 40
0.0
 40
0.25
 40
0.25
 40
0.25
 40
0.25
 40
0.5
 40
0.5
 40
0.5
 40
0.5
 40
1.0
 40
1.0
 40
1.0
 40
1.0
 10
29.6111
 20
-1.453
 30
0.0
 10
29.2632
 20
-1.4681
 30
0.0
 10
28.9327
 20
-1.5105
 30
0.0
 10
28.6041
 20
-1.6306
 30
0.0
 10
28.6041
 20
-1.6306
 30
0.0
 10
27.7918
 20
-1.9257
 30
0.0
 10
27.1395
 20
-2.5785
 30
0.0
 10
26.8439
 20
-3.3902
 30
0.0
 10
26.8439
 20
-3.3902
 30
0.0
 10
26.6727
 20
-3.8592
 30
0.0
 10
26.6664
 20
-4.3247
 30
0.0
 10
26.6664
 20
-4.8179
 30
0.0
  0
SPLINE
  5
117
330
1F
100
AcDbEntity
  8
ILUSTRACE
100
AcDbSpline
210
0.0
220
0.0
230
1.0
 70
     8
 71
     3
 72
    16
 73
    12
 74
     0
 42
0.0000000001
 43
0.0000000001
 40
0.0
 40
0.0
 40
0.0
 40
0.0
 40
0.25
 40
0.25
 40
0.25
 40
0.25
 40
0.5
 40
0.5
 40
0.5
 40
0.5
 40
1.0
 40
1.0
 40
1.0
 40
1.0
 10
26.6664
 20
-4.8179
 30
0.0
 10
26.6664
 20
-4.8179
 30
0.0
 10
26.6664
 20
-13.232
 30
0.0
 10
26.6664
 20
-13.232
 30
0.0
 10
26.6664
 20
-13.232
 30
0.0
 10
26.6664
 20
-13.232
 30
0.0
 10
26.6664
 20
-13.6522
 30
0.0
 10
26.6664
 20
-13.6522
 30
0.0
 10
26.6664
 20
-13.6522
 30
0.0
 10
26.6664
 20
-13.6522
 30
0.0
 10
26.6777
 20
-13.9091
 30
0.0
 10
26.6777
 20
-13.9091
 30
0.0
  0
SPLINE
  5
118
330
1F
100
AcDbEntity
  8
ILUSTRACE
100
AcDbSpline
210
0.0
220
0.0
230
1.0
 70
     8
 71
     3
 72
    16
 73
    12
 74
     0
 42
0.0000000001
 43
0.0000000001
 40
0.0
 40
0.0
 40
0.0
 40
0.0
 40
0.25
 40
0.25
 40
0.25
 40
0.25
 40
0.5
 40
0.5
 40
0.5
 40
0.5
 40
1.0
 40
1.0
 40
1.0
 40
1.0
 10
26.6777
 20
-13.9091
 30
0.0
 10
26.7219
 20
-14.422
 30
0.0
 10
26.9036
 20
-14.9195
 30
0.0
 10
27.1991
 20
-15.3414
 30
0.0
 10
27.1991
 20
-15.3414
 30
0.0
 10
27.6432
 20
-15.9766
 30
0.0
 10
28.3354
 20
-16.4177
 30
0.0
 10
29.0994
 20
-16.5525
 30
0.0
 10
29.0994
 20
-16.5525
 30
0.0
 10
29.4092
 20
-16.6066
 30
0.0
 10
29.719
 20
-16.5973
 30
0.0
 10
30.0318
 20
-16.5973
 30
0.0
  0
SPLINE
  5
119
330
1F
100
AcDbEntity
  8
ILUSTRACE
100
AcDbSpline
210
0.0
220
0.0
230
1.0
 70
     8
 71
     3
 72
    24
 73
    20
 74
     0
 42
0.0000000001
 43
0.0000000001
 40
0.0
 40
0.0
 40
0.0
 40
0.0
 40
0.1666666666666667
 40
0.1666666666666667
 40
0.1666666666666667
 40
0.1666666666666667
 40
0.3333333333333333
 40
0.3333333333333333
 40
0.3333333333333333
 40
0.3333333333333333
 40
0.5
 40
0.5
 40
0.5
 40
0.5
 40
0.6666666666666666
 40
0.6666666666666666
 40
0.6666666666666666
 40
0.6666666666666666
 40
1.0
 40
1.0
 40
1.0
 40
1.0
 10
30.0318
 20
-16.5973
 30
0.0
 10
30.0318
 20
-16.5973
 30
0.0
 10
31.0833
 20
-16.5973
 30
0.0
 10
31.0833
 20
-16.5973
 30
0.0
 10
31.0833
 20
-16.5973
 30
0.0
 10
31.0833
 20
-16.5973
 30
0.0
 10
31.5039
 20
-16.5973
 30
0.0
 10
31.5039
 20
-16.5973
 30
0.0
 10
31.5039
 20
-16.5973
 30
0.0
 10
31.5039
 20
-16.5973
 30
0.0
 10
31.8015
 20
-16.8941
 30
0.0
 10
31.8015
 20
-16.8941
 30
0.0
 10
31.8015
 20
-16.8941
 30
0.0
 10
31.8015
 20
-16.8941
 30
0.0
 10
31.8372
 20
-16.9303
 30
0.0
 10
31.8372
 20
-16.9303
 30
0.0
 10
31.8372
 20
-16.9303
 30
0.0
 10
31.8372
 20
-16.9303
 30
0.0
 10
32.1348
 20
-17.2282
 30
0.0
 10
32.1348
 20
-17.2282
 30
0.0
  0
SPLINE
  5
11A
330
1F
100
AcDbEntity
  8
ILUSTRACE
100
AcDbSpline
210
0.0
220
0.0
230
1.0
 70
    24
 71
     3
 72
     8
 73
     4
 74
     0
 42
0.0000000001
 43
0.0000000001
 40
0.0
 40
0.0
 40
0.0
 40
0.0
 40
1.0
 40
1.0
 40
1.0
 40
1.0
 10
-32.6913
 20
-17.5436
 30
0.0
 10
-32.6913
 20
-17.5436
 30
0.0
 10
-32.6908
 20
-14.6064
 30
0.0
 10
-32.6908
 20
-14.6064
 30
0.0
  0
SPLINE
  5
11B
330
1F
100
AcDbEntity
  8
ILUSTRACE
100
AcDbSpline
210
0.0
220
0.0
230
1.0
 70
    24
 71
     3
 72
     8
 73
     4
 74
     0
 42
0.0000000001
 43
0.0000000001
 40
0.0
 40
0.0
 40
0.0
 40
0.0
 40
1.0
 40
1.0
 40
1.0
 40
1.0
 10
-32.5859
 20
-14.5987
 30
0.0
 10
-32.5859
 20
-14.5987
 30
0.0
 10
-32.6913
 20
-14.5987
 30
0.0
 10
-32.6913
 20
-14.5987
 30
0.0
  0
SPLINE
  5
11C
330
1F
100
AcDbEntity
  8
ILUSTRACE
100
AcDbSpline
210
0.0
220
0.0
230
1.0
 70
    24
 71
     3
 72
     8
 73
     4
 74
     0
 42
0.0000000001
 43
0.0000000001
 40
0.0
 40
0.0
 40
0.0
 40
0.0
 40
1.0
 40
1.0
 40
1.0
 40
1.0
 10
-32.6913
 20
-17.5436
 30
0.0
 10
-32.6913
 20
-17.5436
 30
0.0
 10
-21.123
 20
-17.5436
 30
0.0
 10
-21.123
 20
-17.5436
 30
0.0
  0
SPLINE
  5
11D
330
1F
100
AcDbEntity
  8
ILUSTRACE
100
AcDbSpline
210
0.0
220
0.0
230
1.0
 70
    24
 71
     3
 72
     8
 73
     4
 74
     0
 42
0.0000000001
 43
0.0000000001
 40
0.0
 40
0.0
 40
0.0
 40
0.0
 40
1.0
 40
1.0
 40
1.0
 40
1.0
 10
-21.1234
 20
-14.6064
 30
0.0
 10
-21.1234
 20
-14.6064
 30
0.0
 10
-21.123
 20
-17.5436
 30
0.0
 10
-21.123
 20
-17.5436
 30
0.0
  0
SPLINE
  5
11E
330
1F
100
AcDbEntity
  8
ILUSTRACE
100
AcDbSpline
210
0.0
220
0.0
230
1.0
 70
    24
 71
     3
 72
     8
 73
     4
 74
     0
 42
0.0000000001
 43
0.0000000001
 40
0.0
 40
0.0
 40
0.0
 40
0.0
 40
1.0
 40
1.0
 40
1.0
 40
1.0
 10
-21.2284
 20
-14.5987
 30
0.0
 10
-21.2284
 20
-14.5987
 30
0.0
 10
-21.123
 20
-14.5987
 30
0.0
 10
-21.123
 20
-14.5987
 30
0.0
  0
SPLINE
  5
11F
330
1F
100
AcDbEntity
  8
ILUSTRACE
100
AcDbSpline
210
0.0
220
0.0
230
1.0
 70
    24
 71
     3
 72
     8
 73
     4
 74
     0
 42
0.0000000001
 43
0.0000000001
 40
0.0
 40
0.0
 40
0.0
 40
0.0
 40
1.0
 40
1.0
 40
1.0
 40
1.0
 10
-21.1238
 20
-14.6135
 30
0.0
 10
-21.1238
 20
-14.6135
 30
0.0
 10
-21.123
 20
-14.5987
 30
0.0
 10
-21.123
 20
-14.5987
 30
0.0
  0
SPLINE
  5
120
330
1F
100
AcDbEntity
  8
ILUSTRACE
100
AcDbSpline
210
0.0
220
0.0
230
1.0
 70
    24
 71
     3
 72
     8
 73
     4
 74
     0
 42
0.0000000001
 43
0.0000000001
 40
0.0
 40
0.0
 40
0.0
 40
0.0
 40
1.0
 40
1.0
 40
1.0
 40
1.0
 10
-21.1234
 20
-16.8442
 30
0.0
 10
-21.1234
 20
-16.8442
 30
0.0
 10
-21.123
 20
-16.9127
 30
0.0
 10
-21.123
 20
-16.9127
 30
0.0
  0
SPLINE
  5
121
330
1F
100
AcDbEntity
  8
ILUSTRACE
100
AcDbSpline
210
0.0
220
0.0
230
1.0
 70
    24
 71
     3
 72
     8
 73
     4
 74
     0
 42
0.0000000001
 43
0.0000000001
 40
0.0
 40
0.0
 40
0.0
 40
0.0
 40
1.0
 40
1.0
 40
1.0
 40
1.0
 10
-21.162
 20
-16.9127
 30
0.0
 10
-21.162
 20
-16.9127
 30
0.0
 10
-21.1385
 20
-16.9127
 30
0.0
 10
-21.1385
 20
-16.9127
 30
0.0
  0
SPLINE
  5
122
330
1F
100
AcDbEntity
  8
ILUSTRACE
100
AcDbSpline
210
0.0
220
0.0
230
1.0
 70
    24
 71
     3
 72
     8
 73
     4
 74
     0
 42
0.0000000001
 43
0.0000000001
 40
0.0
 40
0.0
 40
0.0
 40
0.0
 40
1.0
 40
1.0
 40
1.0
 40
1.0
 10
-22.5305
 20
-16.9127
 30
0.0
 10
-22.5305
 20
-16.9127
 30
0.0
 10
-21.1356
 20
-16.9127
 30
0.0
 10
-21.1356
 20
-16.9127
 30
0.0
  0
SPLINE
  5
123
330
1F
100
AcDbEntity
  8
ILUSTRACE
100
AcDbSpline
210
0.0
220
0.0
230
1.0
 70
    24
 71
     3
 72
     8
 73
     4
 74
     0
 42
0.0000000001
 43
0.0000000001
 40
0.0
 40
0.0
 40
0.0
 40
0.0
 40
1.0
 40
1.0
 40
1.0
 40
1.0
 10
-21.1385
 20
-16.9127
 30
0.0
 10
-21.1385
 20
-16.9127
 30
0.0
 10
-21.2762
 20
-16.9127
 30
0.0
 10
-21.2762
 20
-16.9127
 30
0.0
  0
SPLINE
  5
124
330
1F
100
AcDbEntity
  8
ILUSTRACE
100
AcDbSpline
210
0.0
220
0.0
230
1.0
 70
    24
 71
     3
 72
     8
 73
     4
 74
     0
 42
0.0000000001
 43
0.0000000001
 40
0.0
 40
0.0
 40
0.0
 40
0.0
 40
1.0
 40
1.0
 40
1.0
 40
1.0
 10
-32.6757
 20
-16.9127
 30
0.0
 10
-32.6757
 20
-16.9127
 30
0.0
 10
-32.6523
 20
-16.9127
 30
0.0
 10
-32.6523
 20
-16.9127
 30
0.0
  0
SPLINE
  5
125
330
1F
100
AcDbEntity
  8
ILUSTRACE
100
AcDbSpline
210
0.0
220
0.0
230
1.0
 70
    24
 71
     3
 72
     8
 73
     4
 74
     0
 42
0.0000000001
 43
0.0000000001
 40
0.0
 40
0.0
 40
0.0
 40
0.0
 40
1.0
 40
1.0
 40
1.0
 40
1.0
 10
-32.6908
 20
-16.8442
 30
0.0
 10
-32.6908
 20
-16.8442
 30
0.0
 10
-32.6913
 20
-16.9127
 30
0.0
 10
-32.6913
 20
-16.9127
 30
0.0
  0
SPLINE
  5
126
330
1F
100
AcDbEntity
  8
ILUSTRACE
100
AcDbSpline
210
0.0
220
0.0
230
1.0
 70
    24
 71
     3
 72
     8
 73
     4
 74
     0
 42
0.0000000001
 43
0.0000000001
 40
0.0
 40
0.0
 40
0.0
 40
0.0
 40
1.0
 40
1.0
 40
1.0
 40
1.0
 10
-32.6787
 20
-16.9127
 30
0.0
 10
-32.6787
 20
-16.9127
 30
0.0
 10
-31.2837
 20
-16.9127
 30
0.0
 10
-31.2837
 20
-16.9127
 30
0.0
  0
SPLINE
  5
127
330
1F
100
AcDbEntity
  8
ILUSTRACE
100
AcDbSpline
210
0.0
220
0.0
230
1.0
 70
    24
 71
     3
 72
     8
 73
     4
 74
     0
 42
0.0000000001
 43
0.0000000001
 40
0.0
 40
0.0
 40
0.0
 40
0.0
 40
1.0
 40
1.0
 40
1.0
 40
1.0
 10
-32.538
 20
-16.9127
 30
0.0
 10
-32.538
 20
-16.9127
 30
0.0
 10
-32.6757
 20
-16.9127
 30
0.0
 10
-32.6757
 20
-16.9127
 30
0.0
  0
SPLINE
  5
128
330
1F
100
AcDbEntity
  8
ILUSTRACE
100
AcDbSpline
210
0.0
220
0.0
230
1.0
 70
    24
 71
     3
 72
     8
 73
     4
 74
     0
 42
0.0000000001
 43
0.0000000001
 40
0.0
 40
0.0
 40
0.0
 40
0.0
 40
1.0
 40
1.0
 40
1.0
 40
1.0
 10
-30.6889
 20
-16.9127
 30
0.0
 10
-30.6889
 20
-16.9127
 30
0.0
 10
-27.3282
 20
-16.9127
 30
0.0
 10
-27.3282
 20
-16.9127
 30
0.0
  0
SPLINE
  5
129
330
1F
100
AcDbEntity
  8
ILUSTRACE
100
AcDbSpline
210
0.0
220
0.0
230
1.0
 70
    24
 71
     3
 72
     8
 73
     4
 74
     0
 42
0.0000000001
 43
0.0000000001
 40
0.0
 40
0.0
 40
0.0
 40
0.0
 40
1.0
 40
1.0
 40
1.0
 40
1.0
 10
-27.0158
 20
-14.6135
 30
0.0
 10
-27.0158
 20
-14.6135
 30
0.0
 10
-27.1174
 20
-14.655
 30
0.0
 10
-27.1174
 20
-14.655
 30
0.0
  0
SPLINE
  5
12A
330
1F
100
AcDbEntity
  8
ILUSTRACE
100
AcDbSpline
210
0.0
220
0.0
230
1.0
 70
    24
 71
     3
 72
     8
 73
     4
 74
     0
 42
0.0000000001
 43
0.0000000001
 40
0.0
 40
0.0
 40
0.0
 40
0.0
 40
1.0
 40
1.0
 40
1.0
 40
1.0
 10
-26.5428
 20
-14.8091
 30
0.0
 10
-26.5428
 20
-14.8091
 30
0.0
 10
-26.5008
 20
-14.9107
 30
0.0
 10
-26.5008
 20
-14.9107
 30
0.0
  0
SPLINE
  5
12B
330
1F
100
AcDbEntity
  8
ILUSTRACE
100
AcDbSpline
210
0.0
220
0.0
230
1.0
 70
    24
 71
     3
 72
     8
 73
     4
 74
     0
 42
0.0000000001
 43
0.0000000001
 40
0.0
 40
0.0
 40
0.0
 40
0.0
 40
1.0
 40
1.0
 40
1.0
 40
1.0
 10
-26.4861
 20
-16.9127
 30
0.0
 10
-26.4861
 20
-16.9127
 30
0.0
 10
-26.4861
 20
-15.0194
 30
0.0
 10
-26.4861
 20
-15.0194
 30
0.0
  0
SPLINE
  5
12C
330
1F
100
AcDbEntity
  8
ILUSTRACE
100
AcDbSpline
210
0.0
220
0.0
230
1.0
 70
    24
 71
     3
 72
     8
 73
     4
 74
     0
 42
0.0000000001
 43
0.0000000001
 40
0.0
 40
0.0
 40
0.0
 40
0.0
 40
1.0
 40
1.0
 40
1.0
 40
1.0
 10
-23.1254
 20
-16.9127
 30
0.0
 10
-23.1254
 20
-16.9127
 30
0.0
 10
-26.4861
 20
-16.9127
 30
0.0
 10
-26.4861
 20
-16.9127
 30
0.0
  0
SPLINE
  5
12D
330
1F
100
AcDbEntity
  8
ILUSTRACE
100
AcDbSpline
210
0.0
220
0.0
230
1.0
 70
    24
 71
     3
 72
     8
 73
     4
 74
     0
 42
0.0000000001
 43
0.0000000001
 40
0.0
 40
0.0
 40
0.0
 40
0.0
 40
1.0
 40
1.0
 40
1.0
 40
1.0
 10
-32.6787
 20
-16.9127
 30
0.0
 10
-32.6787
 20
-16.9127
 30
0.0
 10
-32.6908
 20
-16.9127
 30
0.0
 10
-32.6908
 20
-16.9127
 30
0.0
  0
SPLINE
  5
12E
330
1F
100
AcDbEntity
  8
ILUSTRACE
100
AcDbSpline
210
0.0
220
0.0
230
1.0
 70
    24
 71
     3
 72
     8
 73
     4
 74
     0
 42
0.0000000001
 43
0.0000000001
 40
0.0
 40
0.0
 40
0.0
 40
0.0
 40
1.0
 40
1.0
 40
1.0
 40
1.0
 10
-26.9067
 20
-14.5987
 30
0.0
 10
-26.9067
 20
-14.5987
 30
0.0
 10
-27.0158
 20
-14.6135
 30
0.0
 10
-27.0158
 20
-14.6135
 30
0.0
  0
SPLINE
  5
12F
330
1F
100
AcDbEntity
  8
ILUSTRACE
100
AcDbSpline
210
0.0
220
0.0
230
1.0
 70
    24
 71
     3
 72
     8
 73
     4
 74
     0
 42
0.0000000001
 43
0.0000000001
 40
0.0
 40
0.0
 40
0.0
 40
0.0
 40
1.0
 40
1.0
 40
1.0
 40
1.0
 10
-21.123
 20
-16.9127
 30
0.0
 10
-21.123
 20
-16.9127
 30
0.0
 10
-21.1356
 20
-16.9127
 30
0.0
 10
-21.1356
 20
-16.9127
 30
0.0
  0
SPLINE
  5
130
330
1F
100
AcDbEntity
  8
ILUSTRACE
100
AcDbSpline
210
0.0
220
0.0
230
1.0
 70
    24
 71
     3
 72
     8
 73
     4
 74
     0
 42
0.0000000001
 43
0.0000000001
 40
0.0
 40
0.0
 40
0.0
 40
0.0
 40
1.0
 40
1.0
 40
1.0
 40
1.0
 10
-21.2284
 20
-14.5987
 30
0.0
 10
-21.2284
 20
-14.5987
 30
0.0
 10
-21.2284
 20
-14.336
 30
0.0
 10
-21.2284
 20
-14.336
 30
0.0
  0
SPLINE
  5
131
330
1F
100
AcDbEntity
  8
ILUSTRACE
100
AcDbSpline
210
0.0
220
0.0
230
1.0
 70
     8
 71
     3
 72
    16
 73
    12
 74
     0
 42
0.0000000001
 43
0.0000000001
 40
0.0
 40
0.0
 40
0.0
 40
0.0
 40
0.25
 40
0.25
 40
0.25
 40
0.25
 40
0.5
 40
0.5
 40
0.5
 40
0.5
 40
1.0
 40
1.0
 40
1.0
 40
1.0
 10
-21.2284
 20
-14.336
 30
0.0
 10
-21.2284
 20
-14.108
 30
0.0
 10
-21.199
 20
-13.8743
 30
0.0
 10
-21.4072
 20
-13.7282
 30
0.0
 10
-21.4072
 20
-13.7282
 30
0.0
 10
-21.4378
 20
-13.7071
 30
0.0
 10
-21.4705
 20
-13.69
 30
0.0
 10
-21.5046
 20
-13.6774
 30
0.0
 10
-21.5046
 20
-13.6774
 30
0.0
 10
-21.5512
 20
-13.6606
 30
0.0
 10
-21.5994
 20
-13.6522
 30
0.0
 10
-21.6485
 20
-13.6522
 30
0.0
  0
SPLINE
  5
132
330
1F
100
AcDbEntity
  8
ILUSTRACE
100
AcDbSpline
210
0.0
220
0.0
230
1.0
 70
    24
 71
     3
 72
    16
 73
    12
 74
     0
 42
0.0000000001
 43
0.0000000001
 40
0.0
 40
0.0
 40
0.0
 40
0.0
 40
0.25
 40
0.25
 40
0.25
 40
0.25
 40
0.5
 40
0.5
 40
0.5
 40
0.5
 40
1.0
 40
1.0
 40
1.0
 40
1.0
 10
-21.6485
 20
-13.6522
 30
0.0
 10
-21.6485
 20
-13.6522
 30
0.0
 10
-22.0692
 20
-13.6522
 30
0.0
 10
-22.0692
 20
-13.6522
 30
0.0
 10
-22.0692
 20
-13.6522
 30
0.0
 10
-22.0692
 20
-13.6522
 30
0.0
 10
-31.7451
 20
-13.6522
 30
0.0
 10
-31.7451
 20
-13.6522
 30
0.0
 10
-31.7451
 20
-13.6522
 30
0.0
 10
-31.7451
 20
-13.6522
 30
0.0
 10
-32.1657
 20
-13.6522
 30
0.0
 10
-32.1657
 20
-13.6522
 30
0.0
  0
SPLINE
  5
133
330
1F
100
AcDbEntity
  8
ILUSTRACE
100
AcDbSpline
210
0.0
220
0.0
230
1.0
 70
     8
 71
     3
 72
    16
 73
    12
 74
     0
 42
0.0000000001
 43
0.0000000001
 40
0.0
 40
0.0
 40
0.0
 40
0.0
 40
0.25
 40
0.25
 40
0.25
 40
0.25
 40
0.5
 40
0.5
 40
0.5
 40
0.5
 40
1.0
 40
1.0
 40
1.0
 40
1.0
 10
-32.1657
 20
-13.6522
 30
0.0
 10
-32.2152
 20
-13.6547
 30
0.0
 10
-32.2627
 20
-13.6601
 30
0.0
 10
-32.3097
 20
-13.6774
 30
0.0
 10
-32.3097
 20
-13.6774
 30
0.0
 10
-32.3437
 20
-13.69
 30
0.0
 10
-32.3764
 20
-13.7071
 30
0.0
 10
-32.4071
 20
-13.7282
 30
0.0
 10
-32.4071
 20
-13.7282
 30
0.0
 10
-32.6153
 20
-13.8743
 30
0.0
 10
-32.5859
 20
-14.108
 30
0.0
 10
-32.5859
 20
-14.336
 30
0.0
  0
SPLINE
  5
134
330
1F
100
AcDbEntity
  8
ILUSTRACE
100
AcDbSpline
210
0.0
220
0.0
230
1.0
 70
    24
 71
     3
 72
     8
 73
     4
 74
     0
 42
0.0000000001
 43
0.0000000001
 40
0.0
 40
0.0
 40
0.0
 40
0.0
 40
1.0
 40
1.0
 40
1.0
 40
1.0
 10
-32.5859
 20
-14.336
 30
0.0
 10
-32.5859
 20
-14.336
 30
0.0
 10
-32.5859
 20
-14.5987
 30
0.0
 10
-32.5859
 20
-14.5987
 30
0.0
  0
SPLINE
  5
135
330
1F
100
AcDbEntity
  8
ILUSTRACE
100
AcDbSpline
210
0.0
220
0.0
230
1.0
 70
     8
 71
     3
 72
    12
 73
     8
 74
     0
 42
0.0000000001
 43
0.0000000001
 40
0.0
 40
0.0
 40
0.0
 40
0.0
 40
0.3333333333333333
 40
0.3333333333333333
 40
0.3333333333333333
 40
0.3333333333333333
 40
1.0
 40
1.0
 40
1.0
 40
1.0
 10
-22.8911
 20
-14.5987
 30
0.0
 10
-22.8407
 20
-14.5987
 30
0.0
 10
-22.7899
 20
-14.5942
 30
0.0
 10
-22.7408
 20
-14.6135
 30
0.0
 10
-22.7408
 20
-14.6135
 30
0.0
 10
-22.5835
 20
-14.6739
 30
0.0
 10
-22.533
 20
-14.8691
 30
0.0
 10
-22.5305
 20
-15.0194
 30
0.0
  0
SPLINE
  5
136
330
1F
100
AcDbEntity
  8
ILUSTRACE
100
AcDbSpline
210
0.0
220
0.0
230
1.0
 70
    24
 71
     3
 72
    16
 73
    12
 74
     0
 42
0.0000000001
 43
0.0000000001
 40
0.0
 40
0.0
 40
0.0
 40
0.0
 40
0.25
 40
0.25
 40
0.25
 40
0.25
 40
0.5
 40
0.5
 40
0.5
 40
0.5
 40
1.0
 40
1.0
 40
1.0
 40
1.0
 10
-22.5305
 20
-15.0194
 30
0.0
 10
-22.5305
 20
-15.0194
 30
0.0
 10
-22.5305
 20
-15.4405
 30
0.0
 10
-22.5305
 20
-15.4405
 30
0.0
 10
-22.5305
 20
-15.4405
 30
0.0
 10
-22.5305
 20
-15.4405
 30
0.0
 10
-22.5305
 20
-16.4916
 30
0.0
 10
-22.5305
 20
-16.4916
 30
0.0
 10
-22.5305
 20
-16.4916
 30
0.0
 10
-22.5305
 20
-16.4916
 30
0.0
 10
-22.5305
 20
-16.9127
 30
0.0
 10
-22.5305
 20
-16.9127
 30
0.0
  0
SPLINE
  5
137
330
1F
100
AcDbEntity
  8
ILUSTRACE
100
AcDbSpline
210
0.0
220
0.0
230
1.0
 70
     8
 71
     3
 72
    12
 73
     8
 74
     0
 42
0.0000000001
 43
0.0000000001
 40
0.0
 40
0.0
 40
0.0
 40
0.0
 40
0.3333333333333333
 40
0.3333333333333333
 40
0.3333333333333333
 40
0.3333333333333333
 40
1.0
 40
1.0
 40
1.0
 40
1.0
 10
-30.9232
 20
-14.5987
 30
0.0
 10
-30.9232
 20
-14.5987
 30
0.0
 10
-30.9971
 20
-14.5987
 30
0.0
 10
-30.9971
 20
-14.5987
 30
0.0
 10
-30.9971
 20
-14.5987
 30
0.0
 10
-30.9971
 20
-14.5987
 30
0.0
 10
-31.0735
 20
-14.6135
 30
0.0
 10
-31.0735
 20
-14.6135
 30
0.0
  0
SPLINE
  5
138
330
1F
100
AcDbEntity
  8
ILUSTRACE
100
AcDbSpline
210
0.0
220
0.0
230
1.0
 70
     8
 71
     3
 72
     8
 73
     4
 74
     0
 42
0.0000000001
 43
0.0000000001
 40
0.0
 40
0.0
 40
0.0
 40
0.0
 40
1.0
 40
1.0
 40
1.0
 40
1.0
 10
-31.0735
 20
-14.6135
 30
0.0
 10
-31.2304
 20
-14.6739
 30
0.0
 10
-31.2812
 20
-14.8691
 30
0.0
 10
-31.2837
 20
-15.0194
 30
0.0
  0
SPLINE
  5
139
330
1F
100
AcDbEntity
  8
ILUSTRACE
100
AcDbSpline
210
0.0
220
0.0
230
1.0
 70
    24
 71
     3
 72
    16
 73
    12
 74
     0
 42
0.0000000001
 43
0.0000000001
 40
0.0
 40
0.0
 40
0.0
 40
0.0
 40
0.25
 40
0.25
 40
0.25
 40
0.25
 40
0.5
 40
0.5
 40
0.5
 40
0.5
 40
1.0
 40
1.0
 40
1.0
 40
1.0
 10
-31.2837
 20
-15.0194
 30
0.0
 10
-31.2837
 20
-15.0194
 30
0.0
 10
-31.2837
 20
-15.4405
 30
0.0
 10
-31.2837
 20
-15.4405
 30
0.0
 10
-31.2837
 20
-15.4405
 30
0.0
 10
-31.2837
 20
-15.4405
 30
0.0
 10
-31.2837
 20
-16.4916
 30
0.0
 10
-31.2837
 20
-16.4916
 30
0.0
 10
-31.2837
 20
-16.4916
 30
0.0
 10
-31.2837
 20
-16.4916
 30
0.0
 10
-31.2837
 20
-16.9127
 30
0.0
 10
-31.2837
 20
-16.9127
 30
0.0
  0
SPLINE
  5
13A
330
1F
100
AcDbEntity
  8
ILUSTRACE
100
AcDbSpline
210
0.0
220
0.0
230
1.0
 70
    24
 71
     3
 72
    12
 73
     8
 74
     0
 42
0.0000000001
 43
0.0000000001
 40
0.0
 40
0.0
 40
0.0
 40
0.0
 40
0.3333333333333333
 40
0.3333333333333333
 40
0.3333333333333333
 40
0.3333333333333333
 40
1.0
 40
1.0
 40
1.0
 40
1.0
 10
-32.6757
 20
-16.9127
 30
0.0
 10
-32.6757
 20
-16.9127
 30
0.0
 10
-32.6757
 20
-16.4916
 30
0.0
 10
-32.6757
 20
-16.4916
 30
0.0
 10
-32.6757
 20
-16.4916
 30
0.0
 10
-32.6757
 20
-16.4916
 30
0.0
 10
-32.6757
 20
-15.4405
 30
0.0
 10
-32.6757
 20
-15.4405
 30
0.0
  0
SPLINE
  5
13B
330
1F
100
AcDbEntity
  8
ILUSTRACE
100
AcDbSpline
210
0.0
220
0.0
230
1.0
 70
     8
 71
     3
 72
     8
 73
     4
 74
     0
 42
0.0000000001
 43
0.0000000001
 40
0.0
 40
0.0
 40
0.0
 40
0.0
 40
1.0
 40
1.0
 40
1.0
 40
1.0
 10
-32.6757
 20
-15.4405
 30
0.0
 10
-32.6757
 20
-15.1592
 30
0.0
 10
-32.6712
 20
-14.8792
 30
0.0
 10
-32.6913
 20
-14.5987
 30
0.0
  0
SPLINE
  5
13C
330
1F
100
AcDbEntity
  8
ILUSTRACE
100
AcDbSpline
210
0.0
220
0.0
230
1.0
 70
     8
 71
     3
 72
     8
 73
     4
 74
     0
 42
0.0000000001
 43
0.0000000001
 40
0.0
 40
0.0
 40
0.0
 40
0.0
 40
1.0
 40
1.0
 40
1.0
 40
1.0
 10
-32.5859
 20
-14.5987
 30
0.0
 10
-32.5658
 20
-14.8792
 30
0.0
 10
-32.5704
 20
-15.1592
 30
0.0
 10
-32.5704
 20
-15.4405
 30
0.0
  0
SPLINE
  5
13D
330
1F
100
AcDbEntity
  8
ILUSTRACE
100
AcDbSpline
210
0.0
220
0.0
230
1.0
 70
    24
 71
     3
 72
    12
 73
     8
 74
     0
 42
0.0000000001
 43
0.0000000001
 40
0.0
 40
0.0
 40
0.0
 40
0.0
 40
0.3333333333333333
 40
0.3333333333333333
 40
0.3333333333333333
 40
0.3333333333333333
 40
1.0
 40
1.0
 40
1.0
 40
1.0
 10
-32.5704
 20
-15.4405
 30
0.0
 10
-32.5704
 20
-15.4405
 30
0.0
 10
-32.5704
 20
-16.4916
 30
0.0
 10
-32.5704
 20
-16.4916
 30
0.0
 10
-32.5704
 20
-16.4916
 30
0.0
 10
-32.5704
 20
-16.4916
 30
0.0
 10
-32.5704
 20
-16.9127
 30
0.0
 10
-32.5704
 20
-16.9127
 30
0.0
  0
SPLINE
  5
13E
330
1F
100
AcDbEntity
  8
ILUSTRACE
100
AcDbSpline
210
0.0
220
0.0
230
1.0
 70
    24
 71
     3
 72
     8
 73
     4
 74
     0
 42
0.0000000001
 43
0.0000000001
 40
0.0
 40
0.0
 40
0.0
 40
0.0
 40
1.0
 40
1.0
 40
1.0
 40
1.0
 10
-30.846
 20
-14.6127
 30
0.0
 10
-30.846
 20
-14.6127
 30
0.0
 10
-30.9232
 20
-14.5987
 30
0.0
 10
-30.9232
 20
-14.5987
 30
0.0
  0
SPLINE
  5
13F
330
1F
100
AcDbEntity
  8
ILUSTRACE
100
AcDbSpline
210
0.0
220
0.0
230
1.0
 70
    24
 71
     3
 72
    12
 73
     8
 74
     0
 42
0.0000000001
 43
0.0000000001
 40
0.0
 40
0.0
 40
0.0
 40
0.0
 40
0.3333333333333333
 40
0.3333333333333333
 40
0.3333333333333333
 40
0.3333333333333333
 40
1.0
 40
1.0
 40
1.0
 40
1.0
 10
-30.6889
 20
-16.9127
 30
0.0
 10
-30.6889
 20
-16.9127
 30
0.0
 10
-30.6889
 20
-16.4916
 30
0.0
 10
-30.6889
 20
-16.4916
 30
0.0
 10
-30.6889
 20
-16.4916
 30
0.0
 10
-30.6889
 20
-16.4916
 30
0.0
 10
-30.6889
 20
-15.4405
 30
0.0
 10
-30.6889
 20
-15.4405
 30
0.0
  0
SPLINE
  5
140
330
1F
100
AcDbEntity
  8
ILUSTRACE
100
AcDbSpline
210
0.0
220
0.0
230
1.0
 70
     8
 71
     3
 72
     8
 73
     4
 74
     0
 42
0.0000000001
 43
0.0000000001
 40
0.0
 40
0.0
 40
0.0
 40
0.0
 40
1.0
 40
1.0
 40
1.0
 40
1.0
 10
-30.6889
 20
-15.4405
 30
0.0
 10
-30.6889
 20
-15.2158
 30
0.0
 10
-30.6117
 20
-14.7273
 30
0.0
 10
-30.9194
 20
-14.6135
 30
0.0
  0
SPLINE
  5
141
330
1F
100
AcDbEntity
  8
ILUSTRACE
100
AcDbSpline
210
0.0
220
0.0
230
1.0
 70
    24
 71
     3
 72
     8
 73
     4
 74
     0
 42
0.0000000001
 43
0.0000000001
 40
0.0
 40
0.0
 40
0.0
 40
0.0
 40
1.0
 40
1.0
 40
1.0
 40
1.0
 10
-30.9194
 20
-14.6135
 30
0.0
 10
-30.9194
 20
-14.6135
 30
0.0
 10
-30.9971
 20
-14.5987
 30
0.0
 10
-30.9971
 20
-14.5987
 30
0.0
  0
SPLINE
  5
142
330
1F
100
AcDbEntity
  8
ILUSTRACE
100
AcDbSpline
210
0.0
220
0.0
230
1.0
 70
     8
 71
     3
 72
     8
 73
     4
 74
     0
 42
0.0000000001
 43
0.0000000001
 40
0.0
 40
0.0
 40
0.0
 40
0.0
 40
1.0
 40
1.0
 40
1.0
 40
1.0
 10
-27.2711
 20
-14.8091
 30
0.0
 10
-27.3609
 20
-15.0245
 30
0.0
 10
-27.3282
 20
-15.1864
 30
0.0
 10
-27.3282
 20
-15.4405
 30
0.0
  0
SPLINE
  5
143
330
1F
100
AcDbEntity
  8
ILUSTRACE
100
AcDbSpline
210
0.0
220
0.0
230
1.0
 70
    24
 71
     3
 72
    12
 73
     8
 74
     0
 42
0.0000000001
 43
0.0000000001
 40
0.0
 40
0.0
 40
0.0
 40
0.0
 40
0.3333333333333333
 40
0.3333333333333333
 40
0.3333333333333333
 40
0.3333333333333333
 40
1.0
 40
1.0
 40
1.0
 40
1.0
 10
-27.3282
 20
-15.4405
 30
0.0
 10
-27.3282
 20
-15.4405
 30
0.0
 10
-27.3282
 20
-16.4916
 30
0.0
 10
-27.3282
 20
-16.4916
 30
0.0
 10
-27.3282
 20
-16.4916
 30
0.0
 10
-27.3282
 20
-16.4916
 30
0.0
 10
-27.3282
 20
-16.9127
 30
0.0
 10
-27.3282
 20
-16.9127
 30
0.0
  0
SPLINE
  5
144
330
1F
100
AcDbEntity
  8
ILUSTRACE
100
AcDbSpline
210
0.0
220
0.0
230
1.0
 70
     8
 71
     3
 72
     8
 73
     4
 74
     0
 42
0.0000000001
 43
0.0000000001
 40
0.0
 40
0.0
 40
0.0
 40
0.0
 40
1.0
 40
1.0
 40
1.0
 40
1.0
 10
-26.9067
 20
-14.5987
 30
0.0
 10
-26.7619
 20
-14.6177
 30
0.0
 10
-26.832
 20
-14.5992
 30
0.0
 10
-26.6968
 20
-14.655
 30
0.0
  0
SPLINE
  5
145
330
1F
100
AcDbEntity
  8
ILUSTRACE
100
AcDbSpline
210
0.0
220
0.0
230
1.0
 70
    24
 71
     3
 72
     8
 73
     4
 74
     0
 42
0.0000000001
 43
0.0000000001
 40
0.0
 40
0.0
 40
0.0
 40
0.0
 40
1.0
 40
1.0
 40
1.0
 40
1.0
 10
-22.8911
 20
-14.5992
 30
0.0
 10
-22.8911
 20
-14.5992
 30
0.0
 10
-22.9683
 20
-14.6127
 30
0.0
 10
-22.9683
 20
-14.6127
 30
0.0
  0
SPLINE
  5
146
330
1F
100
AcDbEntity
  8
ILUSTRACE
100
AcDbSpline
210
0.0
220
0.0
230
1.0
 70
    24
 71
     3
 72
     8
 73
     4
 74
     0
 42
0.0000000001
 43
0.0000000001
 40
0.0
 40
0.0
 40
0.0
 40
0.0
 40
1.0
 40
1.0
 40
1.0
 40
1.0
 10
-22.8172
 20
-14.5987
 30
0.0
 10
-22.8172
 20
-14.5987
 30
0.0
 10
-22.8949
 20
-14.6135
 30
0.0
 10
-22.8949
 20
-14.6135
 30
0.0
  0
SPLINE
  5
147
330
1F
100
AcDbEntity
  8
ILUSTRACE
100
AcDbSpline
210
0.0
220
0.0
230
1.0
 70
     8
 71
     3
 72
     8
 73
     4
 74
     0
 42
0.0000000001
 43
0.0000000001
 40
0.0
 40
0.0
 40
0.0
 40
0.0
 40
1.0
 40
1.0
 40
1.0
 40
1.0
 10
-22.8949
 20
-14.6135
 30
0.0
 10
-23.2026
 20
-14.7273
 30
0.0
 10
-23.1254
 20
-15.2158
 30
0.0
 10
-23.1254
 20
-15.4405
 30
0.0
  0
SPLINE
  5
148
330
1F
100
AcDbEntity
  8
ILUSTRACE
100
AcDbSpline
210
0.0
220
0.0
230
1.0
 70
    24
 71
     3
 72
    12
 73
     8
 74
     0
 42
0.0000000001
 43
0.0000000001
 40
0.0
 40
0.0
 40
0.0
 40
0.0
 40
0.3333333333333333
 40
0.3333333333333333
 40
0.3333333333333333
 40
0.3333333333333333
 40
1.0
 40
1.0
 40
1.0
 40
1.0
 10
-23.1254
 20
-15.4405
 30
0.0
 10
-23.1254
 20
-15.4405
 30
0.0
 10
-23.1254
 20
-16.4916
 30
0.0
 10
-23.1254
 20
-16.4916
 30
0.0
 10
-23.1254
 20
-16.4916
 30
0.0
 10
-23.1254
 20
-16.4916
 30
0.0
 10
-23.1254
 20
-16.9127
 30
0.0
 10
-23.1254
 20
-16.9127
 30
0.0
  0
SPLINE
  5
149
330
1F
100
AcDbEntity
  8
ILUSTRACE
100
AcDbSpline
210
0.0
220
0.0
230
1.0
 70
     8
 71
     3
 72
     8
 73
     4
 74
     0
 42
0.0000000001
 43
0.0000000001
 40
0.0
 40
0.0
 40
0.0
 40
0.0
 40
1.0
 40
1.0
 40
1.0
 40
1.0
 10
-21.1238
 20
-14.6135
 30
0.0
 10
-21.1419
 20
-14.8888
 30
0.0
 10
-21.1385
 20
-15.1642
 30
0.0
 10
-21.1385
 20
-15.4405
 30
0.0
  0
SPLINE
  5
14A
330
1F
100
AcDbEntity
  8
ILUSTRACE
100
AcDbSpline
210
0.0
220
0.0
230
1.0
 70
    24
 71
     3
 72
    12
 73
     8
 74
     0
 42
0.0000000001
 43
0.0000000001
 40
0.0
 40
0.0
 40
0.0
 40
0.0
 40
0.3333333333333333
 40
0.3333333333333333
 40
0.3333333333333333
 40
0.3333333333333333
 40
1.0
 40
1.0
 40
1.0
 40
1.0
 10
-21.1385
 20
-15.4405
 30
0.0
 10
-21.1385
 20
-15.4405
 30
0.0
 10
-21.1385
 20
-16.4916
 30
0.0
 10
-21.1385
 20
-16.4916
 30
0.0
 10
-21.1385
 20
-16.4916
 30
0.0
 10
-21.1385
 20
-16.4916
 30
0.0
 10
-21.1385
 20
-16.9127
 30
0.0
 10
-21.1385
 20
-16.9127
 30
0.0
  0
SPLINE
  5
14B
330
1F
100
AcDbEntity
  8
ILUSTRACE
100
AcDbSpline
210
0.0
220
0.0
230
1.0
 70
     8
 71
     3
 72
     8
 73
     4
 74
     0
 42
0.0000000001
 43
0.0000000001
 40
0.0
 40
0.0
 40
0.0
 40
0.0
 40
1.0
 40
1.0
 40
1.0
 40
1.0
 10
-21.2284
 20
-14.5987
 30
0.0
 10
-21.2485
 20
-14.8792
 30
0.0
 10
-21.2439
 20
-15.1592
 30
0.0
 10
-21.2439
 20
-15.4405
 30
0.0
  0
SPLINE
  5
14C
330
1F
100
AcDbEntity
  8
ILUSTRACE
100
AcDbSpline
210
0.0
220
0.0
230
1.0
 70
    24
 71
     3
 72
    12
 73
     8
 74
     0
 42
0.0000000001
 43
0.0000000001
 40
0.0
 40
0.0
 40
0.0
 40
0.0
 40
0.3333333333333333
 40
0.3333333333333333
 40
0.3333333333333333
 40
0.3333333333333333
 40
1.0
 40
1.0
 40
1.0
 40
1.0
 10
-21.2439
 20
-15.4405
 30
0.0
 10
-21.2439
 20
-15.4405
 30
0.0
 10
-21.2439
 20
-16.4916
 30
0.0
 10
-21.2439
 20
-16.4916
 30
0.0
 10
-21.2439
 20
-16.4916
 30
0.0
 10
-21.2439
 20
-16.4916
 30
0.0
 10
-21.2439
 20
-16.9127
 30
0.0
 10
-21.2439
 20
-16.9127
 30
0.0
  0
SPLINE
  5
14D
330
1F
100
AcDbEntity
  8
ILUSTRACE
100
AcDbSpline
210
0.0
220
0.0
230
1.0
 70
     8
 71
     3
 72
     8
 73
     4
 74
     0
 42
0.0000000001
 43
0.0000000001
 40
0.0
 40
0.0
 40
0.0
 40
0.0
 40
1.0
 40
1.0
 40
1.0
 40
1.0
 10
-27.1174
 20
-14.655
 30
0.0
 10
-27.2333
 20
-14.7445
 30
0.0
 10
-27.1825
 20
-14.6929
 30
0.0
 10
-27.2711
 20
-14.8091
 30
0.0
  0
SPLINE
  5
14E
330
1F
100
AcDbEntity
  8
ILUSTRACE
100
AcDbSpline
210
0.0
220
0.0
230
1.0
 70
     8
 71
     3
 72
     8
 73
     4
 74
     0
 42
0.0000000001
 43
0.0000000001
 40
0.0
 40
0.0
 40
0.0
 40
0.0
 40
1.0
 40
1.0
 40
1.0
 40
1.0
 10
-26.6968
 20
-14.655
 30
0.0
 10
-26.581
 20
-14.7445
 30
0.0
 10
-26.6317
 20
-14.6929
 30
0.0
 10
-26.5428
 20
-14.8091
 30
0.0
  0
SPLINE
  5
14F
330
1F
100
AcDbEntity
  8
ILUSTRACE
 62
   250
100
AcDbSpline
210
0.0
220
0.0
230
1.0
 70
    24
 71
     3
 72
     8
 73
     4
 74
     0
 42
0.0000000001
 43
0.0000000001
 40
0.0
 40
0.0
 40
0.0
 40
0.0
 40
1.0
 40
1.0
 40
1.0
 40
1.0
 10
-31.8925
 20
-18.1341
 30
0.0
 10
-31.8925
 20
-18.1341
 30
0.0
 10
-31.6393
 20
-18.2794
 30
0.0
 10
-31.6393
 20
-18.2794
 30
0.0
  0
SPLINE
  5
150
330
1F
100
AcDbEntity
  8
ILUSTRACE
 62
   250
100
AcDbSpline
210
0.0
220
0.0
230
1.0
 70
    24
 71
     3
 72
     8
 73
     4
 74
     0
 42
0.0000000001
 43
0.0000000001
 40
0.0
 40
0.0
 40
0.0
 40
0.0
 40
1.0
 40
1.0
 40
1.0
 40
1.0
 10
-31.8925
 20
-17.5436
 30
0.0
 10
-31.8925
 20
-17.5436
 30
0.0
 10
-31.8925
 20
-18.1341
 30
0.0
 10
-31.8925
 20
-18.1341
 30
0.0
  0
SPLINE
  5
151
330
1F
100
AcDbEntity
  8
ILUSTRACE
 62
   250
100
AcDbSpline
210
0.0
220
0.0
230
1.0
 70
    24
 71
     3
 72
     8
 73
     4
 74
     0
 42
0.0000000001
 43
0.0000000001
 40
0.0
 40
0.0
 40
0.0
 40
0.0
 40
1.0
 40
1.0
 40
1.0
 40
1.0
 10
-9.1542
 20
-24.4438
 30
0.0
 10
-9.1542
 20
-24.4438
 30
0.0
 10
-9.4066
 20
-24.5896
 30
0.0
 10
-9.4066
 20
-24.5896
 30
0.0
  0
SPLINE
  5
152
330
1F
100
AcDbEntity
  8
ILUSTRACE
 62
   250
100
AcDbSpline
210
0.0
220
0.0
230
1.0
 70
    24
 71
     3
 72
     8
 73
     4
 74
     0
 42
0.0000000001
 43
0.0000000001
 40
0.0
 40
0.0
 40
0.0
 40
0.0
 40
1.0
 40
1.0
 40
1.0
 40
1.0
 10
-9.1542
 20
-23.8541
 30
0.0
 10
-9.1542
 20
-23.8541
 30
0.0
 10
-9.1542
 20
-24.4438
 30
0.0
 10
-9.1542
 20
-24.4438
 30
0.0
  0
SPLINE
  5
153
330
1F
100
AcDbEntity
  8
ILUSTRACE
 62
   250
100
AcDbSpline
210
0.0
220
0.0
230
1.0
 70
    24
 71
     3
 72
     8
 73
     4
 74
     0
 42
0.0000000001
 43
0.0000000001
 40
0.0
 40
0.0
 40
0.0
 40
0.0
 40
1.0
 40
1.0
 40
1.0
 40
1.0
 10
-22.1741
 20
-26.6935
 30
0.0
 10
-22.1741
 20
-26.6935
 30
0.0
 10
-31.6393
 20
-26.6935
 30
0.0
 10
-31.6393
 20
-26.6935
 30
0.0
  0
SPLINE
  5
154
330
1F
100
AcDbEntity
  8
ILUSTRACE
 62
   250
100
AcDbSpline
210
0.0
220
0.0
230
1.0
 70
    24
 71
     3
 72
     8
 73
     4
 74
     0
 42
0.0000000001
 43
0.0000000001
 40
0.0
 40
0.0
 40
0.0
 40
0.0
 40
1.0
 40
1.0
 40
1.0
 40
1.0
 10
-19.1248
 20
-24.4438
 30
0.0
 10
-19.1248
 20
-24.4438
 30
0.0
 10
-18.8726
 20
-24.5896
 30
0.0
 10
-18.8726
 20
-24.5896
 30
0.0
  0
SPLINE
  5
155
330
1F
100
AcDbEntity
  8
ILUSTRACE
 62
   250
100
AcDbSpline
210
0.0
220
0.0
230
1.0
 70
    24
 71
     3
 72
     8
 73
     4
 74
     0
 42
0.0000000001
 43
0.0000000001
 40
0.0
 40
0.0
 40
0.0
 40
0.0
 40
1.0
 40
1.0
 40
1.0
 40
1.0
 10
-19.1248
 20
-23.8541
 30
0.0
 10
-19.1248
 20
-23.8541
 30
0.0
 10
-19.1248
 20
-24.4438
 30
0.0
 10
-19.1248
 20
-24.4438
 30
0.0
  0
SPLINE
  5
156
330
1F
100
AcDbEntity
  8
ILUSTRACE
 62
   250
100
AcDbSpline
210
0.0
220
0.0
230
1.0
 70
    24
 71
     3
 72
     8
 73
     4
 74
     0
 42
0.0000000001
 43
0.0000000001
 40
0.0
 40
0.0
 40
0.0
 40
0.0
 40
1.0
 40
1.0
 40
1.0
 40
1.0
 10
-21.9219
 20
-18.1341
 30
0.0
 10
-21.9219
 20
-18.1341
 30
0.0
 10
-22.1741
 20
-18.2794
 30
0.0
 10
-22.1741
 20
-18.2794
 30
0.0
  0
SPLINE
  5
157
330
1F
100
AcDbEntity
  8
ILUSTRACE
 62
   250
100
AcDbSpline
210
0.0
220
0.0
230
1.0
 70
    24
 71
     3
 72
     8
 73
     4
 74
     0
 42
0.0000000001
 43
0.0000000001
 40
0.0
 40
0.0
 40
0.0
 40
0.0
 40
1.0
 40
1.0
 40
1.0
 40
1.0
 10
-21.9219
 20
-17.5436
 30
0.0
 10
-21.9219
 20
-17.5436
 30
0.0
 10
-21.9219
 20
-18.1341
 30
0.0
 10
-21.9219
 20
-18.1341
 30
0.0
  0
SPLINE
  5
158
330
1F
100
AcDbEntity
  8
ILUSTRACE
 62
   250
100
AcDbSpline
210
0.0
220
0.0
230
1.0
 70
    24
 71
     3
 72
     8
 73
     4
 74
     0
 42
0.0000000001
 43
0.0000000001
 40
0.0
 40
0.0
 40
0.0
 40
0.0
 40
1.0
 40
1.0
 40
1.0
 40
1.0
 10
-22.1741
 20
-18.2794
 30
0.0
 10
-22.1741
 20
-18.2794
 30
0.0
 10
-31.6393
 20
-18.2794
 30
0.0
 10
-31.6393
 20
-18.2794
 30
0.0
  0
SPLINE
  5
159
330
1F
100
AcDbEntity
  8
ILUSTRACE
 62
   250
100
AcDbSpline
210
0.0
220
0.0
230
1.0
 70
    24
 71
     3
 72
     8
 73
     4
 74
     0
 42
0.0000000001
 43
0.0000000001
 40
0.0
 40
0.0
 40
0.0
 40
0.0
 40
1.0
 40
1.0
 40
1.0
 40
1.0
 10
-18.8726
 20
-24.5896
 30
0.0
 10
-18.8726
 20
-24.5896
 30
0.0
 10
-17.4236
 20
-24.5896
 30
0.0
 10
-17.4236
 20
-24.5896
 30
0.0
  0
SPLINE
  5
15A
330
1F
100
AcDbEntity
  8
ILUSTRACE
 62
   250
100
AcDbSpline
210
0.0
220
0.0
230
1.0
 70
    24
 71
     3
 72
     8
 73
     4
 74
     0
 42
0.0000000001
 43
0.0000000001
 40
0.0
 40
0.0
 40
0.0
 40
0.0
 40
1.0
 40
1.0
 40
1.0
 40
1.0
 10
-9.4066
 20
-26.6935
 30
0.0
 10
-9.4066
 20
-26.6935
 30
0.0
 10
-18.8726
 20
-26.6935
 30
0.0
 10
-18.8726
 20
-26.6935
 30
0.0
  0
SPLINE
  5
15B
330
1F
100
AcDbEntity
  8
ILUSTRACE
 62
   250
100
AcDbSpline
210
0.0
220
0.0
230
1.0
 70
     8
 71
     3
 72
    24
 73
    20
 74
     0
 42
0.0000000001
 43
0.0000000001
 40
0.0
 40
0.0
 40
0.0
 40
0.0
 40
0.1666666666666667
 40
0.1666666666666667
 40
0.1666666666666667
 40
0.1666666666666667
 40
0.3333333333333333
 40
0.3333333333333333
 40
0.3333333333333333
 40
0.3333333333333333
 40
0.5
 40
0.5
 40
0.5
 40
0.5
 40
0.6666666666666666
 40
0.6666666666666666
 40
0.6666666666666666
 40
0.6666666666666666
 40
1.0
 40
1.0
 40
1.0
 40
1.0
 10
-9.4066
 20
-24.5896
 30
0.0
 10
-9.4066
 20
-24.5896
 30
0.0
 10
-9.4066
 20
-25.0106
 30
0.0
 10
-9.4066
 20
-25.0106
 30
0.0
 10
-9.4066
 20
-25.0106
 30
0.0
 10
-9.4066
 20
-25.0106
 30
0.0
 10
-9.4066
 20
-26.2724
 30
0.0
 10
-9.4066
 20
-26.2724
 30
0.0
 10
-9.4066
 20
-26.2724
 30
0.0
 10
-9.4066
 20
-26.2724
 30
0.0
 10
-9.4066
 20
-26.6935
 30
0.0
 10
-9.4066
 20
-26.6935
 30
0.0
 10
-9.4066
 20
-26.6935
 30
0.0
 10
-9.4066
 20
-26.6935
 30
0.0
 10
-9.8482
 20
-27.1871
 30
0.0
 10
-9.8482
 20
-27.1871
 30
0.0
 10
-9.8482
 20
-27.1871
 30
0.0
 10
-9.8482
 20
-27.1871
 30
0.0
 10
-9.8897
 20
-27.5142
 30
0.0
 10
-9.8897
 20
-27.5142
 30
0.0
  0
SPLINE
  5
15C
330
1F
100
AcDbEntity
  8
ILUSTRACE
 62
   250
100
AcDbSpline
210
0.0
220
0.0
230
1.0
 70
     8
 71
     3
 72
    20
 73
    16
 74
     0
 42
0.0000000001
 43
0.0000000001
 40
0.0
 40
0.0
 40
0.0
 40
0.0
 40
0.2
 40
0.2
 40
0.2
 40
0.2
 40
0.4
 40
0.4
 40
0.4
 40
0.4
 40
0.6
 40
0.6
 40
0.6
 40
0.6
 40
1.0
 40
1.0
 40
1.0
 40
1.0
 10
-9.8897
 20
-27.5142
 30
0.0
 10
-9.9321
 20
-27.8404
 30
0.0
 10
-9.9845
 20
-28.1652
 30
0.0
 10
-10.0572
 20
-28.4864
 30
0.0
 10
-10.0572
 20
-28.4864
 30
0.0
 10
-10.2004
 20
-29.1261
 30
0.0
 10
-10.4052
 20
-29.7596
 30
0.0
 10
-10.6637
 20
-30.3628
 30
0.0
 10
-10.6637
 20
-30.3628
 30
0.0
 10
-11.5285
 20
-32.3798
 30
0.0
 10
-13.0267
 20
-34.1169
 30
0.0
 10
-14.8956
 20
-35.2687
 30
0.0
 10
-14.8956
 20
-35.2687
 30
0.0
 10
-15.7243
 20
-35.7787
 30
0.0
 10
-16.6209
 20
-36.1612
 30
0.0
 10
-17.5507
 20
-36.4433
 30
0.0
  0
SPLINE
  5
15D
330
1F
100
AcDbEntity
  8
ILUSTRACE
 62
   250
100
AcDbSpline
210
0.0
220
0.0
230
1.0
 70
     8
 71
     3
 72
    84
 73
    80
 74
     0
 42
0.0000000001
 43
0.0000000001
 40
0.0
 40
0.0
 40
0.0
 40
0.0
 40
0.0476190476190476
 40
0.0476190476190476
 40
0.0476190476190476
 40
0.0476190476190476
 40
0.0952380952380952
 40
0.0952380952380952
 40
0.0952380952380952
 40
0.0952380952380952
 40
0.1428571428571428
 40
0.1428571428571428
 40
0.1428571428571428
 40
0.1428571428571428
 40
0.1904761904761905
 40
0.1904761904761905
 40
0.1904761904761905
 40
0.1904761904761905
 40
0.2380952380952381
 40
0.2380952380952381
 40
0.2380952380952381
 40
0.2380952380952381
 40
0.2857142857142857
 40
0.2857142857142857
 40
0.2857142857142857
 40
0.2857142857142857
 40
0.3333333333333333
 40
0.3333333333333333
 40
0.3333333333333333
 40
0.3333333333333333
 40
0.3809523809523809
 40
0.3809523809523809
 40
0.3809523809523809
 40
0.3809523809523809
 40
0.4285714285714285
 40
0.4285714285714285
 40
0.4285714285714285
 40
0.4285714285714285
 40
0.4761904761904762
 40
0.4761904761904762
 40
0.4761904761904762
 40
0.4761904761904762
 40
0.5238095238095238
 40
0.5238095238095238
 40
0.5238095238095238
 40
0.5238095238095238
 40
0.5714285714285714
 40
0.5714285714285714
 40
0.5714285714285714
 40
0.5714285714285714
 40
0.6190476190476191
 40
0.6190476190476191
 40
0.6190476190476191
 40
0.6190476190476191
 40
0.6666666666666666
 40
0.6666666666666666
 40
0.6666666666666666
 40
0.6666666666666666
 40
0.7142857142857143
 40
0.7142857142857143
 40
0.7142857142857143
 40
0.7142857142857143
 40
0.7619047619047619
 40
0.7619047619047619
 40
0.7619047619047619
 40
0.7619047619047619
 40
0.8095238095238095
 40
0.8095238095238095
 40
0.8095238095238095
 40
0.8095238095238095
 40
0.8571428571428571
 40
0.8571428571428571
 40
0.8571428571428571
 40
0.8571428571428571
 40
0.9047619047619048
 40
0.9047619047619048
 40
0.9047619047619048
 40
0.9047619047619048
 40
1.0
 40
1.0
 40
1.0
 40
1.0
 10
-17.5507
 20
-36.4433
 30
0.0
 10
-17.5507
 20
-36.4433
 30
0.0
 10
-17.5733
 20
-36.4425
 30
0.0
 10
-17.5733
 20
-36.4425
 30
0.0
 10
-17.5733
 20
-36.4425
 30
0.0
 10
-17.5733
 20
-36.4425
 30
0.0
 10
-17.6133
 20
-36.4446
 30
0.0
 10
-17.6133
 20
-36.4446
 30
0.0
 10
-17.6133
 20
-36.4446
 30
0.0
 10
-17.6133
 20
-36.4446
 30
0.0
 10
-17.6782
 20
-36.4412
 30
0.0
 10
-17.6782
 20
-36.4412
 30
0.0
 10
-17.6782
 20
-36.4412
 30
0.0
 10
-17.6782
 20
-36.4412
 30
0.0
 10
-17.7958
 20
-36.4446
 30
0.0
 10
-17.7958
 20
-36.4446
 30
0.0
 10
-17.7958
 20
-36.4446
 30
0.0
 10
-17.7958
 20
-36.4446
 30
0.0
 10
-17.8458
 20
-36.442
 30
0.0
 10
-17.8458
 20
-36.442
 30
0.0
 10
-17.8458
 20
-36.442
 30
0.0
 10
-17.8458
 20
-36.442
 30
0.0
 10
-17.9411
 20
-36.4436
 30
0.0
 10
-17.9411
 20
-36.4436
 30
0.0
 10
-17.9411
 20
-36.4436
 30
0.0
 10
-17.9411
 20
-36.4436
 30
0.0
 10
-18.0922
 20
-36.442
 30
0.0
 10
-18.0922
 20
-36.442
 30
0.0
 10
-18.0922
 20
-36.442
 30
0.0
 10
-18.0922
 20
-36.442
 30
0.0
 10
-18.1208
 20
-36.4436
 30
0.0
 10
-18.1208
 20
-36.4436
 30
0.0
 10
-18.1208
 20
-36.4436
 30
0.0
 10
-18.1208
 20
-36.4436
 30
0.0
 10
-18.4222
 20
-36.4408
 30
0.0
 10
-18.4222
 20
-36.4408
 30
0.0
 10
-18.4222
 20
-36.4408
 30
0.0
 10
-18.4222
 20
-36.4408
 30
0.0
 10
-18.6035
 20
-36.4458
 30
0.0
 10
-18.6035
 20
-36.4458
 30
0.0
 10
-18.6035
 20
-36.4458
 30
0.0
 10
-18.6035
 20
-36.4458
 30
0.0
 10
-18.6857
 20
-36.4471
 30
0.0
 10
-18.6857
 20
-36.4471
 30
0.0
 10
-18.6857
 20
-36.4471
 30
0.0
 10
-18.6857
 20
-36.4471
 30
0.0
 10
-18.9061
 20
-36.4408
 30
0.0
 10
-18.9061
 20
-36.4408
 30
0.0
 10
-18.9061
 20
-36.4408
 30
0.0
 10
-18.9061
 20
-36.4408
 30
0.0
 10
-19.1756
 20
-36.44
 30
0.0
 10
-19.1756
 20
-36.44
 30
0.0
 10
-19.1756
 20
-36.44
 30
0.0
 10
-19.1756
 20
-36.44
 30
0.0
 10
-19.2525
 20
-36.4408
 30
0.0
 10
-19.2525
 20
-36.4408
 30
0.0
 10
-19.2525
 20
-36.4408
 30
0.0
 10
-19.2525
 20
-36.4408
 30
0.0
 10
-19.4518
 20
-36.4408
 30
0.0
 10
-19.4518
 20
-36.4408
 30
0.0
 10
-19.4518
 20
-36.4408
 30
0.0
 10
-19.4518
 20
-36.4408
 30
0.0
 10
-19.8376
 20
-36.4463
 30
0.0
 10
-19.8376
 20
-36.4463
 30
0.0
 10
-19.8376
 20
-36.4463
 30
0.0
 10
-19.8376
 20
-36.4463
 30
0.0
 10
-19.8897
 20
-36.445
 30
0.0
 10
-19.8897
 20
-36.445
 30
0.0
 10
-19.8897
 20
-36.445
 30
0.0
 10
-19.8897
 20
-36.445
 30
0.0
 10
-20.0252
 20
-36.4412
 30
0.0
 10
-20.0252
 20
-36.4412
 30
0.0
 10
-20.0252
 20
-36.4412
 30
0.0
 10
-20.0252
 20
-36.4412
 30
0.0
 10
-20.5236
 20
-36.4433
 30
0.0
 10
-20.5236
 20
-36.4433
 30
0.0
 10
-20.5236
 20
-36.4433
 30
0.0
 10
-20.5236
 20
-36.4433
 30
0.0
 10
-20.6008
 20
-36.4412
 30
0.0
 10
-20.6008
 20
-36.4412
 30
0.0
  0
SPLINE
  5
15E
330
1F
100
AcDbEntity
  8
ILUSTRACE
 62
   250
100
AcDbSpline
210
0.0
220
0.0
230
1.0
 70
     8
 71
     3
 72
     8
 73
     4
 74
     0
 42
0.0000000001
 43
0.0000000001
 40
0.0
 40
0.0
 40
0.0
 40
0.0
 40
1.0
 40
1.0
 40
1.0
 40
1.0
 10
-20.6008
 20
-36.4412
 30
0.0
 10
-20.8124
 20
-36.4412
 30
0.0
 10
-21.0243
 20
-36.4383
 30
0.0
 10
-21.2364
 20
-36.4446
 30
0.0
  0
SPLINE
  5
15F
330
1F
100
AcDbEntity
  8
ILUSTRACE
 62
   250
100
AcDbSpline
210
0.0
220
0.0
230
1.0
 70
     8
 71
     3
 72
    48
 73
    44
 74
     0
 42
0.0000000001
 43
0.0000000001
 40
0.0
 40
0.0
 40
0.0
 40
0.0
 40
0.0833333333333333
 40
0.0833333333333333
 40
0.0833333333333333
 40
0.0833333333333333
 40
0.1666666666666667
 40
0.1666666666666667
 40
0.1666666666666667
 40
0.1666666666666667
 40
0.25
 40
0.25
 40
0.25
 40
0.25
 40
0.3333333333333333
 40
0.3333333333333333
 40
0.3333333333333333
 40
0.3333333333333333
 40
0.4166666666666667
 40
0.4166666666666667
 40
0.4166666666666667
 40
0.4166666666666667
 40
0.5
 40
0.5
 40
0.5
 40
0.5
 40
0.5833333333333334
 40
0.5833333333333334
 40
0.5833333333333334
 40
0.5833333333333334
 40
0.6666666666666666
 40
0.6666666666666666
 40
0.6666666666666666
 40
0.6666666666666666
 40
0.75
 40
0.75
 40
0.75
 40
0.75
 40
0.8333333333333334
 40
0.8333333333333334
 40
0.8333333333333334
 40
0.8333333333333334
 40
1.0
 40
1.0
 40
1.0
 40
1.0
 10
-21.2364
 20
-36.4446
 30
0.0
 10
-21.2364
 20
-36.4446
 30
0.0
 10
-21.6842
 20
-36.44
 30
0.0
 10
-21.6842
 20
-36.44
 30
0.0
 10
-21.6842
 20
-36.44
 30
0.0
 10
-21.6842
 20
-36.44
 30
0.0
 10
-21.7942
 20
-36.4425
 30
0.0
 10
-21.7942
 20
-36.4425
 30
0.0
 10
-21.7942
 20
-36.4425
 30
0.0
 10
-21.7942
 20
-36.4425
 30
0.0
 10
-22.1733
 20
-36.4408
 30
0.0
 10
-22.1733
 20
-36.4408
 30
0.0
 10
-22.1733
 20
-36.4408
 30
0.0
 10
-22.1733
 20
-36.4408
 30
0.0
 10
-22.3668
 20
-36.4463
 30
0.0
 10
-22.3668
 20
-36.4463
 30
0.0
 10
-22.3668
 20
-36.4463
 30
0.0
 10
-22.3668
 20
-36.4463
 30
0.0
 10
-22.4428
 20
-36.445
 30
0.0
 10
-22.4428
 20
-36.445
 30
0.0
 10
-22.4428
 20
-36.445
 30
0.0
 10
-22.4428
 20
-36.445
 30
0.0
 10
-22.5951
 20
-36.4408
 30
0.0
 10
-22.5951
 20
-36.4408
 30
0.0
 10
-22.5951
 20
-36.4408
 30
0.0
 10
-22.5951
 20
-36.4408
 30
0.0
 10
-23.1056
 20
-36.4436
 30
0.0
 10
-23.1056
 20
-36.4436
 30
0.0
 10
-23.1056
 20
-36.4436
 30
0.0
 10
-23.1056
 20
-36.4436
 30
0.0
 10
-23.185
 20
-36.4412
 30
0.0
 10
-23.185
 20
-36.4412
 30
0.0
 10
-23.185
 20
-36.4412
 30
0.0
 10
-23.185
 20
-36.4412
 30
0.0
 10
-23.2501
 20
-36.445
 30
0.0
 10
-23.2501
 20
-36.445
 30
0.0
 10
-23.2501
 20
-36.445
 30
0.0
 10
-23.2501
 20
-36.445
 30
0.0
 10
-23.3604
 20
-36.4412
 30
0.0
 10
-23.3604
 20
-36.4412
 30
0.0
 10
-23.3604
 20
-36.4412
 30
0.0
 10
-23.3604
 20
-36.4412
 30
0.0
 10
-23.4326
 20
-36.4446
 30
0.0
 10
-23.4326
 20
-36.4446
 30
0.0
  0
SPLINE
  5
160
330
1F
100
AcDbEntity
  8
ILUSTRACE
 62
   250
100
AcDbSpline
210
0.0
220
0.0
230
1.0
 70
     8
 71
     3
 72
    20
 73
    16
 74
     0
 42
0.0000000001
 43
0.0000000001
 40
0.0
 40
0.0
 40
0.0
 40
0.0
 40
0.2
 40
0.2
 40
0.2
 40
0.2
 40
0.4
 40
0.4
 40
0.4
 40
0.4
 40
0.6
 40
0.6
 40
0.6
 40
0.6
 40
1.0
 40
1.0
 40
1.0
 40
1.0
 10
-23.4326
 20
-36.4446
 30
0.0
 10
-23.6458
 20
-36.4348
 30
0.0
 10
-23.876
 20
-36.3224
 30
0.0
 10
-24.0733
 20
-36.2535
 30
0.0
 10
-24.0733
 20
-36.2535
 30
0.0
 10
-24.6965
 20
-36.0348
 30
0.0
 10
-25.2927
 20
-35.7616
 30
0.0
 10
-25.8656
 20
-35.4324
 30
0.0
 10
-25.8656
 20
-35.4324
 30
0.0
 10
-28.0607
 20
-34.171
 30
0.0
 10
-29.7697
 20
-32.1359
 30
0.0
 10
-30.6239
 20
-29.7495
 30
0.0
 10
-30.6239
 20
-29.7495
 30
0.0
 10
-30.8443
 20
-29.1324
 30
0.0
 10
-31.0105
 20
-28.4876
 30
0.0
 10
-31.1142
 20
-27.8404
 30
0.0
  0
SPLINE
  5
161
330
1F
100
AcDbEntity
  8
ILUSTRACE
 62
   250
100
AcDbSpline
210
0.0
220
0.0
230
1.0
 70
     8
 71
     3
 72
    24
 73
    20
 74
     0
 42
0.0000000001
 43
0.0000000001
 40
0.0
 40
0.0
 40
0.0
 40
0.0
 40
0.1666666666666667
 40
0.1666666666666667
 40
0.1666666666666667
 40
0.1666666666666667
 40
0.3333333333333333
 40
0.3333333333333333
 40
0.3333333333333333
 40
0.3333333333333333
 40
0.5
 40
0.5
 40
0.5
 40
0.5
 40
0.6666666666666666
 40
0.6666666666666666
 40
0.6666666666666666
 40
0.6666666666666666
 40
1.0
 40
1.0
 40
1.0
 40
1.0
 10
-31.1142
 20
-27.8404
 30
0.0
 10
-31.1142
 20
-27.8404
 30
0.0
 10
-31.1985
 20
-27.1871
 30
0.0
 10
-31.1985
 20
-27.1871
 30
0.0
 10
-31.1985
 20
-27.1871
 30
0.0
 10
-31.1985
 20
-27.1871
 30
0.0
 10
-31.6393
 20
-26.6935
 30
0.0
 10
-31.6393
 20
-26.6935
 30
0.0
 10
-31.6393
 20
-26.6935
 30
0.0
 10
-31.6393
 20
-26.6935
 30
0.0
 10
-31.6393
 20
-26.2724
 30
0.0
 10
-31.6393
 20
-26.2724
 30
0.0
 10
-31.6393
 20
-26.2724
 30
0.0
 10
-31.6393
 20
-26.2724
 30
0.0
 10
-31.6393
 20
-18.7004
 30
0.0
 10
-31.6393
 20
-18.7004
 30
0.0
 10
-31.6393
 20
-18.7004
 30
0.0
 10
-31.6393
 20
-18.7004
 30
0.0
 10
-31.6393
 20
-18.2794
 30
0.0
 10
-31.6393
 20
-18.2794
 30
0.0
  0
SPLINE
  5
162
330
1F
100
AcDbEntity
  8
ILUSTRACE
 62
   250
100
AcDbSpline
210
0.0
220
0.0
230
1.0
 70
     8
 71
     3
 72
    20
 73
    16
 74
     0
 42
0.0000000001
 43
0.0000000001
 40
0.0
 40
0.0
 40
0.0
 40
0.0
 40
0.2
 40
0.2
 40
0.2
 40
0.2
 40
0.4
 40
0.4
 40
0.4
 40
0.4
 40
0.6
 40
0.6
 40
0.6
 40
0.6
 40
1.0
 40
1.0
 40
1.0
 40
1.0
 10
-22.1741
 20
-18.2794
 30
0.0
 10
-22.1741
 20
-18.2794
 30
0.0
 10
-22.1741
 20
-18.7004
 30
0.0
 10
-22.1741
 20
-18.7004
 30
0.0
 10
-22.1741
 20
-18.7004
 30
0.0
 10
-22.1741
 20
-18.7004
 30
0.0
 10
-22.1741
 20
-26.2724
 30
0.0
 10
-22.1741
 20
-26.2724
 30
0.0
 10
-22.1741
 20
-26.2724
 30
0.0
 10
-22.1741
 20
-26.2724
 30
0.0
 10
-22.1741
 20
-26.6935
 30
0.0
 10
-22.1741
 20
-26.6935
 30
0.0
 10
-22.1741
 20
-26.6935
 30
0.0
 10
-22.1741
 20
-26.6935
 30
0.0
 10
-22.6132
 20
-27.1851
 30
0.0
 10
-22.6132
 20
-27.1851
 30
0.0
  0
SPLINE
  5
163
330
1F
100
AcDbEntity
  8
ILUSTRACE
 62
   250
100
AcDbSpline
210
0.0
220
0.0
230
1.0
 70
     8
 71
     3
 72
    16
 73
    12
 74
     0
 42
0.0000000001
 43
0.0000000001
 40
0.0
 40
0.0
 40
0.0
 40
0.0
 40
0.25
 40
0.25
 40
0.25
 40
0.25
 40
0.5
 40
0.5
 40
0.5
 40
0.5
 40
1.0
 40
1.0
 40
1.0
 40
1.0
 10
-22.5863
 20
-27.1834
 30
0.0
 10
-22.4412
 20
-27.4609
 30
0.0
 10
-22.2489
 20
-27.708
 30
0.0
 10
-22.0087
 20
-27.9096
 30
0.0
 10
-22.0087
 20
-27.9096
 30
0.0
 10
-21.1595
 20
-28.6202
 30
0.0
 10
-19.8872
 20
-28.6202
 30
0.0
 10
-19.038
 20
-27.9096
 30
0.0
 10
-19.038
 20
-27.9096
 30
0.0
 10
-18.7978
 20
-27.708
 30
0.0
 10
-18.6052
 20
-27.4609
 30
0.0
 10
-18.4604
 20
-27.1834
 30
0.0
  0
SPLINE
  5
164
330
1F
100
AcDbEntity
  8
ILUSTRACE
 62
   250
100
AcDbSpline
210
0.0
220
0.0
230
1.0
 70
     8
 71
     3
 72
     8
 73
     4
 74
     0
 42
0.0000000001
 43
0.0000000001
 40
0.0
 40
0.0
 40
0.0
 40
0.0
 40
1.0
 40
1.0
 40
1.0
 40
1.0
 10
-18.4604
 20
-27.1834
 30
0.0
 10
-18.4356
 20
-27.196
 30
0.0
 10
-18.3983
 20
-27.1846
 30
0.0
 10
-18.3689
 20
-27.1871
 30
0.0
  0
SPLINE
  5
165
330
1F
100
AcDbEntity
  8
ILUSTRACE
 62
   250
100
AcDbSpline
210
0.0
220
0.0
230
1.0
 70
     8
 71
     3
 72
    20
 73
    16
 74
     0
 42
0.0000000001
 43
0.0000000001
 40
0.0
 40
0.0
 40
0.0
 40
0.0
 40
0.2
 40
0.2
 40
0.2
 40
0.2
 40
0.4
 40
0.4
 40
0.4
 40
0.4
 40
0.6
 40
0.6
 40
0.6
 40
0.6
 40
1.0
 40
1.0
 40
1.0
 40
1.0
 10
-18.433
 20
-27.1851
 30
0.0
 10
-18.433
 20
-27.1851
 30
0.0
 10
-18.8726
 20
-26.6935
 30
0.0
 10
-18.8726
 20
-26.6935
 30
0.0
 10
-18.8726
 20
-26.6935
 30
0.0
 10
-18.8726
 20
-26.6935
 30
0.0
 10
-18.8726
 20
-26.2724
 30
0.0
 10
-18.8726
 20
-26.2724
 30
0.0
 10
-18.8726
 20
-26.2724
 30
0.0
 10
-18.8726
 20
-26.2724
 30
0.0
 10
-18.8726
 20
-25.0106
 30
0.0
 10
-18.8726
 20
-25.0106
 30
0.0
 10
-18.8726
 20
-25.0106
 30
0.0
 10
-18.8726
 20
-25.0106
 30
0.0
 10
-18.8726
 20
-24.5896
 30
0.0
 10
-18.8726
 20
-24.5896
 30
0.0
  0
SPLINE
  5
166
330
1F
100
AcDbEntity
  8
ILUSTRACE
 62
   250
100
AcDbSpline
210
0.0
220
0.0
230
1.0
 70
     8
 71
     3
 72
    16
 73
    12
 74
     0
 42
0.0000000001
 43
0.0000000001
 40
0.0
 40
0.0
 40
0.0
 40
0.0
 40
0.25
 40
0.25
 40
0.25
 40
0.25
 40
0.5
 40
0.5
 40
0.5
 40
0.5
 40
1.0
 40
1.0
 40
1.0
 40
1.0
 10
-22.5863
 20
-27.1834
 30
0.0
 10
-22.5863
 20
-27.1834
 30
0.0
 10
-22.5948
 20
-27.1871
 30
0.0
 10
-22.5948
 20
-27.1871
 30
0.0
 10
-22.5948
 20
-27.1871
 30
0.0
 10
-22.5948
 20
-27.1871
 30
0.0
 10
-22.6572
 20
-27.1846
 30
0.0
 10
-22.6572
 20
-27.1846
 30
0.0
 10
-22.6572
 20
-27.1846
 30
0.0
 10
-22.6572
 20
-27.1846
 30
0.0
 10
-22.6778
 20
-27.1871
 30
0.0
 10
-22.6778
 20
-27.1871
 30
0.0
  0
SPLINE
  5
167
330
1F
100
AcDbEntity
  8
ILUSTRACE
 62
   250
100
AcDbSpline
210
0.0
220
0.0
230
1.0
 70
     8
 71
     3
 72
     8
 73
     4
 74
     0
 42
0.0000000001
 43
0.0000000001
 40
0.0
 40
0.0
 40
0.0
 40
0.0
 40
1.0
 40
1.0
 40
1.0
 40
1.0
 10
-31.1985
 20
-27.1871
 30
0.0
 10
-29.407
 20
-27.2518
 30
0.0
 10
-27.6128
 20
-27.2857
 30
0.0
 10
-25.8191
 20
-27.287
 30
0.0
  0
SPLINE
  5
168
330
1F
100
AcDbEntity
  8
ILUSTRACE
 62
   250
100
AcDbSpline
210
0.0
220
0.0
230
1.0
 70
     8
 71
     3
 72
     8
 73
     4
 74
     0
 42
0.0000000001
 43
0.0000000001
 40
0.0
 40
0.0
 40
0.0
 40
0.0
 40
1.0
 40
1.0
 40
1.0
 40
1.0
 10
-9.8482
 20
-27.1871
 30
0.0
 10
-11.4605
 20
-27.2455
 30
0.0
 10
-13.0745
 20
-27.2749
 30
0.0
 10
-14.6878
 20
-27.287
 30
0.0
  0
SPLINE
  5
169
330
1F
100
AcDbEntity
  8
ILUSTRACE
 62
   250
100
AcDbSpline
210
0.0
220
0.0
230
1.0
 70
    24
 71
     3
 72
    12
 73
     8
 74
     0
 42
0.0000000001
 43
0.0000000001
 40
0.0
 40
0.0
 40
0.0
 40
0.0
 40
0.3333333333333333
 40
0.3333333333333333
 40
0.3333333333333333
 40
0.3333333333333333
 40
1.0
 40
1.0
 40
1.0
 40
1.0
 10
-14.6878
 20
-27.287
 30
0.0
 10
-14.6878
 20
-27.287
 30
0.0
 10
-14.7651
 20
-27.287
 30
0.0
 10
-14.7651
 20
-27.287
 30
0.0
 10
-14.7651
 20
-27.287
 30
0.0
 10
-14.7651
 20
-27.287
 30
0.0
 10
-15.2272
 20
-27.287
 30
0.0
 10
-15.2272
 20
-27.287
 30
0.0
  0
SPLINE
  5
16A
330
1F
100
AcDbEntity
  8
ILUSTRACE
 62
   250
100
AcDbSpline
210
0.0
220
0.0
230
1.0
 70
     8
 71
     3
 72
    16
 73
    12
 74
     0
 42
0.0000000001
 43
0.0000000001
 40
0.0
 40
0.0
 40
0.0
 40
0.0
 40
0.25
 40
0.25
 40
0.25
 40
0.25
 40
0.5
 40
0.5
 40
0.5
 40
0.5
 40
1.0
 40
1.0
 40
1.0
 40
1.0
 10
-15.2272
 20
-27.287
 30
0.0
 10
-15.8628
 20
-27.2832
 30
0.0
 10
-16.4995
 20
-27.2795
 30
0.0
 10
-17.135
 20
-27.2497
 30
0.0
 10
-17.135
 20
-27.2497
 30
0.0
 10
-17.3702
 20
-27.2387
 30
0.0
 10
-17.6015
 20
-27.2283
 30
0.0
 10
-17.8361
 20
-27.2136
 30
0.0
 10
-17.8361
 20
-27.2136
 30
0.0
 10
-17.9856
 20
-27.2048
 30
0.0
 10
-18.1354
 20
-27.1871
 30
0.0
 10
-18.2853
 20
-27.1871
 30
0.0
  0
SPLINE
  5
16B
330
1F
100
AcDbEntity
  8
ILUSTRACE
 62
   250
100
AcDbSpline
210
0.0
220
0.0
230
1.0
 70
    24
 71
     3
 72
     8
 73
     4
 74
     0
 42
0.0000000001
 43
0.0000000001
 40
0.0
 40
0.0
 40
0.0
 40
0.0
 40
1.0
 40
1.0
 40
1.0
 40
1.0
 10
-22.7614
 20
-27.1871
 30
0.0
 10
-22.7614
 20
-27.1871
 30
0.0
 10
-22.8487
 20
-27.1871
 30
0.0
 10
-22.8487
 20
-27.1871
 30
0.0
  0
SPLINE
  5
16C
330
1F
100
AcDbEntity
  8
ILUSTRACE
 62
   250
100
AcDbSpline
210
0.0
220
0.0
230
1.0
 70
     8
 71
     3
 72
     8
 73
     4
 74
     0
 42
0.0000000001
 43
0.0000000001
 40
0.0
 40
0.0
 40
0.0
 40
0.0
 40
1.0
 40
1.0
 40
1.0
 40
1.0
 10
-22.8487
 20
-27.1871
 30
0.0
 10
-23.836
 20
-27.2686
 30
0.0
 10
-24.8292
 20
-27.2807
 30
0.0
 10
-25.8191
 20
-27.287
 30
0.0
  0
SPLINE
  5
16D
330
1F
100
AcDbEntity
  8
ILUSTRACE
 62
   250
100
AcDbSpline
210
0.0
220
0.0
230
1.0
 70
    24
 71
     3
 72
     8
 73
     4
 74
     0
 42
0.0000000001
 43
0.0000000001
 40
0.0
 40
0.0
 40
0.0
 40
0.0
 40
1.0
 40
1.0
 40
1.0
 40
1.0
 10
-19.9241
 20
-23.8541
 30
0.0
 10
-19.9241
 20
-23.8541
 30
0.0
 10
-19.9237
 20
-22.5906
 30
0.0
 10
-19.9237
 20
-22.5906
 30
0.0
  0
SPLINE
  5
16E
330
1F
100
AcDbEntity
  8
ILUSTRACE
 62
   250
100
AcDbSpline
210
0.0
220
0.0
230
1.0
 70
    24
 71
     3
 72
     8
 73
     4
 74
     0
 42
0.0000000001
 43
0.0000000001
 40
0.0
 40
0.0
 40
0.0
 40
0.0
 40
1.0
 40
1.0
 40
1.0
 40
1.0
 10
-19.9153
 20
-23.8541
 30
0.0
 10
-19.9153
 20
-23.8541
 30
0.0
 10
-19.9241
 20
-23.8541
 30
0.0
 10
-19.9241
 20
-23.8541
 30
0.0
  0
SPLINE
  5
16F
330
1F
100
AcDbEntity
  8
ILUSTRACE
 62
   250
100
AcDbSpline
210
0.0
220
0.0
230
1.0
 70
    24
 71
     3
 72
     8
 73
     4
 74
     0
 42
0.0000000001
 43
0.0000000001
 40
0.0
 40
0.0
 40
0.0
 40
0.0
 40
1.0
 40
1.0
 40
1.0
 40
1.0
 10
-19.9241
 20
-23.8541
 30
0.0
 10
-19.9241
 20
-23.8541
 30
0.0
 10
-18.3904
 20
-23.8541
 30
0.0
 10
-18.3904
 20
-23.8541
 30
0.0
  0
SPLINE
  5
170
330
1F
100
AcDbEntity
  8
ILUSTRACE
 62
   250
100
AcDbSpline
210
0.0
220
0.0
230
1.0
 70
    24
 71
     3
 72
     8
 73
     4
 74
     0
 42
0.0000000001
 43
0.0000000001
 40
0.0
 40
0.0
 40
0.0
 40
0.0
 40
1.0
 40
1.0
 40
1.0
 40
1.0
 10
-8.3638
 20
-23.8541
 30
0.0
 10
-8.3638
 20
-23.8541
 30
0.0
 10
-8.3549
 20
-23.8541
 30
0.0
 10
-8.3549
 20
-23.8541
 30
0.0
  0
SPLINE
  5
171
330
1F
100
AcDbEntity
  8
ILUSTRACE
 62
   250
100
AcDbSpline
210
0.0
220
0.0
230
1.0
 70
    24
 71
     3
 72
     8
 73
     4
 74
     0
 42
0.0000000001
 43
0.0000000001
 40
0.0
 40
0.0
 40
0.0
 40
0.0
 40
1.0
 40
1.0
 40
1.0
 40
1.0
 10
-8.3559
 20
-23.1994
 30
0.0
 10
-8.3559
 20
-23.1994
 30
0.0
 10
-8.3549
 20
-23.8541
 30
0.0
 10
-8.3549
 20
-23.8541
 30
0.0
  0
SPLINE
  5
172
330
1F
100
AcDbEntity
  8
ILUSTRACE
 62
   250
100
AcDbSpline
210
0.0
220
0.0
230
1.0
 70
    24
 71
     3
 72
     8
 73
     4
 74
     0
 42
0.0000000001
 43
0.0000000001
 40
0.0
 40
0.0
 40
0.0
 40
0.0
 40
1.0
 40
1.0
 40
1.0
 40
1.0
 10
-8.3559
 20
-23.1543
 30
0.0
 10
-8.3559
 20
-23.1543
 30
0.0
 10
-8.3549
 20
-23.2227
 30
0.0
 10
-8.3549
 20
-23.2227
 30
0.0
  0
SPLINE
  5
173
330
1F
100
AcDbEntity
  8
ILUSTRACE
 62
   250
100
AcDbSpline
210
0.0
220
0.0
230
1.0
 70
    24
 71
     3
 72
     8
 73
     4
 74
     0
 42
0.0000000001
 43
0.0000000001
 40
0.0
 40
0.0
 40
0.0
 40
0.0
 40
1.0
 40
1.0
 40
1.0
 40
1.0
 10
-19.9237
 20
-23.1543
 30
0.0
 10
-19.9237
 20
-23.1543
 30
0.0
 10
-19.9241
 20
-23.2227
 30
0.0
 10
-19.9241
 20
-23.2227
 30
0.0
  0
SPLINE
  5
174
330
1F
100
AcDbEntity
  8
ILUSTRACE
 62
   250
100
AcDbSpline
210
0.0
220
0.0
230
1.0
 70
    24
 71
     3
 72
     8
 73
     4
 74
     0
 42
0.0000000001
 43
0.0000000001
 40
0.0
 40
0.0
 40
0.0
 40
0.0
 40
1.0
 40
1.0
 40
1.0
 40
1.0
 10
-19.8029
 20
-23.2226
 30
0.0
 10
-19.8029
 20
-23.2226
 30
0.0
 10
-19.336
 20
-23.2226
 30
0.0
 10
-19.336
 20
-23.2226
 30
0.0
  0
SPLINE
  5
175
330
1F
100
AcDbEntity
  8
ILUSTRACE
 62
   250
100
AcDbSpline
210
0.0
220
0.0
230
1.0
 70
    24
 71
     3
 72
     8
 73
     4
 74
     0
 42
0.0000000001
 43
0.0000000001
 40
0.0
 40
0.0
 40
0.0
 40
0.0
 40
1.0
 40
1.0
 40
1.0
 40
1.0
 10
-19.9115
 20
-23.2227
 30
0.0
 10
-19.9115
 20
-23.2227
 30
0.0
 10
-19.9237
 20
-23.2227
 30
0.0
 10
-19.9237
 20
-23.2227
 30
0.0
  0
SPLINE
  5
176
330
1F
100
AcDbEntity
  8
ILUSTRACE
 62
   250
100
AcDbSpline
210
0.0
220
0.0
230
1.0
 70
    24
 71
     3
 72
     8
 73
     4
 74
     0
 42
0.0000000001
 43
0.0000000001
 40
0.0
 40
0.0
 40
0.0
 40
0.0
 40
1.0
 40
1.0
 40
1.0
 40
1.0
 10
-8.3549
 20
-23.2227
 30
0.0
 10
-8.3549
 20
-23.2227
 30
0.0
 10
-8.368
 20
-23.2227
 30
0.0
 10
-8.368
 20
-23.2227
 30
0.0
  0
SPLINE
  5
177
330
1F
100
AcDbEntity
  8
ILUSTRACE
 62
   250
100
AcDbSpline
210
0.0
220
0.0
230
1.0
 70
    24
 71
     3
 72
     8
 73
     4
 74
     0
 42
0.0000000001
 43
0.0000000001
 40
0.0
 40
0.0
 40
0.0
 40
0.0
 40
1.0
 40
1.0
 40
1.0
 40
1.0
 10
-8.924
 20
-23.8541
 30
0.0
 10
-8.924
 20
-23.8541
 30
0.0
 10
-8.3904
 20
-23.8541
 30
0.0
 10
-8.3904
 20
-23.8541
 30
0.0
  0
SPLINE
  5
178
330
1F
100
AcDbEntity
  8
ILUSTRACE
 62
   250
100
AcDbSpline
210
0.0
220
0.0
230
1.0
 70
    24
 71
     3
 72
     8
 73
     4
 74
     0
 42
0.0000000001
 43
0.0000000001
 40
0.0
 40
0.0
 40
0.0
 40
0.0
 40
1.0
 40
1.0
 40
1.0
 40
1.0
 10
-9.7227
 20
-24.5896
 30
0.0
 10
-9.7227
 20
-24.5896
 30
0.0
 10
-9.456
 20
-24.5896
 30
0.0
 10
-9.456
 20
-24.5896
 30
0.0
  0
SPLINE
  5
179
330
1F
100
AcDbEntity
  8
ILUSTRACE
100
AcDbSpline
210
0.0
220
0.0
230
1.0
 70
    24
 71
     3
 72
     8
 73
     4
 74
     0
 42
0.0000000001
 43
0.0000000001
 40
0.0
 40
0.0
 40
0.0
 40
0.0
 40
1.0
 40
1.0
 40
1.0
 40
1.0
 10
-27.1843
 20
25.4013
 30
0.0
 10
-27.1843
 20
25.4013
 30
0.0
 10
-31.8439
 20
25.4013
 30
0.0
 10
-31.8439
 20
25.4013
 30
0.0
  0
SPLINE
  5
17A
330
1F
100
AcDbEntity
  8
ILUSTRACE
100
AcDbSpline
210
0.0
220
0.0
230
1.0
 70
    24
 71
     3
 72
     8
 73
     4
 74
     0
 42
0.0000000001
 43
0.0000000001
 40
0.0
 40
0.0
 40
0.0
 40
0.0
 40
1.0
 40
1.0
 40
1.0
 40
1.0
 10
-21.2387
 20
25.4013
 30
0.0
 10
-21.2387
 20
25.4013
 30
0.0
 10
-32.4772
 20
25.4013
 30
0.0
 10
-32.4772
 20
25.4013
 30
0.0
  0
SPLINE
  5
17B
330
1F
100
AcDbEntity
  8
ILUSTRACE
100
AcDbSpline
210
0.0
220
0.0
230
1.0
 70
    24
 71
     3
 72
     8
 73
     4
 74
     0
 42
0.0000000001
 43
0.0000000001
 40
0.0
 40
0.0
 40
0.0
 40
0.0
 40
1.0
 40
1.0
 40
1.0
 40
1.0
 10
-32.4692
 20
25.4013
 30
0.0
 10
-32.4692
 20
25.4013
 30
0.0
 10
-32.4772
 20
25.4013
 30
0.0
 10
-32.4772
 20
25.4013
 30
0.0
  0
SPLINE
  5
17C
330
1F
100
AcDbEntity
  8
ILUSTRACE
100
AcDbSpline
210
0.0
220
0.0
230
1.0
 70
    24
 71
     3
 72
     8
 73
     4
 74
     0
 42
0.0000000001
 43
0.0000000001
 40
0.0
 40
0.0
 40
0.0
 40
0.0
 40
1.0
 40
1.0
 40
1.0
 40
1.0
 10
-32.4772
 20
22.5476
 30
0.0
 10
-32.4772
 20
22.5476
 30
0.0
 10
-32.4772
 20
25.4013
 30
0.0
 10
-32.4772
 20
25.4013
 30
0.0
  0
SPLINE
  5
17D
330
1F
100
AcDbEntity
  8
ILUSTRACE
100
AcDbSpline
210
0.0
220
0.0
230
1.0
 70
    24
 71
     3
 72
     8
 73
     4
 74
     0
 42
0.0000000001
 43
0.0000000001
 40
0.0
 40
0.0
 40
0.0
 40
0.0
 40
1.0
 40
1.0
 40
1.0
 40
1.0
 10
-32.4772
 20
22.5399
 30
0.0
 10
-32.4772
 20
22.5399
 30
0.0
 10
-32.3752
 20
22.5399
 30
0.0
 10
-32.3752
 20
22.5399
 30
0.0
  0
SPLINE
  5
17E
330
1F
100
AcDbEntity
  8
ILUSTRACE
100
AcDbSpline
210
0.0
220
0.0
230
1.0
 70
    24
 71
     3
 72
     8
 73
     4
 74
     0
 42
0.0000000001
 43
0.0000000001
 40
0.0
 40
0.0
 40
0.0
 40
0.0
 40
1.0
 40
1.0
 40
1.0
 40
1.0
 10
-32.4772
 20
22.5399
 30
0.0
 10
-32.4772
 20
22.5399
 30
0.0
 10
-32.4764
 20
22.5544
 30
0.0
 10
-32.4764
 20
22.5544
 30
0.0
  0
SPLINE
  5
17F
330
1F
100
AcDbEntity
  8
ILUSTRACE
100
AcDbSpline
210
0.0
220
0.0
230
1.0
 70
    24
 71
     3
 72
     8
 73
     4
 74
     0
 42
0.0000000001
 43
0.0000000001
 40
0.0
 40
0.0
 40
0.0
 40
0.0
 40
1.0
 40
1.0
 40
1.0
 40
1.0
 10
-21.2387
 20
22.5476
 30
0.0
 10
-21.2387
 20
22.5476
 30
0.0
 10
-21.2387
 20
25.4013
 30
0.0
 10
-21.2387
 20
25.4013
 30
0.0
  0
SPLINE
  5
180
330
1F
100
AcDbEntity
  8
ILUSTRACE
100
AcDbSpline
210
0.0
220
0.0
230
1.0
 70
    24
 71
     3
 72
     8
 73
     4
 74
     0
 42
0.0000000001
 43
0.0000000001
 40
0.0
 40
0.0
 40
0.0
 40
0.0
 40
1.0
 40
1.0
 40
1.0
 40
1.0
 10
-21.2463
 20
25.4013
 30
0.0
 10
-21.2463
 20
25.4013
 30
0.0
 10
-21.2387
 20
25.4013
 30
0.0
 10
-21.2387
 20
25.4013
 30
0.0
  0
SPLINE
  5
181
330
1F
100
AcDbEntity
  8
ILUSTRACE
100
AcDbSpline
210
0.0
220
0.0
230
1.0
 70
    24
 71
     3
 72
     8
 73
     4
 74
     0
 42
0.0000000001
 43
0.0000000001
 40
0.0
 40
0.0
 40
0.0
 40
0.0
 40
1.0
 40
1.0
 40
1.0
 40
1.0
 10
-21.2387
 20
24.722
 30
0.0
 10
-21.2387
 20
24.722
 30
0.0
 10
-21.2387
 20
24.7882
 30
0.0
 10
-21.2387
 20
24.7882
 30
0.0
  0
SPLINE
  5
182
330
1F
100
AcDbEntity
  8
ILUSTRACE
100
AcDbSpline
210
0.0
220
0.0
230
1.0
 70
    24
 71
     3
 72
     8
 73
     4
 74
     0
 42
0.0000000001
 43
0.0000000001
 40
0.0
 40
0.0
 40
0.0
 40
0.0
 40
1.0
 40
1.0
 40
1.0
 40
1.0
 10
-22.6061
 20
24.7882
 30
0.0
 10
-22.6061
 20
24.7882
 30
0.0
 10
-21.2508
 20
24.7882
 30
0.0
 10
-21.2508
 20
24.7882
 30
0.0
  0
SPLINE
  5
183
330
1F
100
AcDbEntity
  8
ILUSTRACE
100
AcDbSpline
210
0.0
220
0.0
230
1.0
 70
    24
 71
     3
 72
     8
 73
     4
 74
     0
 42
0.0000000001
 43
0.0000000001
 40
0.0
 40
0.0
 40
0.0
 40
0.0
 40
1.0
 40
1.0
 40
1.0
 40
1.0
 10
-21.3402
 20
22.5399
 30
0.0
 10
-21.3402
 20
22.5399
 30
0.0
 10
-21.2387
 20
22.5399
 30
0.0
 10
-21.2387
 20
22.5399
 30
0.0
  0
SPLINE
  5
184
330
1F
100
AcDbEntity
  8
ILUSTRACE
100
AcDbSpline
210
0.0
220
0.0
230
1.0
 70
    24
 71
     3
 72
     8
 73
     4
 74
     0
 42
0.0000000001
 43
0.0000000001
 40
0.0
 40
0.0
 40
0.0
 40
0.0
 40
1.0
 40
1.0
 40
1.0
 40
1.0
 10
-32.4772
 20
24.722
 30
0.0
 10
-32.4772
 20
24.722
 30
0.0
 10
-32.4772
 20
24.7882
 30
0.0
 10
-32.4772
 20
24.7882
 30
0.0
  0
SPLINE
  5
185
330
1F
100
AcDbEntity
  8
ILUSTRACE
100
AcDbSpline
210
0.0
220
0.0
230
1.0
 70
    24
 71
     3
 72
     8
 73
     4
 74
     0
 42
0.0000000001
 43
0.0000000001
 40
0.0
 40
0.0
 40
0.0
 40
0.0
 40
1.0
 40
1.0
 40
1.0
 40
1.0
 10
-32.4655
 20
24.7882
 30
0.0
 10
-32.4655
 20
24.7882
 30
0.0
 10
-31.1103
 20
24.7882
 30
0.0
 10
-31.1103
 20
24.7882
 30
0.0
  0
SPLINE
  5
186
330
1F
100
AcDbEntity
  8
ILUSTRACE
100
AcDbSpline
210
0.0
220
0.0
230
1.0
 70
    24
 71
     3
 72
     8
 73
     4
 74
     0
 42
0.0000000001
 43
0.0000000001
 40
0.0
 40
0.0
 40
0.0
 40
0.0
 40
1.0
 40
1.0
 40
1.0
 40
1.0
 10
-26.5321
 20
25.4013
 30
0.0
 10
-26.5321
 20
25.4013
 30
0.0
 10
-21.8716
 20
25.4013
 30
0.0
 10
-21.8716
 20
25.4013
 30
0.0
  0
SPLINE
  5
187
330
1F
100
AcDbEntity
  8
ILUSTRACE
100
AcDbSpline
210
0.0
220
0.0
230
1.0
 70
    24
 71
     3
 72
     8
 73
     4
 74
     0
 42
0.0000000001
 43
0.0000000001
 40
0.0
 40
0.0
 40
0.0
 40
0.0
 40
1.0
 40
1.0
 40
1.0
 40
1.0
 10
-21.3402
 20
22.0292
 30
0.0
 10
-21.3402
 20
22.0292
 30
0.0
 10
-32.3752
 20
22.0292
 30
0.0
 10
-32.3752
 20
22.0292
 30
0.0
  0
SPLINE
  5
188
330
1F
100
AcDbEntity
  8
ILUSTRACE
100
AcDbSpline
210
0.0
220
0.0
230
1.0
 70
    24
 71
     3
 72
     8
 73
     4
 74
     0
 42
0.0000000001
 43
0.0000000001
 40
0.0
 40
0.0
 40
0.0
 40
0.0
 40
1.0
 40
1.0
 40
1.0
 40
1.0
 10
-23.1841
 20
24.7882
 30
0.0
 10
-23.1841
 20
24.7882
 30
0.0
 10
-26.449
 20
24.7882
 30
0.0
 10
-26.449
 20
24.7882
 30
0.0
  0
SPLINE
  5
189
330
1F
100
AcDbEntity
  8
ILUSTRACE
100
AcDbSpline
210
0.0
220
0.0
230
1.0
 70
    24
 71
     3
 72
     8
 73
     4
 74
     0
 42
0.0000000001
 43
0.0000000001
 40
0.0
 40
0.0
 40
0.0
 40
0.0
 40
1.0
 40
1.0
 40
1.0
 40
1.0
 10
-27.2665
 20
22.9488
 30
0.0
 10
-27.2665
 20
22.9488
 30
0.0
 10
-27.2665
 20
24.7882
 30
0.0
 10
-27.2665
 20
24.7882
 30
0.0
  0
SPLINE
  5
18A
330
1F
100
AcDbEntity
  8
ILUSTRACE
100
AcDbSpline
210
0.0
220
0.0
230
1.0
 70
    24
 71
     3
 72
     8
 73
     4
 74
     0
 42
0.0000000001
 43
0.0000000001
 40
0.0
 40
0.0
 40
0.0
 40
0.0
 40
1.0
 40
1.0
 40
1.0
 40
1.0
 10
-30.5317
 20
24.7882
 30
0.0
 10
-30.5317
 20
24.7882
 30
0.0
 10
-27.2665
 20
24.7882
 30
0.0
 10
-27.2665
 20
24.7882
 30
0.0
  0
SPLINE
  5
18B
330
1F
100
AcDbEntity
  8
ILUSTRACE
100
AcDbSpline
210
0.0
220
0.0
230
1.0
 70
    24
 71
     3
 72
     8
 73
     4
 74
     0
 42
0.0000000001
 43
0.0000000001
 40
0.0
 40
0.0
 40
0.0
 40
0.0
 40
1.0
 40
1.0
 40
1.0
 40
1.0
 10
-32.4655
 20
24.7882
 30
0.0
 10
-32.4655
 20
24.7882
 30
0.0
 10
-32.4772
 20
24.7882
 30
0.0
 10
-32.4772
 20
24.7882
 30
0.0
  0
SPLINE
  5
18C
330
1F
100
AcDbEntity
  8
ILUSTRACE
100
AcDbSpline
210
0.0
220
0.0
230
1.0
 70
    24
 71
     3
 72
     8
 73
     4
 74
     0
 42
0.0000000001
 43
0.0000000001
 40
0.0
 40
0.0
 40
0.0
 40
0.0
 40
1.0
 40
1.0
 40
1.0
 40
1.0
 10
-21.2387
 20
24.7882
 30
0.0
 10
-21.2387
 20
24.7882
 30
0.0
 10
-21.2508
 20
24.7882
 30
0.0
 10
-21.2508
 20
24.7882
 30
0.0
  0
SPLINE
  5
18D
330
1F
100
AcDbEntity
  8
ILUSTRACE
100
AcDbSpline
210
0.0
220
0.0
230
1.0
 70
    24
 71
     3
 72
     8
 73
     4
 74
     0
 42
0.0000000001
 43
0.0000000001
 40
0.0
 40
0.0
 40
0.0
 40
0.0
 40
1.0
 40
1.0
 40
1.0
 40
1.0
 10
-21.3402
 20
22.5399
 30
0.0
 10
-21.3402
 20
22.5399
 30
0.0
 10
-21.3402
 20
22.2847
 30
0.0
 10
-21.3402
 20
22.2847
 30
0.0
  0
SPLINE
  5
18E
330
1F
100
AcDbEntity
  8
ILUSTRACE
100
AcDbSpline
210
0.0
220
0.0
230
1.0
 70
     8
 71
     3
 72
    16
 73
    12
 74
     0
 42
0.0000000001
 43
0.0000000001
 40
0.0
 40
0.0
 40
0.0
 40
0.0
 40
0.25
 40
0.25
 40
0.25
 40
0.25
 40
0.5
 40
0.5
 40
0.5
 40
0.5
 40
1.0
 40
1.0
 40
1.0
 40
1.0
 10
-21.3402
 20
22.2847
 30
0.0
 10
-21.3402
 20
22.0639
 30
0.0
 10
-21.3128
 20
21.8365
 30
0.0
 10
-21.5148
 20
21.6947
 30
0.0
 10
-21.5148
 20
21.6947
 30
0.0
 10
-21.5439
 20
21.6744
 30
0.0
 10
-21.5761
 20
21.6572
 30
0.0
 10
-21.6091
 20
21.6454
 30
0.0
 10
-21.6091
 20
21.6454
 30
0.0
 10
-21.6555
 20
21.629
 30
0.0
 10
-21.7011
 20
21.6224
 30
0.0
 10
-21.7494
 20
21.6205
 30
0.0
  0
SPLINE
  5
18F
330
1F
100
AcDbEntity
  8
ILUSTRACE
100
AcDbSpline
210
0.0
220
0.0
230
1.0
 70
    24
 71
     3
 72
    16
 73
    12
 74
     0
 42
0.0000000001
 43
0.0000000001
 40
0.0
 40
0.0
 40
0.0
 40
0.0
 40
0.25
 40
0.25
 40
0.25
 40
0.25
 40
0.5
 40
0.5
 40
0.5
 40
0.5
 40
1.0
 40
1.0
 40
1.0
 40
1.0
 10
-21.7494
 20
21.6205
 30
0.0
 10
-21.7494
 20
21.6205
 30
0.0
 10
-22.1578
 20
21.6205
 30
0.0
 10
-22.1578
 20
21.6205
 30
0.0
 10
-22.1578
 20
21.6205
 30
0.0
 10
-22.1578
 20
21.6205
 30
0.0
 10
-31.5581
 20
21.6205
 30
0.0
 10
-31.5581
 20
21.6205
 30
0.0
 10
-31.5581
 20
21.6205
 30
0.0
 10
-31.5581
 20
21.6205
 30
0.0
 10
-31.9665
 20
21.6205
 30
0.0
 10
-31.9665
 20
21.6205
 30
0.0
  0
SPLINE
  5
190
330
1F
100
AcDbEntity
  8
ILUSTRACE
100
AcDbSpline
210
0.0
220
0.0
230
1.0
 70
     8
 71
     3
 72
    16
 73
    12
 74
     0
 42
0.0000000001
 43
0.0000000001
 40
0.0
 40
0.0
 40
0.0
 40
0.0
 40
0.25
 40
0.25
 40
0.25
 40
0.25
 40
0.5
 40
0.5
 40
0.5
 40
0.5
 40
1.0
 40
1.0
 40
1.0
 40
1.0
 10
-31.9665
 20
21.6205
 30
0.0
 10
-32.0144
 20
21.6205
 30
0.0
 10
-32.0612
 20
21.629
 30
0.0
 10
-32.1067
 20
21.6454
 30
0.0
 10
-32.1067
 20
21.6454
 30
0.0
 10
-32.1402
 20
21.6572
 30
0.0
 10
-32.1716
 20
21.6744
 30
0.0
 10
-32.2011
 20
21.6947
 30
0.0
 10
-32.2011
 20
21.6947
 30
0.0
 10
-32.403
 20
21.8365
 30
0.0
 10
-32.3752
 20
22.0639
 30
0.0
 10
-32.3752
 20
22.2847
 30
0.0
  0
SPLINE
  5
191
330
1F
100
AcDbEntity
  8
ILUSTRACE
100
AcDbSpline
210
0.0
220
0.0
230
1.0
 70
    24
 71
     3
 72
     8
 73
     4
 74
     0
 42
0.0000000001
 43
0.0000000001
 40
0.0
 40
0.0
 40
0.0
 40
0.0
 40
1.0
 40
1.0
 40
1.0
 40
1.0
 10
-32.3752
 20
22.2847
 30
0.0
 10
-32.3752
 20
22.2847
 30
0.0
 10
-32.3752
 20
22.5399
 30
0.0
 10
-32.3752
 20
22.5399
 30
0.0
  0
SPLINE
  5
192
330
1F
100
AcDbEntity
  8
ILUSTRACE
100
AcDbSpline
210
0.0
220
0.0
230
1.0
 70
     8
 71
     3
 72
    12
 73
     8
 74
     0
 42
0.0000000001
 43
0.0000000001
 40
0.0
 40
0.0
 40
0.0
 40
0.0
 40
0.3333333333333333
 40
0.3333333333333333
 40
0.3333333333333333
 40
0.3333333333333333
 40
1.0
 40
1.0
 40
1.0
 40
1.0
 10
-22.9568
 20
22.5399
 30
0.0
 10
-22.9072
 20
22.5399
 30
0.0
 10
-22.858
 20
22.5359
 30
0.0
 10
-22.8104
 20
22.5544
 30
0.0
 10
-22.8104
 20
22.5544
 30
0.0
 10
-22.6577
 20
22.6125
 30
0.0
 10
-22.6085
 20
22.8032
 30
0.0
 10
-22.6061
 20
22.9488
 30
0.0
  0
SPLINE
  5
193
330
1F
100
AcDbEntity
  8
ILUSTRACE
100
AcDbSpline
210
0.0
220
0.0
230
1.0
 70
    24
 71
     3
 72
    16
 73
    12
 74
     0
 42
0.0000000001
 43
0.0000000001
 40
0.0
 40
0.0
 40
0.0
 40
0.0
 40
0.25
 40
0.25
 40
0.25
 40
0.25
 40
0.5
 40
0.5
 40
0.5
 40
0.5
 40
1.0
 40
1.0
 40
1.0
 40
1.0
 10
-22.6061
 20
22.9488
 30
0.0
 10
-22.6061
 20
22.9488
 30
0.0
 10
-22.6061
 20
23.3578
 30
0.0
 10
-22.6061
 20
23.3578
 30
0.0
 10
-22.6061
 20
23.3578
 30
0.0
 10
-22.6061
 20
23.3578
 30
0.0
 10
-22.6061
 20
24.379
 30
0.0
 10
-22.6061
 20
24.379
 30
0.0
 10
-22.6061
 20
24.379
 30
0.0
 10
-22.6061
 20
24.379
 30
0.0
 10
-22.6061
 20
24.7882
 30
0.0
 10
-22.6061
 20
24.7882
 30
0.0
  0
SPLINE
  5
194
330
1F
100
AcDbEntity
  8
ILUSTRACE
100
AcDbSpline
210
0.0
220
0.0
230
1.0
 70
     8
 71
     3
 72
    12
 73
     8
 74
     0
 42
0.0000000001
 43
0.0000000001
 40
0.0
 40
0.0
 40
0.0
 40
0.0
 40
0.3333333333333333
 40
0.3333333333333333
 40
0.3333333333333333
 40
0.3333333333333333
 40
1.0
 40
1.0
 40
1.0
 40
1.0
 10
-30.7595
 20
22.5399
 30
0.0
 10
-30.7595
 20
22.5399
 30
0.0
 10
-30.8317
 20
22.5399
 30
0.0
 10
-30.8317
 20
22.5399
 30
0.0
 10
-30.8317
 20
22.5399
 30
0.0
 10
-30.8317
 20
22.5399
 30
0.0
 10
-30.9059
 20
22.5544
 30
0.0
 10
-30.9059
 20
22.5544
 30
0.0
  0
SPLINE
  5
195
330
1F
100
AcDbEntity
  8
ILUSTRACE
100
AcDbSpline
210
0.0
220
0.0
230
1.0
 70
     8
 71
     3
 72
     8
 73
     4
 74
     0
 42
0.0000000001
 43
0.0000000001
 40
0.0
 40
0.0
 40
0.0
 40
0.0
 40
1.0
 40
1.0
 40
1.0
 40
1.0
 10
-30.9059
 20
22.5544
 30
0.0
 10
-31.0578
 20
22.6125
 30
0.0
 10
-31.1074
 20
22.8032
 30
0.0
 10
-31.1103
 20
22.9488
 30
0.0
  0
SPLINE
  5
196
330
1F
100
AcDbEntity
  8
ILUSTRACE
100
AcDbSpline
210
0.0
220
0.0
230
1.0
 70
    24
 71
     3
 72
    16
 73
    12
 74
     0
 42
0.0000000001
 43
0.0000000001
 40
0.0
 40
0.0
 40
0.0
 40
0.0
 40
0.25
 40
0.25
 40
0.25
 40
0.25
 40
0.5
 40
0.5
 40
0.5
 40
0.5
 40
1.0
 40
1.0
 40
1.0
 40
1.0
 10
-31.1103
 20
22.9488
 30
0.0
 10
-31.1103
 20
22.9488
 30
0.0
 10
-31.1103
 20
23.3578
 30
0.0
 10
-31.1103
 20
23.3578
 30
0.0
 10
-31.1103
 20
23.3578
 30
0.0
 10
-31.1103
 20
23.3578
 30
0.0
 10
-31.1103
 20
24.379
 30
0.0
 10
-31.1103
 20
24.379
 30
0.0
 10
-31.1103
 20
24.379
 30
0.0
 10
-31.1103
 20
24.379
 30
0.0
 10
-31.1103
 20
24.7882
 30
0.0
 10
-31.1103
 20
24.7882
 30
0.0
  0
SPLINE
  5
197
330
1F
100
AcDbEntity
  8
ILUSTRACE
100
AcDbSpline
210
0.0
220
0.0
230
1.0
 70
     8
 71
     3
 72
     8
 73
     4
 74
     0
 42
0.0000000001
 43
0.0000000001
 40
0.0
 40
0.0
 40
0.0
 40
0.0
 40
1.0
 40
1.0
 40
1.0
 40
1.0
 10
-21.2387
 20
22.5399
 30
0.0
 10
-21.2581
 20
22.8121
 30
0.0
 10
-21.2532
 20
23.0845
 30
0.0
 10
-21.2532
 20
23.3578
 30
0.0
  0
SPLINE
  5
198
330
1F
100
AcDbEntity
  8
ILUSTRACE
100
AcDbSpline
210
0.0
220
0.0
230
1.0
 70
    24
 71
     3
 72
    12
 73
     8
 74
     0
 42
0.0000000001
 43
0.0000000001
 40
0.0
 40
0.0
 40
0.0
 40
0.0
 40
0.3333333333333333
 40
0.3333333333333333
 40
0.3333333333333333
 40
0.3333333333333333
 40
1.0
 40
1.0
 40
1.0
 40
1.0
 10
-21.2532
 20
23.3578
 30
0.0
 10
-21.2532
 20
23.3578
 30
0.0
 10
-21.2532
 20
24.379
 30
0.0
 10
-21.2532
 20
24.379
 30
0.0
 10
-21.2532
 20
24.379
 30
0.0
 10
-21.2532
 20
24.379
 30
0.0
 10
-21.2532
 20
24.7882
 30
0.0
 10
-21.2532
 20
24.7882
 30
0.0
  0
SPLINE
  5
199
330
1F
100
AcDbEntity
  8
ILUSTRACE
100
AcDbSpline
210
0.0
220
0.0
230
1.0
 70
     8
 71
     3
 72
     8
 73
     4
 74
     0
 42
0.0000000001
 43
0.0000000001
 40
0.0
 40
0.0
 40
0.0
 40
0.0
 40
1.0
 40
1.0
 40
1.0
 40
1.0
 10
-21.3402
 20
22.5399
 30
0.0
 10
-21.3605
 20
22.8121
 30
0.0
 10
-21.356
 20
23.0845
 30
0.0
 10
-21.356
 20
23.3578
 30
0.0
  0
SPLINE
  5
19A
330
1F
100
AcDbEntity
  8
ILUSTRACE
100
AcDbSpline
210
0.0
220
0.0
230
1.0
 70
    24
 71
     3
 72
    12
 73
     8
 74
     0
 42
0.0000000001
 43
0.0000000001
 40
0.0
 40
0.0
 40
0.0
 40
0.0
 40
0.3333333333333333
 40
0.3333333333333333
 40
0.3333333333333333
 40
0.3333333333333333
 40
1.0
 40
1.0
 40
1.0
 40
1.0
 10
-21.356
 20
23.3578
 30
0.0
 10
-21.356
 20
23.3578
 30
0.0
 10
-21.356
 20
24.379
 30
0.0
 10
-21.356
 20
24.379
 30
0.0
 10
-21.356
 20
24.379
 30
0.0
 10
-21.356
 20
24.379
 30
0.0
 10
-21.356
 20
24.7882
 30
0.0
 10
-21.356
 20
24.7882
 30
0.0
  0
SPLINE
  5
19B
330
1F
100
AcDbEntity
  8
ILUSTRACE
100
AcDbSpline
210
0.0
220
0.0
230
1.0
 70
    24
 71
     3
 72
     8
 73
     4
 74
     0
 42
0.0000000001
 43
0.0000000001
 40
0.0
 40
0.0
 40
0.0
 40
0.0
 40
1.0
 40
1.0
 40
1.0
 40
1.0
 10
-22.9568
 20
22.5399
 30
0.0
 10
-22.9568
 20
22.5399
 30
0.0
 10
-23.0313
 20
22.5536
 30
0.0
 10
-23.0313
 20
22.5536
 30
0.0
  0
SPLINE
  5
19C
330
1F
100
AcDbEntity
  8
ILUSTRACE
100
AcDbSpline
210
0.0
220
0.0
230
1.0
 70
     8
 71
     3
 72
     8
 73
     4
 74
     0
 42
0.0000000001
 43
0.0000000001
 40
0.0
 40
0.0
 40
0.0
 40
0.0
 40
1.0
 40
1.0
 40
1.0
 40
1.0
 10
-23.0313
 20
22.5536
 30
0.0
 10
-23.3313
 20
22.6657
 30
0.0
 10
-23.2563
 20
23.1418
 30
0.0
 10
-23.2563
 20
23.3578
 30
0.0
  0
SPLINE
  5
19D
330
1F
100
AcDbEntity
  8
ILUSTRACE
100
AcDbSpline
210
0.0
220
0.0
230
1.0
 70
    24
 71
     3
 72
    12
 73
     8
 74
     0
 42
0.0000000001
 43
0.0000000001
 40
0.0
 40
0.0
 40
0.0
 40
0.0
 40
0.3333333333333333
 40
0.3333333333333333
 40
0.3333333333333333
 40
0.3333333333333333
 40
1.0
 40
1.0
 40
1.0
 40
1.0
 10
-23.2563
 20
23.3578
 30
0.0
 10
-23.2563
 20
23.3578
 30
0.0
 10
-23.2563
 20
24.379
 30
0.0
 10
-23.2563
 20
24.379
 30
0.0
 10
-23.2563
 20
24.379
 30
0.0
 10
-23.2563
 20
24.379
 30
0.0
 10
-23.2563
 20
24.7882
 30
0.0
 10
-23.2563
 20
24.7882
 30
0.0
  0
SPLINE
  5
19E
330
1F
100
AcDbEntity
  8
ILUSTRACE
100
AcDbSpline
210
0.0
220
0.0
230
1.0
 70
    24
 71
     3
 72
     8
 73
     4
 74
     0
 42
0.0000000001
 43
0.0000000001
 40
0.0
 40
0.0
 40
0.0
 40
0.0
 40
1.0
 40
1.0
 40
1.0
 40
1.0
 10
-22.8846
 20
22.5399
 30
0.0
 10
-22.8846
 20
22.5399
 30
0.0
 10
-22.9596
 20
22.5544
 30
0.0
 10
-22.9596
 20
22.5544
 30
0.0
  0
SPLINE
  5
19F
330
1F
100
AcDbEntity
  8
ILUSTRACE
100
AcDbSpline
210
0.0
220
0.0
230
1.0
 70
     8
 71
     3
 72
     8
 73
     4
 74
     0
 42
0.0000000001
 43
0.0000000001
 40
0.0
 40
0.0
 40
0.0
 40
0.0
 40
1.0
 40
1.0
 40
1.0
 40
1.0
 10
-22.9596
 20
22.5544
 30
0.0
 10
-23.2592
 20
22.6657
 30
0.0
 10
-23.1841
 20
23.1398
 30
0.0
 10
-23.1841
 20
23.3578
 30
0.0
  0
SPLINE
  5
1A0
330
1F
100
AcDbEntity
  8
ILUSTRACE
100
AcDbSpline
210
0.0
220
0.0
230
1.0
 70
    24
 71
     3
 72
    12
 73
     8
 74
     0
 42
0.0000000001
 43
0.0000000001
 40
0.0
 40
0.0
 40
0.0
 40
0.0
 40
0.3333333333333333
 40
0.3333333333333333
 40
0.3333333333333333
 40
0.3333333333333333
 40
1.0
 40
1.0
 40
1.0
 40
1.0
 10
-23.1841
 20
23.3578
 30
0.0
 10
-23.1841
 20
23.3578
 30
0.0
 10
-23.1841
 20
24.379
 30
0.0
 10
-23.1841
 20
24.379
 30
0.0
 10
-23.1841
 20
24.379
 30
0.0
 10
-23.1841
 20
24.379
 30
0.0
 10
-23.1841
 20
24.7882
 30
0.0
 10
-23.1841
 20
24.7882
 30
0.0
  0
SPLINE
  5
1A1
330
1F
100
AcDbEntity
  8
ILUSTRACE
100
AcDbSpline
210
0.0
220
0.0
230
1.0
 70
    24
 71
     3
 72
     8
 73
     4
 74
     0
 42
0.0000000001
 43
0.0000000001
 40
0.0
 40
0.0
 40
0.0
 40
0.0
 40
1.0
 40
1.0
 40
1.0
 40
1.0
 10
-27.2113
 20
22.7443
 30
0.0
 10
-27.2113
 20
22.7443
 30
0.0
 10
-27.2524
 20
22.8431
 30
0.0
 10
-27.2524
 20
22.8431
 30
0.0
  0
SPLINE
  5
1A2
330
1F
100
AcDbEntity
  8
ILUSTRACE
100
AcDbSpline
210
0.0
220
0.0
230
1.0
 70
     8
 71
     3
 72
     8
 73
     4
 74
     0
 42
0.0000000001
 43
0.0000000001
 40
0.0
 40
0.0
 40
0.0
 40
0.0
 40
1.0
 40
1.0
 40
1.0
 40
1.0
 10
-27.0625
 20
22.5952
 30
0.0
 10
-26.9472
 20
22.5468
 30
0.0
 10
-26.8767
 20
22.538
 30
0.0
 10
-26.7525
 20
22.5544
 30
0.0
  0
SPLINE
  5
1A3
330
1F
100
AcDbEntity
  8
ILUSTRACE
100
AcDbSpline
210
0.0
220
0.0
230
1.0
 70
    24
 71
     3
 72
    12
 73
     8
 74
     0
 42
0.0000000001
 43
0.0000000001
 40
0.0
 40
0.0
 40
0.0
 40
0.0
 40
0.3333333333333333
 40
0.3333333333333333
 40
0.3333333333333333
 40
0.3333333333333333
 40
1.0
 40
1.0
 40
1.0
 40
1.0
 10
-26.449
 20
24.7882
 30
0.0
 10
-26.449
 20
24.7882
 30
0.0
 10
-26.449
 20
24.379
 30
0.0
 10
-26.449
 20
24.379
 30
0.0
 10
-26.449
 20
24.379
 30
0.0
 10
-26.449
 20
24.379
 30
0.0
 10
-26.449
 20
23.3578
 30
0.0
 10
-26.449
 20
23.3578
 30
0.0
  0
SPLINE
  5
1A4
330
1F
100
AcDbEntity
  8
ILUSTRACE
100
AcDbSpline
210
0.0
220
0.0
230
1.0
 70
     8
 71
     3
 72
     8
 73
     4
 74
     0
 42
0.0000000001
 43
0.0000000001
 40
0.0
 40
0.0
 40
0.0
 40
0.0
 40
1.0
 40
1.0
 40
1.0
 40
1.0
 10
-26.449
 20
23.3578
 30
0.0
 10
-26.449
 20
23.1103
 30
0.0
 10
-26.4171
 20
22.9544
 30
0.0
 10
-26.5039
 20
22.7443
 30
0.0
  0
SPLINE
  5
1A5
330
1F
100
AcDbEntity
  8
ILUSTRACE
100
AcDbSpline
210
0.0
220
0.0
230
1.0
 70
    24
 71
     3
 72
    12
 73
     8
 74
     0
 42
0.0000000001
 43
0.0000000001
 40
0.0
 40
0.0
 40
0.0
 40
0.0
 40
0.3333333333333333
 40
0.3333333333333333
 40
0.3333333333333333
 40
0.3333333333333333
 40
1.0
 40
1.0
 40
1.0
 40
1.0
 10
-30.4596
 20
24.7882
 30
0.0
 10
-30.4596
 20
24.7882
 30
0.0
 10
-30.4596
 20
24.379
 30
0.0
 10
-30.4596
 20
24.379
 30
0.0
 10
-30.4596
 20
24.379
 30
0.0
 10
-30.4596
 20
24.379
 30
0.0
 10
-30.4596
 20
23.3578
 30
0.0
 10
-30.4596
 20
23.3578
 30
0.0
  0
SPLINE
  5
1A6
330
1F
100
AcDbEntity
  8
ILUSTRACE
100
AcDbSpline
210
0.0
220
0.0
230
1.0
 70
     8
 71
     3
 72
     8
 73
     4
 74
     0
 42
0.0000000001
 43
0.0000000001
 40
0.0
 40
0.0
 40
0.0
 40
0.0
 40
1.0
 40
1.0
 40
1.0
 40
1.0
 10
-30.4596
 20
23.3578
 30
0.0
 10
-30.4596
 20
23.1378
 30
0.0
 10
-30.385
 20
22.6657
 30
0.0
 10
-30.6845
 20
22.5536
 30
0.0
  0
SPLINE
  5
1A7
330
1F
100
AcDbEntity
  8
ILUSTRACE
100
AcDbSpline
210
0.0
220
0.0
230
1.0
 70
    24
 71
     3
 72
     8
 73
     4
 74
     0
 42
0.0000000001
 43
0.0000000001
 40
0.0
 40
0.0
 40
0.0
 40
0.0
 40
1.0
 40
1.0
 40
1.0
 40
1.0
 10
-30.6845
 20
22.5536
 30
0.0
 10
-30.6845
 20
22.5536
 30
0.0
 10
-30.7595
 20
22.5399
 30
0.0
 10
-30.7595
 20
22.5399
 30
0.0
  0
SPLINE
  5
1A8
330
1F
100
AcDbEntity
  8
ILUSTRACE
100
AcDbSpline
210
0.0
220
0.0
230
1.0
 70
    24
 71
     3
 72
    12
 73
     8
 74
     0
 42
0.0000000001
 43
0.0000000001
 40
0.0
 40
0.0
 40
0.0
 40
0.0
 40
0.3333333333333333
 40
0.3333333333333333
 40
0.3333333333333333
 40
0.3333333333333333
 40
1.0
 40
1.0
 40
1.0
 40
1.0
 10
-30.5317
 20
24.7882
 30
0.0
 10
-30.5317
 20
24.7882
 30
0.0
 10
-30.5317
 20
24.379
 30
0.0
 10
-30.5317
 20
24.379
 30
0.0
 10
-30.5317
 20
24.379
 30
0.0
 10
-30.5317
 20
24.379
 30
0.0
 10
-30.5317
 20
23.3578
 30
0.0
 10
-30.5317
 20
23.3578
 30
0.0
  0
SPLINE
  5
1A9
330
1F
100
AcDbEntity
  8
ILUSTRACE
100
AcDbSpline
210
0.0
220
0.0
230
1.0
 70
     8
 71
     3
 72
     8
 73
     4
 74
     0
 42
0.0000000001
 43
0.0000000001
 40
0.0
 40
0.0
 40
0.0
 40
0.0
 40
1.0
 40
1.0
 40
1.0
 40
1.0
 10
-30.5317
 20
23.3578
 30
0.0
 10
-30.5317
 20
23.1398
 30
0.0
 10
-30.4572
 20
22.6657
 30
0.0
 10
-30.7559
 20
22.5544
 30
0.0
  0
SPLINE
  5
1AA
330
1F
100
AcDbEntity
  8
ILUSTRACE
100
AcDbSpline
210
0.0
220
0.0
230
1.0
 70
    24
 71
     3
 72
     8
 73
     4
 74
     0
 42
0.0000000001
 43
0.0000000001
 40
0.0
 40
0.0
 40
0.0
 40
0.0
 40
1.0
 40
1.0
 40
1.0
 40
1.0
 10
-30.7559
 20
22.5544
 30
0.0
 10
-30.7559
 20
22.5544
 30
0.0
 10
-30.8317
 20
22.5399
 30
0.0
 10
-30.8317
 20
22.5399
 30
0.0
  0
SPLINE
  5
1AB
330
1F
100
AcDbEntity
  8
ILUSTRACE
100
AcDbSpline
210
0.0
220
0.0
230
1.0
 70
    24
 71
     3
 72
    12
 73
     8
 74
     0
 42
0.0000000001
 43
0.0000000001
 40
0.0
 40
0.0
 40
0.0
 40
0.0
 40
0.3333333333333333
 40
0.3333333333333333
 40
0.3333333333333333
 40
0.3333333333333333
 40
1.0
 40
1.0
 40
1.0
 40
1.0
 10
-32.4627
 20
24.7882
 30
0.0
 10
-32.4627
 20
24.7882
 30
0.0
 10
-32.4627
 20
24.379
 30
0.0
 10
-32.4627
 20
24.379
 30
0.0
 10
-32.4627
 20
24.379
 30
0.0
 10
-32.4627
 20
24.379
 30
0.0
 10
-32.4627
 20
23.3578
 30
0.0
 10
-32.4627
 20
23.3578
 30
0.0
  0
SPLINE
  5
1AC
330
1F
100
AcDbEntity
  8
ILUSTRACE
100
AcDbSpline
210
0.0
220
0.0
230
1.0
 70
     8
 71
     3
 72
     8
 73
     4
 74
     0
 42
0.0000000001
 43
0.0000000001
 40
0.0
 40
0.0
 40
0.0
 40
0.0
 40
1.0
 40
1.0
 40
1.0
 40
1.0
 10
-32.4627
 20
23.3578
 30
0.0
 10
-32.4627
 20
23.0894
 30
0.0
 10
-32.4583
 20
22.8217
 30
0.0
 10
-32.4764
 20
22.5544
 30
0.0
  0
SPLINE
  5
1AD
330
1F
100
AcDbEntity
  8
ILUSTRACE
100
AcDbSpline
210
0.0
220
0.0
230
1.0
 70
     8
 71
     3
 72
     8
 73
     4
 74
     0
 42
0.0000000001
 43
0.0000000001
 40
0.0
 40
0.0
 40
0.0
 40
0.0
 40
1.0
 40
1.0
 40
1.0
 40
1.0
 10
-32.3752
 20
22.5399
 30
0.0
 10
-32.355
 20
22.8121
 30
0.0
 10
-32.3599
 20
23.0845
 30
0.0
 10
-32.3599
 20
23.3578
 30
0.0
  0
SPLINE
  5
1AE
330
1F
100
AcDbEntity
  8
ILUSTRACE
100
AcDbSpline
210
0.0
220
0.0
230
1.0
 70
    24
 71
     3
 72
    12
 73
     8
 74
     0
 42
0.0000000001
 43
0.0000000001
 40
0.0
 40
0.0
 40
0.0
 40
0.0
 40
0.3333333333333333
 40
0.3333333333333333
 40
0.3333333333333333
 40
0.3333333333333333
 40
1.0
 40
1.0
 40
1.0
 40
1.0
 10
-32.3599
 20
23.3578
 30
0.0
 10
-32.3599
 20
23.3578
 30
0.0
 10
-32.3599
 20
24.379
 30
0.0
 10
-32.3599
 20
24.379
 30
0.0
 10
-32.3599
 20
24.379
 30
0.0
 10
-32.3599
 20
24.379
 30
0.0
 10
-32.3599
 20
24.7882
 30
0.0
 10
-32.3599
 20
24.7882
 30
0.0
  0
SPLINE
  5
1AF
330
1F
100
AcDbEntity
  8
ILUSTRACE
100
AcDbSpline
210
0.0
220
0.0
230
1.0
 70
     8
 71
     3
 72
     8
 73
     4
 74
     0
 42
0.0000000001
 43
0.0000000001
 40
0.0
 40
0.0
 40
0.0
 40
0.0
 40
1.0
 40
1.0
 40
1.0
 40
1.0
 10
-27.0622
 20
22.5952
 30
0.0
 10
-27.175
 20
22.6815
 30
0.0
 10
-27.125
 20
22.6319
 30
0.0
 10
-27.2116
 20
22.7443
 30
0.0
  0
SPLINE
  5
1B0
330
1F
100
AcDbEntity
  8
ILUSTRACE
100
AcDbSpline
210
0.0
220
0.0
230
1.0
 70
     8
 71
     3
 72
     8
 73
     4
 74
     0
 42
0.0000000001
 43
0.0000000001
 40
0.0
 40
0.0
 40
0.0
 40
0.0
 40
1.0
 40
1.0
 40
1.0
 40
1.0
 10
-26.5039
 20
22.7443
 30
0.0
 10
-26.58
 20
22.6456
 30
0.0
 10
-26.6369
 20
22.6021
 30
0.0
 10
-26.7525
 20
22.5544
 30
0.0
  0
SPLINE
  5
1B1
330
1F
100
AcDbEntity
  8
ILUSTRACE
100
AcDbSpline
210
0.0
220
0.0
230
1.0
 70
    24
 71
     3
 72
     8
 73
     4
 74
     0
 42
0.0000000001
 43
0.0000000001
 40
0.0
 40
0.0
 40
0.0
 40
0.0
 40
1.0
 40
1.0
 40
1.0
 40
1.0
 10
-31.6601
 20
25.4013
 30
0.0
 10
-31.6601
 20
25.4013
 30
0.0
 10
-31.6601
 20
26.3207
 30
0.0
 10
-31.6601
 20
26.3207
 30
0.0
  0
SPLINE
  5
1B2
330
1F
100
AcDbEntity
  8
ILUSTRACE
100
AcDbSpline
210
0.0
220
0.0
230
1.0
 70
    24
 71
     3
 72
     8
 73
     4
 74
     0
 42
0.0000000001
 43
0.0000000001
 40
0.0
 40
0.0
 40
0.0
 40
0.0
 40
1.0
 40
1.0
 40
1.0
 40
1.0
 10
-31.6601
 20
26.3207
 30
0.0
 10
-31.6601
 20
26.3207
 30
0.0
 10
-22.0555
 20
26.3207
 30
0.0
 10
-22.0555
 20
26.3207
 30
0.0
  0
SPLINE
  5
1B3
330
1F
100
AcDbEntity
  8
ILUSTRACE
100
AcDbSpline
210
0.0
220
0.0
230
1.0
 70
    24
 71
     3
 72
     8
 73
     4
 74
     0
 42
0.0000000001
 43
0.0000000001
 40
0.0
 40
0.0
 40
0.0
 40
0.0
 40
1.0
 40
1.0
 40
1.0
 40
1.0
 10
-22.0555
 20
25.4013
 30
0.0
 10
-22.0555
 20
25.4013
 30
0.0
 10
-22.0555
 20
26.3207
 30
0.0
 10
-22.0555
 20
26.3207
 30
0.0
  0
SPLINE
  5
1B4
330
1F
100
AcDbEntity
  8
ILUSTRACE
100
AcDbSpline
210
0.0
220
0.0
230
1.0
 70
    24
 71
     3
 72
     8
 73
     4
 74
     0
 42
0.0000000001
 43
0.0000000001
 40
0.0
 40
0.0
 40
0.0
 40
0.0
 40
1.0
 40
1.0
 40
1.0
 40
1.0
 10
-30.9446
 20
21.6205
 30
0.0
 10
-30.9446
 20
21.6205
 30
0.0
 10
-30.9446
 20
-13.7535
 30
0.0
 10
-30.9446
 20
-13.7535
 30
0.0
  0
SPLINE
  5
1B5
330
1F
100
AcDbEntity
  8
ILUSTRACE
100
AcDbSpline
210
0.0
220
0.0
230
1.0
 70
    24
 71
     3
 72
     8
 73
     4
 74
     0
 42
0.0000000001
 43
0.0000000001
 40
0.0
 40
0.0
 40
0.0
 40
0.0
 40
1.0
 40
1.0
 40
1.0
 40
1.0
 10
-22.7714
 20
21.6205
 30
0.0
 10
-22.7714
 20
21.6205
 30
0.0
 10
-22.7714
 20
-13.7175
 30
0.0
 10
-22.7714
 20
-13.7175
 30
0.0
  0
SPLINE
  5
1B6
330
1F
100
AcDbEntity
  8
ILUSTRACE
100
AcDbSpline
210
0.0
220
0.0
230
1.0
 70
    24
 71
     3
 72
     8
 73
     4
 74
     0
 42
0.0000000001
 43
0.0000000001
 40
0.0
 40
0.0
 40
0.0
 40
0.0
 40
1.0
 40
1.0
 40
1.0
 40
1.0
 10
-31.623
 20
25.5779
 30
0.0
 10
-31.623
 20
25.5779
 30
0.0
 10
-22.0837
 20
25.727
 30
0.0
 10
-22.0837
 20
25.727
 30
0.0
  0
SPLINE
  5
1B7
330
1F
100
AcDbEntity
  8
ILUSTRACE
100
AcDbSpline
210
0.0
220
0.0
230
1.0
 70
    24
 71
     3
 72
     8
 73
     4
 74
     0
 42
0.0000000001
 43
0.0000000001
 40
0.0
 40
0.0
 40
0.0
 40
0.0
 40
1.0
 40
1.0
 40
1.0
 40
1.0
 10
-31.623
 20
25.9051
 30
0.0
 10
-31.623
 20
25.9051
 30
0.0
 10
-22.0837
 20
26.0544
 30
0.0
 10
-22.0837
 20
26.0544
 30
0.0
  0
SPLINE
  5
1B8
330
1F
100
AcDbEntity
  8
ILUSTRACE
 62
   250
100
AcDbSpline
210
0.0
220
0.0
230
1.0
 70
    24
 71
     3
 72
     8
 73
     4
 74
     0
 42
0.0000000001
 43
0.0000000001
 40
0.0
 40
0.0
 40
0.0
 40
0.0
 40
1.0
 40
1.0
 40
1.0
 40
1.0
 10
-36.0576
 20
33.351
 30
0.0
 10
-36.0576
 20
33.351
 30
0.0
 10
-17.5244
 20
33.351
 30
0.0
 10
-17.5244
 20
33.351
 30
0.0
  0
SPLINE
  5
1B9
330
1F
100
AcDbEntity
  8
ILUSTRACE
 62
   250
100
AcDbSpline
210
0.0
220
0.0
230
1.0
 70
    24
 71
     3
 72
     8
 73
     4
 74
     0
 42
0.0000000001
 43
0.0000000001
 40
0.0
 40
0.0
 40
0.0
 40
0.0
 40
1.0
 40
1.0
 40
1.0
 40
1.0
 10
-31.6916
 20
26.552
 30
0.0
 10
-31.6916
 20
26.552
 30
0.0
 10
-31.6916
 20
27.4176
 30
0.0
 10
-31.6916
 20
27.4176
 30
0.0
  0
SPLINE
  5
1BA
330
1F
100
AcDbEntity
  8
ILUSTRACE
 62
   250
100
AcDbSpline
210
0.0
220
0.0
230
1.0
 70
    24
 71
     3
 72
     8
 73
     4
 74
     0
 42
0.0000000001
 43
0.0000000001
 40
0.0
 40
0.0
 40
0.0
 40
0.0
 40
1.0
 40
1.0
 40
1.0
 40
1.0
 10
-22.0285
 20
26.5615
 30
0.0
 10
-22.0285
 20
26.5615
 30
0.0
 10
-22.0285
 20
27.3197
 30
0.0
 10
-22.0285
 20
27.3197
 30
0.0
  0
SPLINE
  5
1BB
330
1F
100
AcDbEntity
  8
ILUSTRACE
 62
   250
100
AcDbSpline
210
0.0
220
0.0
230
1.0
 70
    11
 71
     3
 72
    20
 73
    16
 74
     0
 42
0.0000000001
 43
0.0000000001
 40
0.0
 40
0.0
 40
0.0
 40
0.0
 40
0.2
 40
0.2
 40
0.2
 40
0.2
 40
0.4
 40
0.4
 40
0.4
 40
0.4
 40
0.6
 40
0.6
 40
0.6
 40
0.6
 40
1.0
 40
1.0
 40
1.0
 40
1.0
 10
-18.9845
 20
32.913
 30
0.0
 10
-18.9845
 20
32.913
 30
0.0
 10
-21.9845
 20
33.3363
 30
0.0
 10
-21.9845
 20
33.3363
 30
0.0
 10
-21.9845
 20
33.3363
 30
0.0
 10
-21.9845
 20
33.3363
 30
0.0
 10
-21.9845
 20
33.4304
 30
0.0
 10
-21.9845
 20
33.4304
 30
0.0
 10
-21.9845
 20
33.4304
 30
0.0
 10
-21.9845
 20
33.4304
 30
0.0
 10
-18.9845
 20
33.8819
 30
0.0
 10
-18.9845
 20
33.8819
 30
0.0
 10
-18.9845
 20
33.8819
 30
0.0
 10
-18.9845
 20
33.8819
 30
0.0
 10
-18.9845
 20
32.913
 30
0.0
 10
-18.9845
 20
32.913
 30
0.0
  0
SPLINE
  5
1BC
330
1F
100
AcDbEntity
  8
ILUSTRACE
 62
   250
100
AcDbSpline
210
0.0
220
0.0
230
1.0
 70
    11
 71
     3
 72
    20
 73
    16
 74
     0
 42
0.0000000001
 43
0.0000000001
 40
0.0
 40
0.0
 40
0.0
 40
0.0
 40
0.2
 40
0.2
 40
0.2
 40
0.2
 40
0.4
 40
0.4
 40
0.4
 40
0.4
 40
0.6
 40
0.6
 40
0.6
 40
0.6
 40
1.0
 40
1.0
 40
1.0
 40
1.0
 10
-34.7665
 20
33.8292
 30
0.0
 10
-34.7665
 20
33.8292
 30
0.0
 10
-31.7665
 20
33.4057
 30
0.0
 10
-31.7665
 20
33.4057
 30
0.0
 10
-31.7665
 20
33.4057
 30
0.0
 10
-31.7665
 20
33.4057
 30
0.0
 10
-31.7665
 20
33.3117
 30
0.0
 10
-31.7665
 20
33.3117
 30
0.0
 10
-31.7665
 20
33.3117
 30
0.0
 10
-31.7665
 20
33.3117
 30
0.0
 10
-34.7665
 20
32.8601
 30
0.0
 10
-34.7665
 20
32.8601
 30
0.0
 10
-34.7665
 20
32.8601
 30
0.0
 10
-34.7665
 20
32.8601
 30
0.0
 10
-34.7665
 20
33.8292
 30
0.0
 10
-34.7665
 20
33.8292
 30
0.0
  0
SPLINE
  5
1BD
330
1F
100
AcDbEntity
  8
ILUSTRACE
 62
   250
100
AcDbSpline
210
0.0
220
0.0
230
1.0
 70
    11
 71
     3
 72
   120
 73
   116
 74
     0
 42
0.0000000001
 43
0.0000000001
 40
0.0
 40
0.0
 40
0.0
 40
0.0
 40
0.0333333333333333
 40
0.0333333333333333
 40
0.0333333333333333
 40
0.0333333333333333
 40
0.0666666666666667
 40
0.0666666666666667
 40
0.0666666666666667
 40
0.0666666666666667
 40
0.1
 40
0.1
 40
0.1
 40
0.1
 40
0.1333333333333333
 40
0.1333333333333333
 40
0.1333333333333333
 40
0.1333333333333333
 40
0.1666666666666667
 40
0.1666666666666667
 40
0.1666666666666667
 40
0.1666666666666667
 40
0.2
 40
0.2
 40
0.2
 40
0.2
 40
0.2333333333333333
 40
0.2333333333333333
 40
0.2333333333333333
 40
0.2333333333333333
 40
0.2666666666666667
 40
0.2666666666666667
 40
0.2666666666666667
 40
0.2666666666666667
 40
0.3
 40
0.3
 40
0.3
 40
0.3
 40
0.3333333333333333
 40
0.3333333333333333
 40
0.3333333333333333
 40
0.3333333333333333
 40
0.3666666666666666
 40
0.3666666666666666
 40
0.3666666666666666
 40
0.3666666666666666
 40
0.4
 40
0.4
 40
0.4
 40
0.4
 40
0.4333333333333333
 40
0.4333333333333333
 40
0.4333333333333333
 40
0.4333333333333333
 40
0.4666666666666667
 40
0.4666666666666667
 40
0.4666666666666667
 40
0.4666666666666667
 40
0.5
 40
0.5
 40
0.5
 40
0.5
 40
0.5333333333333333
 40
0.5333333333333333
 40
0.5333333333333333
 40
0.5333333333333333
 40
0.5666666666666667
 40
0.5666666666666667
 40
0.5666666666666667
 40
0.5666666666666667
 40
0.6
 40
0.6
 40
0.6
 40
0.6
 40
0.6333333333333333
 40
0.6333333333333333
 40
0.6333333333333333
 40
0.6333333333333333
 40
0.6666666666666666
 40
0.6666666666666666
 40
0.6666666666666666
 40
0.6666666666666666
 40
0.7
 40
0.7
 40
0.7
 40
0.7
 40
0.7333333333333333
 40
0.7333333333333333
 40
0.7333333333333333
 40
0.7333333333333333
 40
0.7666666666666667
 40
0.7666666666666667
 40
0.7666666666666667
 40
0.7666666666666667
 40
0.8
 40
0.8
 40
0.8
 40
0.8
 40
0.8333333333333334
 40
0.8333333333333334
 40
0.8333333333333334
 40
0.8333333333333334
 40
0.8666666666666667
 40
0.8666666666666667
 40
0.8666666666666667
 40
0.8666666666666667
 40
0.9
 40
0.9
 40
0.9
 40
0.9
 40
0.9333333333333333
 40
0.9333333333333333
 40
0.9333333333333333
 40
0.9333333333333333
 40
1.0
 40
1.0
 40
1.0
 40
1.0
 10
-29.4904
 20
34.9247
 30
0.0
 10
-29.4904
 20
34.9247
 30
0.0
 10
-29.4904
 20
35.2205
 30
0.0
 10
-29.4904
 20
35.2205
 30
0.0
 10
-29.4904
 20
35.2205
 30
0.0
 10
-29.4904
 20
35.2205
 30
0.0
 10
-28.4209
 20
35.2222
 30
0.0
 10
-28.4209
 20
35.2222
 30
0.0
 10
-28.4209
 20
35.2222
 30
0.0
 10
-28.4209
 20
35.2222
 30
0.0
 10
-28.4209
 20
34.2856
 30
0.0
 10
-28.4209
 20
34.2856
 30
0.0
 10
-28.4209
 20
34.2856
 30
0.0
 10
-28.5849
 20
34.1545
 30
0.0
 10
-28.7543
 20
34.0563
 30
0.0
 10
-28.9289
 20
33.9899
 30
0.0
 10
-28.9289
 20
33.9899
 30
0.0
 10
-29.1035
 20
33.924
 30
0.0
 10
-29.2828
 20
33.8911
 30
0.0
 10
-29.4663
 20
33.8911
 30
0.0
 10
-29.4663
 20
33.8911
 30
0.0
 10
-29.7144
 20
33.8911
 30
0.0
 10
-29.9402
 20
33.944
 30
0.0
 10
-30.1424
 20
34.0504
 30
0.0
 10
-30.1424
 20
34.0504
 30
0.0
 10
-30.3453
 20
34.1562
 30
0.0
 10
-30.4981
 20
34.3103
 30
0.0
 10
-30.6016
 20
34.5108
 30
0.0
 10
-30.6016
 20
34.5108
 30
0.0
 10
-30.7051
 20
34.7119
 30
0.0
 10
-30.7568
 20
34.9365
 30
0.0
 10
-30.7568
 20
35.1846
 30
0.0
 10
-30.7568
 20
35.1846
 30
0.0
 10
-30.7568
 20
35.4304
 30
0.0
 10
-30.7051
 20
35.6597
 30
0.0
 10
-30.6022
 20
35.8725
 30
0.0
 10
-30.6022
 20
35.8725
 30
0.0
 10
-30.4999
 20
36.0859
 30
0.0
 10
-30.3517
 20
36.2441
 30
0.0
 10
-30.1589
 20
36.3476
 30
0.0
 10
-30.1589
 20
36.3476
 30
0.0
 10
-29.966
 20
36.4505
 30
0.0
 10
-29.7438
 20
36.5022
 30
0.0
 10
-29.4921
 20
36.5022
 30
0.0
 10
-29.4921
 20
36.5022
 30
0.0
 10
-29.3099
 20
36.5022
 30
0.0
 10
-29.1447
 20
36.4728
 30
0.0
 10
-28.9971
 20
36.4134
 30
0.0
 10
-28.9971
 20
36.4134
 30
0.0
 10
-28.8495
 20
36.3546
 30
0.0
 10
-28.7337
 20
36.2723
 30
0.0
 10
-28.6502
 20
36.1665
 30
0.0
 10
-28.6502
 20
36.1665
 30
0.0
 10
-28.5661
 20
36.0606
 30
0.0
 10
-28.5026
 20
35.9231
 30
0.0
 10
-28.4585
 20
35.7532
 30
0.0
 10
-28.4585
 20
35.7532
 30
0.0
 10
-28.4585
 20
35.7532
 30
0.0
 10
-28.7601
 20
35.6702
 30
0.0
 10
-28.7601
 20
35.6702
 30
0.0
 10
-28.7601
 20
35.6702
 30
0.0
 10
-28.7983
 20
35.799
 30
0.0
 10
-28.8454
 20
35.9001
 30
0.0
 10
-28.9012
 20
35.9736
 30
0.0
 10
-28.9012
 20
35.9736
 30
0.0
 10
-28.9577
 20
36.0471
 30
0.0
 10
-29.0382
 20
36.1059
 30
0.0
 10
-29.1429
 20
36.15
 30
0.0
 10
-29.1429
 20
36.15
 30
0.0
 10
-29.247
 20
36.1941
 30
0.0
 10
-29.3634
 20
36.2165
 30
0.0
 10
-29.4904
 20
36.2165
 30
0.0
 10
-29.4904
 20
36.2165
 30
0.0
 10
-29.6432
 20
36.2165
 30
0.0
 10
-29.7755
 20
36.1929
 30
0.0
 10
-29.8866
 20
36.1465
 30
0.0
 10
-29.8866
 20
36.1465
 30
0.0
 10
-29.9984
 20
36.1001
 30
0.0
 10
-30.0878
 20
36.0389
 30
0.0
 10
-30.1565
 20
35.9631
 30
0.0
 10
-30.1565
 20
35.9631
 30
0.0
 10
-30.2247
 20
35.8872
 30
0.0
 10
-30.2777
 20
35.8043
 30
0.0
 10
-30.3159
 20
35.7132
 30
0.0
 10
-30.3159
 20
35.7132
 30
0.0
 10
-30.38
 20
35.5574
 30
0.0
 10
-30.4123
 20
35.388
 30
0.0
 10
-30.4123
 20
35.2052
 30
0.0
 10
-30.4123
 20
35.2052
 30
0.0
 10
-30.4123
 20
34.98
 30
0.0
 10
-30.3735
 20
34.7918
 30
0.0
 10
-30.2959
 20
34.6401
 30
0.0
 10
-30.2959
 20
34.6401
 30
0.0
 10
-30.2183
 20
34.4884
 30
0.0
 10
-30.1054
 20
34.3762
 30
0.0
 10
-29.9572
 20
34.3027
 30
0.0
 10
-29.9572
 20
34.3027
 30
0.0
 10
-29.8091
 20
34.2292
 30
0.0
 10
-29.6521
 20
34.1921
 30
0.0
 10
-29.4857
 20
34.1921
 30
0.0
 10
-29.4857
 20
34.1921
 30
0.0
 10
-29.3404
 20
34.1921
 30
0.0
 10
-29.1993
 20
34.2203
 30
0.0
 10
-29.0617
 20
34.2762
 30
0.0
 10
-29.0617
 20
34.2762
 30
0.0
 10
-28.9236
 20
34.3315
 30
0.0
 10
-28.8195
 20
34.3909
 30
0.0
 10
-28.7484
 20
34.4544
 30
0.0
 10
-28.7484
 20
34.4544
 30
0.0
 10
-28.7484
 20
34.4544
 30
0.0
 10
-28.7484
 20
34.9247
 30
0.0
 10
-28.7484
 20
34.9247
 30
0.0
 10
-28.7484
 20
34.9247
 30
0.0
 10
-28.7484
 20
34.9247
 30
0.0
 10
-29.4904
 20
34.9247
 30
0.0
 10
-29.4904
 20
34.9247
 30
0.0
  0
SPLINE
  5
1BE
330
1F
100
AcDbEntity
  8
ILUSTRACE
 62
   250
100
AcDbSpline
210
0.0
220
0.0
230
1.0
 70
    11
 71
     3
 72
    80
 73
    76
 74
     0
 42
0.0000000001
 43
0.0000000001
 40
0.0
 40
0.0
 40
0.0
 40
0.0
 40
0.05
 40
0.05
 40
0.05
 40
0.05
 40
0.1
 40
0.1
 40
0.1
 40
0.1
 40
0.15
 40
0.15
 40
0.15
 40
0.15
 40
0.2
 40
0.2
 40
0.2
 40
0.2
 40
0.25
 40
0.25
 40
0.25
 40
0.25
 40
0.3
 40
0.3
 40
0.3
 40
0.3
 40
0.35
 40
0.35
 40
0.35
 40
0.35
 40
0.4
 40
0.4
 40
0.4
 40
0.4
 40
0.45
 40
0.45
 40
0.45
 40
0.45
 40
0.5
 40
0.5
 40
0.5
 40
0.5
 40
0.55
 40
0.55
 40
0.55
 40
0.55
 40
0.6
 40
0.6
 40
0.6
 40
0.6
 40
0.65
 40
0.65
 40
0.65
 40
0.65
 40
0.7
 40
0.7
 40
0.7
 40
0.7
 40
0.75
 40
0.75
 40
0.75
 40
0.75
 40
0.8
 40
0.8
 40
0.8
 40
0.8
 40
0.85
 40
0.85
 40
0.85
 40
0.85
 40
0.9
 40
0.9
 40
0.9
 40
0.9
 40
1.0
 40
1.0
 40
1.0
 40
1.0
 10
-26.4453
 20
35.8408
 30
0.0
 10
-26.4453
 20
35.8408
 30
0.0
 10
-26.7534
 20
35.8167
 30
0.0
 10
-26.7534
 20
35.8167
 30
0.0
 10
-26.7534
 20
35.8167
 30
0.0
 10
-26.7811
 20
35.9384
 30
0.0
 10
-26.8199
 20
36.0271
 30
0.0
 10
-26.8704
 20
36.0818
 30
0.0
 10
-26.8704
 20
36.0818
 30
0.0
 10
-26.9545
 20
36.1706
 30
0.0
 10
-27.058
 20
36.2147
 30
0.0
 10
-27.1809
 20
36.2147
 30
0.0
 10
-27.1809
 20
36.2147
 30
0.0
 10
-27.2796
 20
36.2147
 30
0.0
 10
-27.3661
 20
36.1871
 30
0.0
 10
-27.4407
 20
36.1318
 30
0.0
 10
-27.4407
 20
36.1318
 30
0.0
 10
-27.5383
 20
36.0606
 30
0.0
 10
-27.6154
 20
35.9566
 30
0.0
 10
-27.6718
 20
35.8202
 30
0.0
 10
-27.6718
 20
35.8202
 30
0.0
 10
-27.7277
 20
35.6838
 30
0.0
 10
-27.7571
 20
35.4892
 30
0.0
 10
-27.7594
 20
35.2363
 30
0.0
 10
-27.7594
 20
35.2363
 30
0.0
 10
-27.6847
 20
35.3498
 30
0.0
 10
-27.5936
 20
35.4345
 30
0.0
 10
-27.4854
 20
35.4897
 30
0.0
 10
-27.4854
 20
35.4897
 30
0.0
 10
-27.3778
 20
35.5444
 30
0.0
 10
-27.2643
 20
35.5721
 30
0.0
 10
-27.1462
 20
35.5721
 30
0.0
 10
-27.1462
 20
35.5721
 30
0.0
 10
-26.9392
 20
35.5721
 30
0.0
 10
-26.7634
 20
35.4962
 30
0.0
 10
-26.6182
 20
35.3439
 30
0.0
 10
-26.6182
 20
35.3439
 30
0.0
 10
-26.473
 20
35.1916
 30
0.0
 10
-26.4001
 20
34.9953
 30
0.0
 10
-26.4001
 20
34.7542
 30
0.0
 10
-26.4001
 20
34.7542
 30
0.0
 10
-26.4001
 20
34.5954
 30
0.0
 10
-26.4347
 20
34.4485
 30
0.0
 10
-26.5029
 20
34.3121
 30
0.0
 10
-26.5029
 20
34.3121
 30
0.0
 10
-26.5712
 20
34.1762
 30
0.0
 10
-26.6652
 20
34.0716
 30
0.0
 10
-26.7846
 20
33.9993
 30
0.0
 10
-26.7846
 20
33.9993
 30
0.0
 10
-26.9039
 20
33.927
 30
0.0
 10
-27.0392
 20
33.8911
 30
0.0
 10
-27.1909
 20
33.8911
 30
0.0
 10
-27.1909
 20
33.8911
 30
0.0
 10
-27.4496
 20
33.8911
 30
0.0
 10
-27.6601
 20
33.9857
 30
0.0
 10
-27.8229
 20
34.1762
 30
0.0
 10
-27.8229
 20
34.1762
 30
0.0
 10
-27.9864
 20
34.3662
 30
0.0
 10
-28.0675
 20
34.6795
 30
0.0
 10
-28.0675
 20
35.1158
 30
0.0
 10
-28.0675
 20
35.1158
 30
0.0
 10
-28.0675
 20
35.6038
 30
0.0
 10
-27.9776
 20
35.9584
 30
0.0
 10
-27.7971
 20
36.18
 30
0.0
 10
-27.7971
 20
36.18
 30
0.0
 10
-27.6401
 20
36.3729
 30
0.0
 10
-27.4284
 20
36.4699
 30
0.0
 10
-27.1615
 20
36.4699
 30
0.0
 10
-27.1615
 20
36.4699
 30
0.0
 10
-26.9633
 20
36.4699
 30
0.0
 10
-26.8005
 20
36.414
 30
0.0
 10
-26.6734
 20
36.3023
 30
0.0
 10
-26.6734
 20
36.3023
 30
0.0
 10
-26.5465
 20
36.1912
 30
0.0
 10
-26.4706
 20
36.0371
 30
0.0
 10
-26.4453
 20
35.8408
 30
0.0
  0
SPLINE
  5
1BF
330
1F
100
AcDbEntity
  8
ILUSTRACE
 62
   250
100
AcDbSpline
210
0.0
220
0.0
230
1.0
 70
    11
 71
     3
 72
    40
 73
    36
 74
     0
 42
0.0000000001
 43
0.0000000001
 40
0.0
 40
0.0
 40
0.0
 40
0.0
 40
0.1
 40
0.1
 40
0.1
 40
0.1
 40
0.2
 40
0.2
 40
0.2
 40
0.2
 40
0.3
 40
0.3
 40
0.3
 40
0.3
 40
0.4
 40
0.4
 40
0.4
 40
0.4
 40
0.5
 40
0.5
 40
0.5
 40
0.5
 40
0.6
 40
0.6
 40
0.6
 40
0.6
 40
0.7
 40
0.7
 40
0.7
 40
0.7
 40
0.8
 40
0.8
 40
0.8
 40
0.8
 40
1.0
 40
1.0
 40
1.0
 40
1.0
 10
-27.7112
 20
34.7524
 30
0.0
 10
-27.7112
 20
34.6454
 30
0.0
 10
-27.6883
 20
34.5431
 30
0.0
 10
-27.643
 20
34.4455
 30
0.0
 10
-27.643
 20
34.4455
 30
0.0
 10
-27.5977
 20
34.3479
 30
0.0
 10
-27.5342
 20
34.2738
 30
0.0
 10
-27.4531
 20
34.2227
 30
0.0
 10
-27.4531
 20
34.2227
 30
0.0
 10
-27.3714
 20
34.1715
 30
0.0
 10
-27.2855
 20
34.1457
 30
0.0
 10
-27.1962
 20
34.1457
 30
0.0
 10
-27.1962
 20
34.1457
 30
0.0
 10
-27.065
 20
34.1457
 30
0.0
 10
-26.9527
 20
34.1986
 30
0.0
 10
-26.8587
 20
34.3044
 30
0.0
 10
-26.8587
 20
34.3044
 30
0.0
 10
-26.7646
 20
34.4102
 30
0.0
 10
-26.7176
 20
34.5537
 30
0.0
 10
-26.7176
 20
34.7348
 30
0.0
 10
-26.7176
 20
34.7348
 30
0.0
 10
-26.7176
 20
34.9094
 30
0.0
 10
-26.764
 20
35.047
 30
0.0
 10
-26.8569
 20
35.1475
 30
0.0
 10
-26.8569
 20
35.1475
 30
0.0
 10
-26.9498
 20
35.2481
 30
0.0
 10
-27.0668
 20
35.2981
 30
0.0
 10
-27.2079
 20
35.2981
 30
0.0
 10
-27.2079
 20
35.2981
 30
0.0
 10
-27.3484
 20
35.2981
 30
0.0
 10
-27.4672
 20
35.2481
 30
0.0
 10
-27.5648
 20
35.1475
 30
0.0
 10
-27.5648
 20
35.1475
 30
0.0
 10
-27.6624
 20
35.047
 30
0.0
 10
-27.7112
 20
34.9153
 30
0.0
 10
-27.7112
 20
34.7524
 30
0.0
  0
SPLINE
  5
1C0
330
1F
100
AcDbEntity
  8
ILUSTRACE
 62
   250
100
AcDbSpline
210
0.0
220
0.0
230
1.0
 70
    11
 71
     3
 72
    20
 73
    16
 74
     0
 42
0.0000000001
 43
0.0000000001
 40
0.0
 40
0.0
 40
0.0
 40
0.0
 40
0.2
 40
0.2
 40
0.2
 40
0.2
 40
0.4
 40
0.4
 40
0.4
 40
0.4
 40
0.6
 40
0.6
 40
0.6
 40
0.6
 40
1.0
 40
1.0
 40
1.0
 40
1.0
 10
-26.2384
 20
33.8911
 30
0.0
 10
-26.2384
 20
33.8911
 30
0.0
 10
-25.5064
 20
36.5022
 30
0.0
 10
-25.5064
 20
36.5022
 30
0.0
 10
-25.5064
 20
36.5022
 30
0.0
 10
-25.5064
 20
36.5022
 30
0.0
 10
-25.2582
 20
36.5022
 30
0.0
 10
-25.2582
 20
36.5022
 30
0.0
 10
-25.2582
 20
36.5022
 30
0.0
 10
-25.2582
 20
36.5022
 30
0.0
 10
-25.9885
 20
33.8911
 30
0.0
 10
-25.9885
 20
33.8911
 30
0.0
 10
-25.9885
 20
33.8911
 30
0.0
 10
-25.9885
 20
33.8911
 30
0.0
 10
-26.2384
 20
33.8911
 30
0.0
 10
-26.2384
 20
33.8911
 30
0.0
  0
SPLINE
  5
1C1
330
1F
100
AcDbEntity
  8
ILUSTRACE
 62
   250
100
AcDbSpline
210
0.0
220
0.0
230
1.0
 70
    11
 71
     3
 72
    48
 73
    44
 74
     0
 42
0.0000000001
 43
0.0000000001
 40
0.0
 40
0.0
 40
0.0
 40
0.0
 40
0.0833333333333333
 40
0.0833333333333333
 40
0.0833333333333333
 40
0.0833333333333333
 40
0.1666666666666667
 40
0.1666666666666667
 40
0.1666666666666667
 40
0.1666666666666667
 40
0.25
 40
0.25
 40
0.25
 40
0.25
 40
0.3333333333333333
 40
0.3333333333333333
 40
0.3333333333333333
 40
0.3333333333333333
 40
0.4166666666666667
 40
0.4166666666666667
 40
0.4166666666666667
 40
0.4166666666666667
 40
0.5
 40
0.5
 40
0.5
 40
0.5
 40
0.5833333333333334
 40
0.5833333333333334
 40
0.5833333333333334
 40
0.5833333333333334
 40
0.6666666666666666
 40
0.6666666666666666
 40
0.6666666666666666
 40
0.6666666666666666
 40
0.75
 40
0.75
 40
0.75
 40
0.75
 40
0.8333333333333334
 40
0.8333333333333334
 40
0.8333333333333334
 40
0.8333333333333334
 40
1.0
 40
1.0
 40
1.0
 40
1.0
 10
-24.1182
 20
33.934
 30
0.0
 10
-24.1182
 20
33.934
 30
0.0
 10
-24.1182
 20
34.5384
 30
0.0
 10
-24.1182
 20
34.5384
 30
0.0
 10
-24.1182
 20
34.5384
 30
0.0
 10
-24.1182
 20
34.5384
 30
0.0
 10
-25.2136
 20
34.5384
 30
0.0
 10
-25.2136
 20
34.5384
 30
0.0
 10
-25.2136
 20
34.5384
 30
0.0
 10
-25.2136
 20
34.5384
 30
0.0
 10
-25.2136
 20
34.823
 30
0.0
 10
-25.2136
 20
34.823
 30
0.0
 10
-25.2136
 20
34.823
 30
0.0
 10
-25.2136
 20
34.823
 30
0.0
 10
-24.0611
 20
36.4593
 30
0.0
 10
-24.0611
 20
36.4593
 30
0.0
 10
-24.0611
 20
36.4593
 30
0.0
 10
-24.0611
 20
36.4593
 30
0.0
 10
-23.8077
 20
36.4593
 30
0.0
 10
-23.8077
 20
36.4593
 30
0.0
 10
-23.8077
 20
36.4593
 30
0.0
 10
-23.8077
 20
36.4593
 30
0.0
 10
-23.8077
 20
34.823
 30
0.0
 10
-23.8077
 20
34.823
 30
0.0
 10
-23.8077
 20
34.823
 30
0.0
 10
-23.8077
 20
34.823
 30
0.0
 10
-23.4667
 20
34.823
 30
0.0
 10
-23.4667
 20
34.823
 30
0.0
 10
-23.4667
 20
34.823
 30
0.0
 10
-23.4667
 20
34.823
 30
0.0
 10
-23.4667
 20
34.5384
 30
0.0
 10
-23.4667
 20
34.5384
 30
0.0
 10
-23.4667
 20
34.5384
 30
0.0
 10
-23.4667
 20
34.5384
 30
0.0
 10
-23.8077
 20
34.5384
 30
0.0
 10
-23.8077
 20
34.5384
 30
0.0
 10
-23.8077
 20
34.5384
 30
0.0
 10
-23.8077
 20
34.5384
 30
0.0
 10
-23.8077
 20
33.934
 30
0.0
 10
-23.8077
 20
33.934
 30
0.0
 10
-23.8077
 20
33.934
 30
0.0
 10
-23.8077
 20
33.934
 30
0.0
 10
-24.1182
 20
33.934
 30
0.0
 10
-24.1182
 20
33.934
 30
0.0
  0
SPLINE
  5
1C2
330
1F
100
AcDbEntity
  8
ILUSTRACE
 62
   250
100
AcDbSpline
210
0.0
220
0.0
230
1.0
 70
    11
 71
     3
 72
    16
 73
    12
 74
     0
 42
0.0000000001
 43
0.0000000001
 40
0.0
 40
0.0
 40
0.0
 40
0.0
 40
0.25
 40
0.25
 40
0.25
 40
0.25
 40
0.5
 40
0.5
 40
0.5
 40
0.5
 40
1.0
 40
1.0
 40
1.0
 40
1.0
 10
-24.1182
 20
34.823
 30
0.0
 10
-24.1182
 20
34.823
 30
0.0
 10
-24.1182
 20
35.9613
 30
0.0
 10
-24.1182
 20
35.9613
 30
0.0
 10
-24.1182
 20
35.9613
 30
0.0
 10
-24.1182
 20
35.9613
 30
0.0
 10
-24.9084
 20
34.823
 30
0.0
 10
-24.9084
 20
34.823
 30
0.0
 10
-24.9084
 20
34.823
 30
0.0
 10
-24.9084
 20
34.823
 30
0.0
 10
-24.1182
 20
34.823
 30
0.0
 10
-24.1182
 20
34.823
 30
0.0
  0
SPLINE
  5
1C3
330
1F
100
AcDbEntity
  8
ILUSTRACE
 62
   250
100
AcDbSpline
210
0.0
220
0.0
230
1.0
 70
    11
 71
     3
 72
    28
 73
    24
 74
     0
 42
0.0000000001
 43
0.0000000001
 40
0.0
 40
0.0
 40
0.0
 40
0.0
 40
0.1428571428571428
 40
0.1428571428571428
 40
0.1428571428571428
 40
0.1428571428571428
 40
0.2857142857142857
 40
0.2857142857142857
 40
0.2857142857142857
 40
0.2857142857142857
 40
0.4285714285714285
 40
0.4285714285714285
 40
0.4285714285714285
 40
0.4285714285714285
 40
0.5714285714285714
 40
0.5714285714285714
 40
0.5714285714285714
 40
0.5714285714285714
 40
0.7142857142857143
 40
0.7142857142857143
 40
0.7142857142857143
 40
0.7142857142857143
 40
1.0
 40
1.0
 40
1.0
 40
1.0
 10
-23.0481
 20
35.565
 30
0.0
 10
-23.0481
 20
35.565
 30
0.0
 10
-23.1345
 20
36.046
 30
0.0
 10
-23.1345
 20
36.046
 30
0.0
 10
-23.1345
 20
36.046
 30
0.0
 10
-23.1345
 20
36.046
 30
0.0
 10
-23.1345
 20
36.4593
 30
0.0
 10
-23.1345
 20
36.4593
 30
0.0
 10
-23.1345
 20
36.4593
 30
0.0
 10
-23.1345
 20
36.4593
 30
0.0
 10
-22.7811
 20
36.4593
 30
0.0
 10
-22.7811
 20
36.4593
 30
0.0
 10
-22.7811
 20
36.4593
 30
0.0
 10
-22.7811
 20
36.4593
 30
0.0
 10
-22.7811
 20
36.046
 30
0.0
 10
-22.7811
 20
36.046
 30
0.0
 10
-22.7811
 20
36.046
 30
0.0
 10
-22.7811
 20
36.046
 30
0.0
 10
-22.8588
 20
35.565
 30
0.0
 10
-22.8588
 20
35.565
 30
0.0
 10
-22.8588
 20
35.565
 30
0.0
 10
-22.8588
 20
35.565
 30
0.0
 10
-23.0481
 20
35.565
 30
0.0
 10
-23.0481
 20
35.565
 30
0.0
  0
SPLINE
  5
1C4
330
1F
100
AcDbEntity
  8
ILUSTRACE
 62
   250
100
AcDbSpline
210
0.0
220
0.0
230
1.0
 70
    11
 71
     3
 72
    28
 73
    24
 74
     0
 42
0.0000000001
 43
0.0000000001
 40
0.0
 40
0.0
 40
0.0
 40
0.0
 40
0.1428571428571428
 40
0.1428571428571428
 40
0.1428571428571428
 40
0.1428571428571428
 40
0.2857142857142857
 40
0.2857142857142857
 40
0.2857142857142857
 40
0.2857142857142857
 40
0.4285714285714285
 40
0.4285714285714285
 40
0.4285714285714285
 40
0.4285714285714285
 40
0.5714285714285714
 40
0.5714285714285714
 40
0.5714285714285714
 40
0.5714285714285714
 40
0.7142857142857143
 40
0.7142857142857143
 40
0.7142857142857143
 40
0.7142857142857143
 40
1.0
 40
1.0
 40
1.0
 40
1.0
 10
-22.4778
 20
35.565
 30
0.0
 10
-22.4778
 20
35.565
 30
0.0
 10
-22.5624
 20
36.046
 30
0.0
 10
-22.5624
 20
36.046
 30
0.0
 10
-22.5624
 20
36.046
 30
0.0
 10
-22.5624
 20
36.046
 30
0.0
 10
-22.5624
 20
36.4593
 30
0.0
 10
-22.5624
 20
36.4593
 30
0.0
 10
-22.5624
 20
36.4593
 30
0.0
 10
-22.5624
 20
36.4593
 30
0.0
 10
-22.2091
 20
36.4593
 30
0.0
 10
-22.2091
 20
36.4593
 30
0.0
 10
-22.2091
 20
36.4593
 30
0.0
 10
-22.2091
 20
36.4593
 30
0.0
 10
-22.2091
 20
36.046
 30
0.0
 10
-22.2091
 20
36.046
 30
0.0
 10
-22.2091
 20
36.046
 30
0.0
 10
-22.2091
 20
36.046
 30
0.0
 10
-22.292
 20
35.565
 30
0.0
 10
-22.292
 20
35.565
 30
0.0
 10
-22.292
 20
35.565
 30
0.0
 10
-22.292
 20
35.565
 30
0.0
 10
-22.4778
 20
35.565
 30
0.0
 10
-22.4778
 20
35.565
 30
0.0
  0
SPLINE
  5
1C5
330
1F
100
AcDbEntity
  8
ILUSTRACE
 62
   250
100
AcDbSpline
210
0.0
220
0.0
230
1.0
 70
    24
 71
     3
 72
     8
 73
     4
 74
     0
 42
0.0000000001
 43
0.0000000001
 40
0.0
 40
0.0
 40
0.0
 40
0.0
 40
1.0
 40
1.0
 40
1.0
 40
1.0
 10
-31.6916
 20
28.458
 30
0.0
 10
-31.6916
 20
28.458
 30
0.0
 10
-31.6916
 20
33.9297
 30
0.0
 10
-31.6916
 20
33.9297
 30
0.0
  0
SPLINE
  5
1C6
330
1F
100
AcDbEntity
  8
ILUSTRACE
 62
   250
100
AcDbSpline
210
0.0
220
0.0
230
1.0
 70
    24
 71
     3
 72
     8
 73
     4
 74
     0
 42
0.0000000001
 43
0.0000000001
 40
0.0
 40
0.0
 40
0.0
 40
0.0
 40
1.0
 40
1.0
 40
1.0
 40
1.0
 10
-22.0286
 20
28.3662
 30
0.0
 10
-22.0286
 20
28.3662
 30
0.0
 10
-22.0286
 20
33.9523
 30
0.0
 10
-22.0286
 20
33.9523
 30
0.0
  0
ENDSEC
  0
SECTION
  2
OBJECTS
  0
DICTIONARY
  5
C
330
0
100
AcDbDictionary
  3
ACAD_GROUP
350
D
  3
ACAD_LAYOUT
350
1A
  3
ACAD_MATERIAL
350
3B
  3
ACAD_MLEADERSTYLE
350
1E9
  3
ACAD_MLINESTYLE
350
17
  3
ACAD_PLOTSETTINGS
350
19
  3
ACAD_VISUALSTYLE
350
2A
  3
ACDBHEADERROUNDTRIPXREC
350
1C7
  3
ACDBVARIABLEDICTIONARY
350
1E7
  0
DICTIONARY
  5
D
102
{ACAD_REACTORS
330
C
102
}
330
C
100
AcDbDictionary
  0
DICTIONARY
  5
1A
102
{ACAD_REACTORS
330
C
102
}
330
C
100
AcDbDictionary
  0
DICTIONARY
  5
3B
102
{ACAD_REACTORS
330
C
102
}
330
C
100
AcDbDictionary
  3
BYBLOCK
350
3D
  3
BYLAYER
350
3C
  3
GLOBAL
350
3E
  0
DICTIONARY
  5
1E9
102
{ACAD_REACTORS
330
C
102
}
330
C
100
AcDbDictionary
  0
DICTIONARY
  5
17
102
{ACAD_REACTORS
330
C
102
}
330
C
100
AcDbDictionary
  3
STANDARD
350
18
  0
DICTIONARY
  5
19
102
{ACAD_REACTORS
330
C
102
}
330
C
100
AcDbDictionary
  0
DICTIONARY
  5
2A
102
{ACAD_REACTORS
330
C
102
}
330
C
100
AcDbDictionary
  3
2DWIREFRAME
350
2F
  3
3D_HIDDEN
350
31
  3
3DWIREFRAME
350
30
  3
BASIC
350
32
  3
BRIGHTEN
350
36
  3
COLORCHANGE
350
3A
  3
CONCEPTUAL
350
34
  3
DIM
350
35
  3
FACEPATTERN
350
39
  3
FLAT
350
2B
  3
FLATWITHEDGES
350
2C
  3
GOURAUD
350
2D
  3
GOURAUDWITHEDGES
350
2E
  3
LINEPATTERN
350
38
  3
REALISTIC
350
33
  3
THICKEN
350
37
  0
DICTIONARY
  5
1C7
102
{ACAD_REACTORS
330
C
102
}
330
C
100
AcDbDictionary
  3
CEPSNTYPE
350
1D0
  3
DIMSTYLEDATA
350
1E6
  3
FINGERPRINTGUID
350
1D1
  3
HYPERLINKBASE
350
1CA
  3
INSUNITS
350
1CF
  3
LAYOUTDICT
350
1CC
  3
LWETCUNION
350
1CE
  3
PLOTSETDICT
350
1CD
  3
PSVPSCALE
350
1D3
  3
PUCSBASE
350
1D6
  3
PUCSORGBACK
350
1DC
  3
PUCSORGBOTTOM
350
1D8
  3
PUCSORGFRONT
350
1DB
  3
PUCSORGLEFT
350
1D9
  3
PUCSORGRIGHT
350
1DA
  3
PUCSORGTOP
350
1D7
  3
PUCSORTHOREF
350
1D4
  3
PUCSORTHOVIEW
350
1D5
  3
STYLESHEET
350
1CB
  3
TSTACKALIGN
350
1C8
  3
TSTACKSIZE
350
1C9
  3
UCSBASE
350
1DF
  3
UCSORGBACK
350
1E5
  3
UCSORGBOTTOM
350
1E1
  3
UCSORGFRONT
350
1E4
  3
UCSORGLEFT
350
1E2
  3
UCSORGRIGHT
350
1E3
  3
UCSORGTOP
350
1E0
  3
UCSORTHOREF
350
1DD
  3
UCSORTHOVIEW
350
1DE
  3
VERSIONGUID
350
1D2
  0
DICTIONARY
  5
1E7
102
{ACAD_REACTORS
330
C
102
}
330
C
100
AcDbDictionary
  3
DIMASSOC
350
1EA
  3
HIDETEXT
350
1EB
  0
MATERIAL
  5
3D
102
{ACAD_REACTORS
330
3B
102
}
102
{ACAD_XDICTIONARY
360
1EE
102
}
330
3B
100
AcDbMaterial
  1
ByBlock
  0
MATERIAL
  5
3C
102
{ACAD_REACTORS
330
3B
102
}
102
{ACAD_XDICTIONARY
360
1EC
102
}
330
3B
100
AcDbMaterial
  1
ByLayer
  0
MATERIAL
  5
3E
102
{ACAD_REACTORS
330
3B
102
}
102
{ACAD_XDICTIONARY
360
1F0
102
}
330
3B
100
AcDbMaterial
  1
Global
  0
MLINESTYLE
  5
18
102
{ACAD_REACTORS
330
17
102
}
330
17
100
AcDbMlineStyle
  2
Standard
 70
     0
  3

 62
   256
 51
90.0
 52
90.0
 71
     2
 49
0.5
 62
   256
  6
BYLAYER
 49
-0.5
 62
   256
  6
BYLAYER
  0
ACAD_PROXY_OBJECT
  5
2F
102
{ACAD_REACTORS
330
2A
102
}
330
2A
100
AcDbProxyObject
 90
      499
 91
      501
 93
      436
310
42CC9915DA5C99599C985B595049028333333333333E3BF0000000000000FB0107901411070040501600405405064090741402480A0340
1001
ACAD
1000
AcDbSavedByObjectVersion
1070
     0
  0
ACAD_PROXY_OBJECT
  5
31
102
{ACAD_REACTORS
330
2A
102
}
330
2A
100
AcDbProxyObject
 90
      499
 91
      501
 93
      500
310
424CD108121A5919195B90640502408333333333333E3BF0000000000000FB01079024090700405020000000000001110200405405064090740C02480A0340
1001
ACAD
1000
AcDbSavedByObjectVersion
1070
     0
  0
ACAD_PROXY_OBJECT
  5
30
102
{ACAD_REACTORS
330
2A
102
}
330
2A
100
AcDbProxyObject
 90
      499
 91
      501
 93
      436
310
42CCD915DA5C99599C985B595059028333333333333E3BF0000000000000FB0107901411070040501600405405064090741402480A0340
1001
ACAD
1000
AcDbSavedByObjectVersion
1070
     0
  0
ACAD_PROXY_OBJECT
  5
32
102
{ACAD_REACTORS
330
2A
102
}
330
2A
100
AcDbProxyObject
 90
      499
 91
      501
 93
      388
310
4150985CDA58D07406404333333333333E3BF0000000000000FB0107A41107004050150841D405064090741402480A0350
1001
ACAD
1000
AcDbSavedByObjectVersion
1070
     0
  0
ACAD_PROXY_OBJECT
  5
36
102
{ACAD_REACTORS
330
2A
102
}
330
2A
100
AcDbProxyObject
 90
      499
 91
      501
 93
      428
310
42109C9A59DA1D195B90C409028333333333333E3BF0000000000000FB010790141107004050150841D405064090741402480A029950
1001
ACAD
1000
AcDbSavedByObjectVersion
1070
     0
  0
ACAD_PROXY_OBJECT
  5
3A
102
{ACAD_REACTORS
330
2A
102
}
330
2A
100
AcDbProxyObject
 90
      499
 91
      501
 93
      452
310
42D0DBDB1BDC90DA185B99D95104090240C333333333333E3BF0000000000000FB0108901411070040501508421405064090741402480A0350
1001
ACAD
1000
AcDbSavedByObjectVersion
1070
     0
  0
ACAD_PROXY_OBJECT
  5
34
102
{ACAD_REACTORS
330
2A
102
}
330
2A
100
AcDbProxyObject
 90
      499
 91
      501
 93
      500
310
4290DBDB98D95C1D1D585B10940D028333333333333E3BF0000000000000FB0107902409070040501000000000000111010841D405064090740C02480A0340
1001
ACAD
1000
AcDbSavedByObjectVersion
1070
     0
  0
ACAD_PROXY_OBJECT
  5
35
102
{ACAD_REACTORS
330
2A
102
}
330
2A
100
AcDbProxyObject
 90
      499
 91
      501
 93
      412
310
40D11A5B50B409028333333333333E3BF0000000000000FB010790141107004050150841D405064090741402480A02677FFFFFD0
1001
ACAD
1000
AcDbSavedByObjectVersion
1070
     0
  0
ACAD_PROXY_OBJECT
  5
39
102
{ACAD_REACTORS
330
2A
102
}
330
2A
100
AcDbProxyObject
 90
      499
 91
      501
 93
      444
310
42D19858D95C185D1D195C9B90F409028333333333333E3BF0000000000000FB010790141107004050150841D405064090741402480A0350
1001
ACAD
1000
AcDbSavedByObjectVersion
1070
     0
  0
ACAD_PROXY_OBJECT
  5
2B
102
{ACAD_REACTORS
330
2A
102
}
330
2A
100
AcDbProxyObject
 90
      499
 91
      501
 93
      388
310
41119B185D240901404333333333333E3BF0000000000000F9010740A41107004050150841D405064090741402480A1B50
1001
ACAD
1000
AcDbSavedByObjectVersion
1070
     0
  0
ACAD_PROXY_OBJECT
  5
2C
102
{ACAD_REACTORS
330
2A
102
}
330
2A
100
AcDbProxyObject
 90
      499
 91
      501
 93
      476
310
43519B185D15DA5D1A115919D95CD0140901404333333333333E3BF0000000000000F9010740901411070040501600405405064090741402480A1B50
1001
ACAD
1000
AcDbSavedByObjectVersion
1070
     0
  0
ACAD_PROXY_OBJECT
  5
2D
102
{ACAD_REACTORS
330
2A
102
}
330
2A
100
AcDbProxyObject
 90
      499
 91
      501
 93
      412
310
41D1DBDD5C985D5910240902404333333333333E3BF0000000000000F9010740A411070040501641D405064090741402480A1B50
1001
ACAD
1000
AcDbSavedByObjectVersion
1070
     0
  0
ACAD_PROXY_OBJECT
  5
2E
102
{ACAD_REACTORS
330
2A
102
}
330
2A
100
AcDbProxyObject
 90
      499
 91
      501
 93
      500
310
4411DBDD5C985D5915DA5D1A115919D95CD0340902404333333333333E3BF0000000000000F9010740901411070040501600405405064090741402480A1B50
1001
ACAD
1000
AcDbSavedByObjectVersion
1070
     0
  0
ACAD_PROXY_OBJECT
  5
38
102
{ACAD_REACTORS
330
2A
102
}
330
2A
100
AcDbProxyObject
 90
      499
 91
      501
 93
      444
310
42D31A5B995C185D1D195C9B90E409028333333333333E3BF0000000000000FB010790141107004050750841D405064090741402483A0350
1001
ACAD
1000
AcDbSavedByObjectVersion
1070
     0
  0
ACAD_PROXY_OBJECT
  5
33
102
{ACAD_REACTORS
330
2A
102
}
330
2A
100
AcDbProxyObject
 90
      499
 91
      501
 93
      420
310
425499585B1A5CDD1A58D08409028333333333333E3BF0000000000000FB01079019070040501508421405064090741402480A1B40
1001
ACAD
1000
AcDbSavedByObjectVersion
1070
     0
  0
ACAD_PROXY_OBJECT
  5
37
102
{ACAD_REACTORS
330
2A
102
}
330
2A
100
AcDbProxyObject
 90
      499
 91
      501
 93
      412
310
41D51A1A58DAD95B90D409028333333333333E3BF0000000000000FB010790141107004050150C41D405064090741402480A0350
1001
ACAD
1000
AcDbSavedByObjectVersion
1070
     0
  0
XRECORD
  5
1D0
102
{ACAD_REACTORS
330
1C7
102
}
330
1C7
100
AcDbXrecord
 90
        0
  0
XRECORD
  5
1E6
102
{ACAD_REACTORS
330
1C7
102
}
330
1C7
100
AcDbXrecord
1000
DSTYLE
1002
{
1070
   340
340
11
1002
}
  0
XRECORD
  5
1D1
102
{ACAD_REACTORS
330
1C7
102
}
330
1C7
100
AcDbXrecord
  1
{7D7003B7-8275-4174-BFAC-E7FF2E8D843F}
  0
XRECORD
  5
1CA
102
{ACAD_REACTORS
330
1C7
102
}
330
1C7
100
AcDbXrecord
  1

  0
XRECORD
  5
1CF
102
{ACAD_REACTORS
330
1C7
102
}
330
1C7
100
AcDbXrecord
 90
        4
  0
XRECORD
  5
1CC
102
{ACAD_REACTORS
330
1C7
102
}
330
1C7
100
AcDbXrecord
340
1A
  0
XRECORD
  5
1CE
102
{ACAD_REACTORS
330
1C7
102
}
330
1C7
100
AcDbXrecord
 90
    10781
  0
XRECORD
  5
1CD
102
{ACAD_REACTORS
330
1C7
102
}
330
1C7
100
AcDbXrecord
340
19
  0
XRECORD
  5
1D3
102
{ACAD_REACTORS
330
1C7
102
}
330
1C7
100
AcDbXrecord
 40
0.0
  0
XRECORD
  5
1D6
102
{ACAD_REACTORS
330
1C7
102
}
330
1C7
100
AcDbXrecord
340
0
  0
XRECORD
  5
1DC
102
{ACAD_REACTORS
330
1C7
102
}
330
1C7
100
AcDbXrecord
 10
0.0
 20
0.0
 30
0.0
  0
XRECORD
  5
1D8
102
{ACAD_REACTORS
330
1C7
102
}
330
1C7
100
AcDbXrecord
 10
0.0
 20
0.0
 30
0.0
  0
XRECORD
  5
1DB
102
{ACAD_REACTORS
330
1C7
102
}
330
1C7
100
AcDbXrecord
 10
0.0
 20
0.0
 30
0.0
  0
XRECORD
  5
1D9
102
{ACAD_REACTORS
330
1C7
102
}
330
1C7
100
AcDbXrecord
 10
0.0
 20
0.0
 30
0.0
  0
XRECORD
  5
1DA
102
{ACAD_REACTORS
330
1C7
102
}
330
1C7
100
AcDbXrecord
 10
0.0
 20
0.0
 30
0.0
  0
XRECORD
  5
1D7
102
{ACAD_REACTORS
330
1C7
102
}
330
1C7
100
AcDbXrecord
 10
0.0
 20
0.0
 30
0.0
  0
XRECORD
  5
1D4
102
{ACAD_REACTORS
330
1C7
102
}
330
1C7
100
AcDbXrecord
340
0
  0
XRECORD
  5
1D5
102
{ACAD_REACTORS
330
1C7
102
}
330
1C7
100
AcDbXrecord
 70
     0
  0
XRECORD
  5
1CB
102
{ACAD_REACTORS
330
1C7
102
}
330
1C7
100
AcDbXrecord
  1

  0
XRECORD
  5
1C8
102
{ACAD_REACTORS
330
1C7
102
}
330
1C7
100
AcDbXrecord
 90
        1
  0
XRECORD
  5
1C9
102
{ACAD_REACTORS
330
1C7
102
}
330
1C7
100
AcDbXrecord
 90
       70
  0
XRECORD
  5
1DF
102
{ACAD_REACTORS
330
1C7
102
}
330
1C7
100
AcDbXrecord
340
0
  0
XRECORD
  5
1E5
102
{ACAD_REACTORS
330
1C7
102
}
330
1C7
100
AcDbXrecord
 10
0.0
 20
0.0
 30
0.0
  0
XRECORD
  5
1E1
102
{ACAD_REACTORS
330
1C7
102
}
330
1C7
100
AcDbXrecord
 10
0.0
 20
0.0
 30
0.0
  0
XRECORD
  5
1E4
102
{ACAD_REACTORS
330
1C7
102
}
330
1C7
100
AcDbXrecord
 10
0.0
 20
0.0
 30
0.0
  0
XRECORD
  5
1E2
102
{ACAD_REACTORS
330
1C7
102
}
330
1C7
100
AcDbXrecord
 10
0.0
 20
0.0
 30
0.0
  0
XRECORD
  5
1E3
102
{ACAD_REACTORS
330
1C7
102
}
330
1C7
100
AcDbXrecord
 10
0.0
 20
0.0
 30
0.0
  0
XRECORD
  5
1E0
102
{ACAD_REACTORS
330
1C7
102
}
330
1C7
100
AcDbXrecord
 10
0.0
 20
0.0
 30
0.0
  0
XRECORD
  5
1DD
102
{ACAD_REACTORS
330
1C7
102
}
330
1C7
100
AcDbXrecord
340
0
  0
XRECORD
  5
1DE
102
{ACAD_REACTORS
330
1C7
102
}
330
1C7
100
AcDbXrecord
 70
     0
  0
XRECORD
  5
1D2
102
{ACAD_REACTORS
330
1C7
102
}
330
1C7
100
AcDbXrecord
  1
{FAEB1C32-E019-11D5-929B-00C0DF256EC4}
  0
DICTIONARYVAR
  5
1EA
102
{ACAD_REACTORS
330
1E7
102
}
330
1E7
100
DictionaryVariables
280
     0
  1
2
  0
DICTIONARYVAR
  5
1EB
102
{ACAD_REACTORS
330
1E7
102
}
330
1E7
100
DictionaryVariables
280
     0
  1
1
  0
DICTIONARY
  5
1EE
330
3D
100
AcDbDictionary
280
     1
  3
ACAD_XREC_ROUNDTRIP
360
1EF
  0
DICTIONARY
  5
1EC
330
3C
100
AcDbDictionary
280
     1
  3
ACAD_XREC_ROUNDTRIP
360
1ED
  0
DICTIONARY
  5
1F0
330
3E
100
AcDbDictionary
280
     1
  3
ACAD_XREC_ROUNDTRIP
360
1F1
  0
XRECORD
  5
1EF
102
{ACAD_REACTORS
330
1EE
102
}
330
1EE
100
AcDbXrecord
102
MATERIAL
148
0.0
149
0.0
149
0.0
 93
        0
 94
      127
282
     0
 72
     1
 77
     1
171
     1
175
     1
179
     1
273
     0
  0
XRECORD
  5
1ED
102
{ACAD_REACTORS
330
1EC
102
}
330
1EC
100
AcDbXrecord
102
MATERIAL
148
0.0
149
0.0
149
0.0
 93
        0
 94
      127
282
     0
 72
     1
 77
     1
171
     1
175
     1
179
     1
273
     0
  0
XRECORD
  5
1F1
102
{ACAD_REACTORS
330
1F0
102
}
330
1F0
100
AcDbXrecord
102
MATERIAL
148
0.0
149
0.0
149
0.0
 93
        0
 94
      127
282
     0
 72
     1
 77
     1
171
     1
175
     1
179
     1
273
     0
  0
ENDSEC
  0
EOF
