  0
SECTION
  2
HEADER
  9
$ACADVER
  1
AC1015
  9
$ACADMAINTVER
 70
     6
  9
$DWGCODEPAGE
  3
ANSI_1250
  9
$INSBASE
 10
0.0
 20
0.0
 30
0.0
  9
$EXTMIN
 10
-73.016
 20
-14.8393
 30
0.0
  9
$EXTMAX
 10
72.9275
 20
14.7603
 30
0.0
  9
$LIMMIN
 10
0.0
 20
0.0
  9
$LIMMAX
 10
12.0
 20
9.0
  9
$ORTHOMODE
 70
     0
  9
$REGENMODE
 70
     1
  9
$FILLMODE
 70
     1
  9
$QTEXTMODE
 70
     0
  9
$MIRRTEXT
 70
     1
  9
$LTSCALE
 40
1.0
  9
$ATTMODE
 70
     1
  9
$TEXTSIZE
 40
0.2
  9
$TRACEWID
 40
0.05
  9
$TEXTSTYLE
  7
Standard
  9
$CLAYER
  8
0
  9
$CELTYPE
  6
ByLayer
  9
$CECOLOR
 62
   256
  9
$CELTSCALE
 40
1.0
  9
$DISPSILH
 70
     0
  9
$DIMSCALE
 40
1.0
  9
$DIMASZ
 40
0.18
  9
$DIMEXO
 40
0.0625
  9
$DIMDLI
 40
0.38
  9
$DIMRND
 40
0.0
  9
$DIMDLE
 40
0.0
  9
$DIMEXE
 40
0.18
  9
$DIMTP
 40
0.0
  9
$DIMTM
 40
0.0
  9
$DIMTXT
 40
0.18
  9
$DIMCEN
 40
0.09
  9
$DIMTSZ
 40
0.0
  9
$DIMTOL
 70
     0
  9
$DIMLIM
 70
     0
  9
$DIMTIH
 70
     1
  9
$DIMTOH
 70
     1
  9
$DIMSE1
 70
     0
  9
$DIMSE2
 70
     0
  9
$DIMTAD
 70
     0
  9
$DIMZIN
 70
     0
  9
$DIMBLK
  1

  9
$DIMASO
 70
     1
  9
$DIMSHO
 70
     1
  9
$DIMPOST
  1

  9
$DIMAPOST
  1

  9
$DIMALT
 70
     0
  9
$DIMALTD
 70
     2
  9
$DIMALTF
 40
25.4
  9
$DIMLFAC
 40
1.0
  9
$DIMTOFL
 70
     0
  9
$DIMTVP
 40
0.0
  9
$DIMTIX
 70
     0
  9
$DIMSOXD
 70
     0
  9
$DIMSAH
 70
     0
  9
$DIMBLK1
  1

  9
$DIMBLK2
  1

  9
$DIMSTYLE
  2
Standard
  9
$DIMCLRD
 70
     0
  9
$DIMCLRE
 70
     0
  9
$DIMCLRT
 70
     0
  9
$DIMTFAC
 40
1.0
  9
$DIMGAP
 40
0.09
  9
$DIMJUST
 70
     0
  9
$DIMSD1
 70
     0
  9
$DIMSD2
 70
     0
  9
$DIMTOLJ
 70
     1
  9
$DIMTZIN
 70
     0
  9
$DIMALTZ
 70
     0
  9
$DIMALTTZ
 70
     0
  9
$DIMUPT
 70
     0
  9
$DIMDEC
 70
     4
  9
$DIMTDEC
 70
     4
  9
$DIMALTU
 70
     2
  9
$DIMALTTD
 70
     2
  9
$DIMTXSTY
  7
Standard
  9
$DIMAUNIT
 70
     0
  9
$DIMADEC
 70
     0
  9
$DIMALTRND
 40
0.0
  9
$DIMAZIN
 70
     0
  9
$DIMDSEP
 70
    46
  9
$DIMATFIT
 70
     3
  9
$DIMFRAC
 70
     0
  9
$DIMLDRBLK
  1

  9
$DIMLUNIT
 70
     2
  9
$DIMLWD
 70
    -2
  9
$DIMLWE
 70
    -2
  9
$DIMTMOVE
 70
     0
  9
$LUNITS
 70
     2
  9
$LUPREC
 70
     4
  9
$SKETCHINC
 40
0.1
  9
$FILLETRAD
 40
0.5
  9
$AUNITS
 70
     0
  9
$AUPREC
 70
     0
  9
$MENU
  1
.
  9
$ELEVATION
 40
0.0
  9
$PELEVATION
 40
0.0
  9
$THICKNESS
 40
0.0
  9
$LIMCHECK
 70
     0
  9
$CHAMFERA
 40
0.5
  9
$CHAMFERB
 40
0.5
  9
$CHAMFERC
 40
1.0
  9
$CHAMFERD
 40
0.0
  9
$SKPOLY
 70
     0
  9
$TDCREATE
 40
2457637.399347535
  9
$TDUCREATE
 40
2457637.316014201
  9
$TDUPDATE
 40
2457637.399347547
  9
$TDUUPDATE
 40
2457637.316014213
  9
$TDINDWG
 40
0.0000000116
  9
$TDUSRTIMER
 40
0.0000000116
  9
$USRTIMER
 70
     1
  9
$ANGBASE
 50
0.0
  9
$ANGDIR
 70
     0
  9
$PDMODE
 70
     0
  9
$PDSIZE
 40
0.0
  9
$PLINEWID
 40
0.0
  9
$SPLFRAME
 70
     0
  9
$SPLINETYPE
 70
     6
  9
$SPLINESEGS
 70
     8
  9
$HANDSEED
  5
154
  9
$SURFTAB1
 70
     6
  9
$SURFTAB2
 70
     6
  9
$SURFTYPE
 70
     6
  9
$SURFU
 70
     6
  9
$SURFV
 70
     6
  9
$UCSBASE
  2

  9
$UCSNAME
  2

  9
$UCSORG
 10
0.0
 20
0.0
 30
0.0
  9
$UCSXDIR
 10
1.0
 20
0.0
 30
0.0
  9
$UCSYDIR
 10
0.0
 20
1.0
 30
0.0
  9
$UCSORTHOREF
  2

  9
$UCSORTHOVIEW
 70
     0
  9
$UCSORGTOP
 10
0.0
 20
0.0
 30
0.0
  9
$UCSORGBOTTOM
 10
0.0
 20
0.0
 30
0.0
  9
$UCSORGLEFT
 10
0.0
 20
0.0
 30
0.0
  9
$UCSORGRIGHT
 10
0.0
 20
0.0
 30
0.0
  9
$UCSORGFRONT
 10
0.0
 20
0.0
 30
0.0
  9
$UCSORGBACK
 10
0.0
 20
0.0
 30
0.0
  9
$PUCSBASE
  2

  9
$PUCSNAME
  2

  9
$PUCSORG
 10
0.0
 20
0.0
 30
0.0
  9
$PUCSXDIR
 10
1.0
 20
0.0
 30
0.0
  9
$PUCSYDIR
 10
0.0
 20
1.0
 30
0.0
  9
$PUCSORTHOREF
  2

  9
$PUCSORTHOVIEW
 70
     0
  9
$PUCSORGTOP
 10
0.0
 20
0.0
 30
0.0
  9
$PUCSORGBOTTOM
 10
0.0
 20
0.0
 30
0.0
  9
$PUCSORGLEFT
 10
0.0
 20
0.0
 30
0.0
  9
$PUCSORGRIGHT
 10
0.0
 20
0.0
 30
0.0
  9
$PUCSORGFRONT
 10
0.0
 20
0.0
 30
0.0
  9
$PUCSORGBACK
 10
0.0
 20
0.0
 30
0.0
  9
$USERI1
 70
     0
  9
$USERI2
 70
     0
  9
$USERI3
 70
     0
  9
$USERI4
 70
     0
  9
$USERI5
 70
     0
  9
$USERR1
 40
0.0
  9
$USERR2
 40
0.0
  9
$USERR3
 40
0.0
  9
$USERR4
 40
0.0
  9
$USERR5
 40
0.0
  9
$WORLDVIEW
 70
     1
  9
$SHADEDGE
 70
     3
  9
$SHADEDIF
 70
    70
  9
$TILEMODE
 70
     1
  9
$MAXACTVP
 70
    64
  9
$PINSBASE
 10
0.0
 20
0.0
 30
0.0
  9
$PLIMCHECK
 70
     0
  9
$PEXTMIN
 10
1.000000000000000E+20
 20
1.000000000000000E+20
 30
1.000000000000000E+20
  9
$PEXTMAX
 10
-1.000000000000000E+20
 20
-1.000000000000000E+20
 30
-1.000000000000000E+20
  9
$PLIMMIN
 10
0.0
 20
0.0
  9
$PLIMMAX
 10
12.0
 20
9.0
  9
$UNITMODE
 70
     0
  9
$VISRETAIN
 70
     1
  9
$PLINEGEN
 70
     0
  9
$PSLTSCALE
 70
     1
  9
$TREEDEPTH
 70
  3020
  9
$CMLSTYLE
  2
Standard
  9
$CMLJUST
 70
     0
  9
$CMLSCALE
 40
1.0
  9
$PROXYGRAPHICS
 70
     1
  9
$MEASUREMENT
 70
     0
  9
$CELWEIGHT
370
    -1
  9
$ENDCAPS
280
     0
  9
$JOINSTYLE
280
     0
  9
$LWDISPLAY
290
     0
  9
$INSUNITS
 70
     4
  9
$HYPERLINKBASE
  1

  9
$STYLESHEET
  1

  9
$XEDIT
290
     1
  9
$CEPSNTYPE
380
     0
  9
$PSTYLEMODE
290
     1
  9
$FINGERPRINTGUID
  2
{715A8AC0-1A29-422B-A25C-07D8F873098B}
  9
$VERSIONGUID
  2
{FAEB1C32-E019-11D5-929B-00C0DF256EC4}
  9
$EXTNAMES
290
     1
  9
$PSVPSCALE
 40
0.0
  9
$OLESTARTUP
290
     0
  0
ENDSEC
  0
SECTION
  2
CLASSES
  0
CLASS
  1
ACDBDICTIONARYWDFLT
  2
AcDbDictionaryWithDefault
  3
ObjectDBX Classes
 90
        0
280
     0
281
     0
  0
CLASS
  1
VISUALSTYLE
  2
AcDbVisualStyle
  3
ObjectDBX Classes
 90
     4095
280
     0
281
     0
  0
CLASS
  1
MATERIAL
  2
AcDbMaterial
  3
ObjectDBX Classes
 90
     1153
280
     0
281
     0
  0
CLASS
  1
DICTIONARYVAR
  2
AcDbDictionaryVar
  3
ObjectDBX Classes
 90
        0
280
     0
281
     0
  0
CLASS
  1
ACDBPLACEHOLDER
  2
AcDbPlaceHolder
  3
ObjectDBX Classes
 90
        0
280
     0
281
     0
  0
CLASS
  1
LAYOUT
  2
AcDbLayout
  3
ObjectDBX Classes
 90
        0
280
     0
281
     0
  0
ENDSEC
  0
SECTION
  2
TABLES
  0
TABLE
  2
VPORT
  5
8
330
0
100
AcDbSymbolTable
 70
     1
  0
VPORT
  5
29
330
8
100
AcDbSymbolTableRecord
100
AcDbViewportTableRecord
  2
*Active
 70
     0
 10
0.0
 20
0.0
 11
1.0
 21
1.0
 12
10.42990654205607
 22
4.5
 13
0.0
 23
0.0
 14
0.5
 24
0.5
 15
0.5
 25
0.5
 16
0.0
 26
0.0
 36
1.0
 17
0.0
 27
0.0
 37
0.0
 40
9.0
 41
1.972972972850329
 42
50.0
 43
0.0
 44
0.0
 50
0.0
 51
0.0
 71
     0
 72
   100
 73
     1
 74
     3
 75
     0
 76
     0
 77
     0
 78
     0
281
     0
 65
     1
110
0.0
120
0.0
130
0.0
111
1.0
121
0.0
131
0.0
112
0.0
122
1.0
132
0.0
 79
     0
146
0.0
  0
ENDTAB
  0
TABLE
  2
LTYPE
  5
5
330
0
100
AcDbSymbolTable
 70
     1
  0
LTYPE
  5
14
330
5
100
AcDbSymbolTableRecord
100
AcDbLinetypeTableRecord
  2
ByBlock
 70
     0
  3

 72
    65
 73
     0
 40
0.0
  0
LTYPE
  5
15
330
5
100
AcDbSymbolTableRecord
100
AcDbLinetypeTableRecord
  2
ByLayer
 70
     0
  3

 72
    65
 73
     0
 40
0.0
  0
LTYPE
  5
16
330
5
100
AcDbSymbolTableRecord
100
AcDbLinetypeTableRecord
  2
Continuous
 70
     0
  3
Solid line
 72
    65
 73
     0
 40
0.0
  0
ENDTAB
  0
TABLE
  2
LAYER
  5
2
330
0
100
AcDbSymbolTable
 70
     2
  0
LAYER
  5
10
330
2
100
AcDbSymbolTableRecord
100
AcDbLayerTableRecord
  2
0
 70
     0
 62
     7
  6
Continuous
370
    -3
390
F
  0
LAYER
  5
40
330
2
100
AcDbSymbolTableRecord
100
AcDbLayerTableRecord
  2
Ilustrace
 70
     0
 62
     7
  6
Continuous
370
    -3
390
F
  0
ENDTAB
  0
TABLE
  2
STYLE
  5
3
330
0
100
AcDbSymbolTable
 70
     1
  0
STYLE
  5
11
330
3
100
AcDbSymbolTableRecord
100
AcDbTextStyleTableRecord
  2
Standard
 70
     0
 40
0.0
 41
1.0
 50
0.0
 71
     0
 42
0.2
  3
txt
  4

  0
ENDTAB
  0
TABLE
  2
VIEW
  5
6
330
0
100
AcDbSymbolTable
 70
     0
  0
ENDTAB
  0
TABLE
  2
UCS
  5
7
330
0
100
AcDbSymbolTable
 70
     0
  0
ENDTAB
  0
TABLE
  2
APPID
  5
9
330
0
100
AcDbSymbolTable
 70
     2
  0
APPID
  5
12
330
9
100
AcDbSymbolTableRecord
100
AcDbRegAppTableRecord
  2
ACAD
 70
     0
  0
APPID
  5
3F
330
9
100
AcDbSymbolTableRecord
100
AcDbRegAppTableRecord
  2
ODA
 70
     0
  0
ENDTAB
  0
TABLE
  2
DIMSTYLE
  5
A
330
0
100
AcDbSymbolTable
 70
     1
100
AcDbDimStyleTable
  0
DIMSTYLE
105
27
330
A
100
AcDbSymbolTableRecord
100
AcDbDimStyleTableRecord
  2
Standard
 70
     0
340
11
  0
ENDTAB
  0
TABLE
  2
BLOCK_RECORD
  5
1
330
0
100
AcDbSymbolTable
 70
     1
  0
BLOCK_RECORD
  5
1F
330
1
100
AcDbSymbolTableRecord
100
AcDbBlockTableRecord
  2
*Model_Space
340
22
  0
BLOCK_RECORD
  5
1B
330
1
100
AcDbSymbolTableRecord
100
AcDbBlockTableRecord
  2
*Paper_Space
340
1E
  0
BLOCK_RECORD
  5
23
330
1
100
AcDbSymbolTableRecord
100
AcDbBlockTableRecord
  2
*Paper_Space0
340
26
  0
ENDTAB
  0
ENDSEC
  0
SECTION
  2
BLOCKS
  0
BLOCK
  5
20
330
1F
100
AcDbEntity
  8
0
100
AcDbBlockBegin
  2
*Model_Space
 70
     0
 10
0.0
 20
0.0
 30
0.0
  3
*Model_Space
  1

  0
ENDBLK
  5
21
330
1F
100
AcDbEntity
  8
0
100
AcDbBlockEnd
  0
BLOCK
  5
1C
330
1B
100
AcDbEntity
 67
     1
  8
0
100
AcDbBlockBegin
  2
*Paper_Space
 70
     0
 10
0.0
 20
0.0
 30
0.0
  3
*Paper_Space
  1

  0
ENDBLK
  5
1D
330
1B
100
AcDbEntity
 67
     1
  8
0
100
AcDbBlockEnd
  0
BLOCK
  5
24
330
23
100
AcDbEntity
  8
0
100
AcDbBlockBegin
  2
*Paper_Space0
 70
     0
 10
0.0
 20
0.0
 30
0.0
  3
*Paper_Space0
  1

  0
ENDBLK
  5
25
330
23
100
AcDbEntity
  8
0
100
AcDbBlockEnd
  0
ENDSEC
  0
SECTION
  2
ENTITIES
  0
SPLINE
  5
41
330
1F
100
AcDbEntity
  8
Ilustrace
 62
   250
370
    15
100
AcDbSpline
210
0.0
220
0.0
230
1.0
 70
    24
 71
     3
 72
     8
 73
     4
 74
     0
 42
0.0000000001
 43
0.0000000001
 40
0.0
 40
0.0
 40
0.0
 40
0.0
 40
1.0
 40
1.0
 40
1.0
 40
1.0
 10
67.3256
 20
3.3316
 30
0.0
 10
67.3256
 20
3.3316
 30
0.0
 10
67.3256
 20
7.4826
 30
0.0
 10
67.3256
 20
7.4826
 30
0.0
  0
SPLINE
  5
42
330
1F
100
AcDbEntity
  8
Ilustrace
 62
   250
370
    15
100
AcDbSpline
210
0.0
220
0.0
230
1.0
 70
    24
 71
     3
 72
     8
 73
     4
 74
     0
 42
0.0000000001
 43
0.0000000001
 40
0.0
 40
0.0
 40
0.0
 40
0.0
 40
1.0
 40
1.0
 40
1.0
 40
1.0
 10
49.5106
 20
-0.1116
 30
0.0
 10
49.5106
 20
-0.1116
 30
0.0
 10
49.5106
 20
7.5833
 30
0.0
 10
49.5106
 20
7.5833
 30
0.0
  0
SPLINE
  5
43
330
1F
100
AcDbEntity
  8
Ilustrace
 62
   250
370
    15
100
AcDbSpline
210
0.0
220
0.0
230
1.0
 70
    24
 71
     3
 72
     8
 73
     4
 74
     0
 42
0.0000000001
 43
0.0000000001
 40
0.0
 40
0.0
 40
0.0
 40
0.0
 40
1.0
 40
1.0
 40
1.0
 40
1.0
 10
62.4536
 20
3.1554
 30
0.0
 10
62.4536
 20
3.1554
 30
0.0
 10
62.4536
 20
7.5212
 30
0.0
 10
62.4536
 20
7.5212
 30
0.0
  0
SPLINE
  5
44
330
1F
100
AcDbEntity
  8
Ilustrace
 62
   250
370
    15
100
AcDbSpline
210
0.0
220
0.0
230
1.0
 70
    24
 71
     3
 72
     8
 73
     4
 74
     0
 42
0.0000000001
 43
0.0000000001
 40
0.0
 40
0.0
 40
0.0
 40
0.0
 40
1.0
 40
1.0
 40
1.0
 40
1.0
 10
36.5904
 20
-0.0894
 30
0.0
 10
36.5904
 20
-0.0894
 30
0.0
 10
36.5904
 20
7.7379
 30
0.0
 10
36.5904
 20
7.7379
 30
0.0
  0
SPLINE
  5
45
330
1F
100
AcDbEntity
  8
Ilustrace
 62
   250
370
    15
100
AcDbSpline
210
0.0
220
0.0
230
1.0
 70
    24
 71
     3
 72
     8
 73
     4
 74
     0
 42
0.0000000001
 43
0.0000000001
 40
0.0
 40
0.0
 40
0.0
 40
0.0
 40
1.0
 40
1.0
 40
1.0
 40
1.0
 10
72.5999
 20
-14.6958
 30
0.0
 10
72.5999
 20
-14.6958
 30
0.0
 10
67.1563
 20
-14.6958
 30
0.0
 10
67.1563
 20
-14.6958
 30
0.0
  0
SPLINE
  5
46
330
1F
100
AcDbEntity
  8
Ilustrace
 62
   250
100
AcDbSpline
210
0.0
220
0.0
230
1.0
 70
    11
 71
     3
 72
   124
 73
   120
 74
     0
 42
0.0000000001
 43
0.0000000001
 40
0.0
 40
0.0
 40
0.0
 40
0.0
 40
0.032258064516129
 40
0.032258064516129
 40
0.032258064516129
 40
0.032258064516129
 40
0.0645161290322581
 40
0.0645161290322581
 40
0.0645161290322581
 40
0.0645161290322581
 40
0.0967741935483871
 40
0.0967741935483871
 40
0.0967741935483871
 40
0.0967741935483871
 40
0.1290322580645161
 40
0.1290322580645161
 40
0.1290322580645161
 40
0.1290322580645161
 40
0.1612903225806452
 40
0.1612903225806452
 40
0.1612903225806452
 40
0.1612903225806452
 40
0.1935483870967742
 40
0.1935483870967742
 40
0.1935483870967742
 40
0.1935483870967742
 40
0.2258064516129032
 40
0.2258064516129032
 40
0.2258064516129032
 40
0.2258064516129032
 40
0.2580645161290323
 40
0.2580645161290323
 40
0.2580645161290323
 40
0.2580645161290323
 40
0.2903225806451613
 40
0.2903225806451613
 40
0.2903225806451613
 40
0.2903225806451613
 40
0.3225806451612903
 40
0.3225806451612903
 40
0.3225806451612903
 40
0.3225806451612903
 40
0.3548387096774194
 40
0.3548387096774194
 40
0.3548387096774194
 40
0.3548387096774194
 40
0.3870967741935484
 40
0.3870967741935484
 40
0.3870967741935484
 40
0.3870967741935484
 40
0.4193548387096774
 40
0.4193548387096774
 40
0.4193548387096774
 40
0.4193548387096774
 40
0.4516129032258064
 40
0.4516129032258064
 40
0.4516129032258064
 40
0.4516129032258064
 40
0.4838709677419355
 40
0.4838709677419355
 40
0.4838709677419355
 40
0.4838709677419355
 40
0.5161290322580645
 40
0.5161290322580645
 40
0.5161290322580645
 40
0.5161290322580645
 40
0.5483870967741935
 40
0.5483870967741935
 40
0.5483870967741935
 40
0.5483870967741935
 40
0.5806451612903226
 40
0.5806451612903226
 40
0.5806451612903226
 40
0.5806451612903226
 40
0.6129032258064516
 40
0.6129032258064516
 40
0.6129032258064516
 40
0.6129032258064516
 40
0.6451612903225806
 40
0.6451612903225806
 40
0.6451612903225806
 40
0.6451612903225806
 40
0.6774193548387096
 40
0.6774193548387096
 40
0.6774193548387096
 40
0.6774193548387096
 40
0.7096774193548387
 40
0.7096774193548387
 40
0.7096774193548387
 40
0.7096774193548387
 40
0.7419354838709677
 40
0.7419354838709677
 40
0.7419354838709677
 40
0.7419354838709677
 40
0.7741935483870968
 40
0.7741935483870968
 40
0.7741935483870968
 40
0.7741935483870968
 40
0.8064516129032258
 40
0.8064516129032258
 40
0.8064516129032258
 40
0.8064516129032258
 40
0.8387096774193549
 40
0.8387096774193549
 40
0.8387096774193549
 40
0.8387096774193549
 40
0.8709677419354839
 40
0.8709677419354839
 40
0.8709677419354839
 40
0.8709677419354839
 40
0.9032258064516129
 40
0.9032258064516129
 40
0.9032258064516129
 40
0.9032258064516129
 40
0.9354838709677419
 40
0.9354838709677419
 40
0.9354838709677419
 40
0.9354838709677419
 40
1.0
 40
1.0
 40
1.0
 40
1.0
 10
64.8908
 20
7.6199
 30
0.0
 10
64.8908
 20
7.6199
 30
0.0
 10
64.8908
 20
7.9031
 30
0.0
 10
64.8908
 20
7.9031
 30
0.0
 10
64.8908
 20
7.9031
 30
0.0
 10
64.8908
 20
7.9031
 30
0.0
 10
63.9873
 20
7.9031
 30
0.0
 10
63.9873
 20
7.9031
 30
0.0
 10
63.9873
 20
7.9031
 30
0.0
 10
63.9873
 20
7.9031
 30
0.0
 10
63.9873
 20
7.911
 30
0.0
 10
63.9873
 20
7.911
 30
0.0
 10
63.9873
 20
7.911
 30
0.0
 10
63.9873
 20
7.911
 30
0.0
 10
64.1457
 20
8.0971
 30
0.0
 10
64.1457
 20
8.0971
 30
0.0
 10
64.1457
 20
8.0971
 30
0.0
 10
64.2523
 20
8.2246
 30
0.0
 10
64.3485
 20
8.3455
 30
0.0
 10
64.4338
 20
8.4594
 30
0.0
 10
64.4338
 20
8.4594
 30
0.0
 10
64.5192
 20
8.5731
 30
0.0
 10
64.5922
 20
8.6843
 30
0.0
 10
64.6528
 20
8.7917
 30
0.0
 10
64.6528
 20
8.7917
 30
0.0
 10
64.7137
 20
8.8992
 30
0.0
 10
64.7598
 20
9.0071
 30
0.0
 10
64.7924
 20
9.1158
 30
0.0
 10
64.7924
 20
9.1158
 30
0.0
 10
64.8245
 20
9.2238
 30
0.0
 10
64.8406
 20
9.3357
 30
0.0
 10
64.841
 20
9.4513
 30
0.0
 10
64.841
 20
9.4513
 30
0.0
 10
64.841
 20
9.5426
 30
0.0
 10
64.8297
 20
9.6318
 30
0.0
 10
64.8059
 20
9.7184
 30
0.0
 10
64.8059
 20
9.7184
 30
0.0
 10
64.782
 20
9.8052
 30
0.0
 10
64.7449
 20
9.8834
 30
0.0
 10
64.6951
 20
9.9531
 30
0.0
 10
64.6951
 20
9.9531
 30
0.0
 10
64.6455
 20
10.0238
 30
0.0
 10
64.5813
 20
10.0794
 30
0.0
 10
64.5033
 20
10.1207
 30
0.0
 10
64.5033
 20
10.1207
 30
0.0
 10
64.4251
 20
10.1628
 30
0.0
 10
64.332
 20
10.1841
 30
0.0
 10
64.2234
 20
10.1847
 30
0.0
 10
64.2234
 20
10.1847
 30
0.0
 10
64.1467
 20
10.1841
 30
0.0
 10
64.0739
 20
10.173
 30
0.0
 10
64.0044
 20
10.1504
 30
0.0
 10
64.0044
 20
10.1504
 30
0.0
 10
63.9351
 20
10.1278
 30
0.0
 10
63.871
 20
10.0975
 30
0.0
 10
63.812
 20
10.0586
 30
0.0
 10
63.812
 20
10.0586
 30
0.0
 10
63.7536
 20
10.0204
 30
0.0
 10
63.7013
 20
9.9772
 30
0.0
 10
63.6552
 20
9.9286
 30
0.0
 10
63.6552
 20
9.9286
 30
0.0
 10
63.6552
 20
9.9286
 30
0.0
 10
63.7421
 20
9.6881
 30
0.0
 10
63.7421
 20
9.6881
 30
0.0
 10
63.7421
 20
9.6881
 30
0.0
 10
63.7733
 20
9.7211
 30
0.0
 10
63.8104
 20
9.7541
 30
0.0
 10
63.8539
 20
9.7864
 30
0.0
 10
63.8539
 20
9.7864
 30
0.0
 10
63.8974
 20
9.8194
 30
0.0
 10
63.9454
 20
9.8459
 30
0.0
 10
63.9988
 20
9.8678
 30
0.0
 10
63.9988
 20
9.8678
 30
0.0
 10
64.052
 20
9.8891
 30
0.0
 10
64.1094
 20
9.9008
 30
0.0
 10
64.1706
 20
9.9015
 30
0.0
 10
64.1706
 20
9.9015
 30
0.0
 10
64.2456
 20
9.9008
 30
0.0
 10
64.3087
 20
9.8873
 30
0.0
 10
64.3599
 20
9.8608
 30
0.0
 10
64.3599
 20
9.8608
 30
0.0
 10
64.4106
 20
9.8335
 30
0.0
 10
64.4515
 20
9.7973
 30
0.0
 10
64.482
 20
9.7514
 30
0.0
 10
64.482
 20
9.7514
 30
0.0
 10
64.5126
 20
9.7049
 30
0.0
 10
64.5348
 20
9.6526
 30
0.0
 10
64.5482
 20
9.5937
 30
0.0
 10
64.5482
 20
9.5937
 30
0.0
 10
64.5617
 20
9.5347
 30
0.0
 10
64.5684
 20
9.4734
 30
0.0
 10
64.5678
 20
9.4087
 30
0.0
 10
64.5678
 20
9.4087
 30
0.0
 10
64.5678
 20
9.3143
 30
0.0
 10
64.5529
 20
9.2211
 30
0.0
 10
64.5229
 20
9.1287
 30
0.0
 10
64.5229
 20
9.1287
 30
0.0
 10
64.4929
 20
9.0356
 30
0.0
 10
64.4473
 20
8.9386
 30
0.0
 10
64.3858
 20
8.8364
 30
0.0
 10
64.3858
 20
8.8364
 30
0.0
 10
64.3242
 20
8.7342
 30
0.0
 10
64.246
 20
8.6222
 30
0.0
 10
64.1515
 20
8.5007
 30
0.0
 10
64.1515
 20
8.5007
 30
0.0
 10
64.0572
 20
8.3791
 30
0.0
 10
63.9454
 20
8.242
 30
0.0
 10
63.8168
 20
8.0894
 30
0.0
 10
63.8168
 20
8.0894
 30
0.0
 10
63.8168
 20
8.0894
 30
0.0
 10
63.6025
 20
7.8294
 30
0.0
 10
63.6025
 20
7.8294
 30
0.0
 10
63.6025
 20
7.8294
 30
0.0
 10
63.6025
 20
7.8294
 30
0.0
 10
63.6025
 20
7.6199
 30
0.0
 10
63.6025
 20
7.6199
 30
0.0
 10
63.6025
 20
7.6199
 30
0.0
 10
63.6025
 20
7.6199
 30
0.0
 10
64.8908
 20
7.6199
 30
0.0
 10
64.8908
 20
7.6199
 30
0.0
  0
SPLINE
  5
47
330
1F
100
AcDbEntity
  8
Ilustrace
 62
   250
100
AcDbSpline
210
0.0
220
0.0
230
1.0
 70
    11
 71
     3
 72
    56
 73
    52
 74
     0
 42
0.0000000001
 43
0.0000000001
 40
0.0
 40
0.0
 40
0.0
 40
0.0
 40
0.0714285714285714
 40
0.0714285714285714
 40
0.0714285714285714
 40
0.0714285714285714
 40
0.1428571428571428
 40
0.1428571428571428
 40
0.1428571428571428
 40
0.1428571428571428
 40
0.2142857142857143
 40
0.2142857142857143
 40
0.2142857142857143
 40
0.2142857142857143
 40
0.2857142857142857
 40
0.2857142857142857
 40
0.2857142857142857
 40
0.2857142857142857
 40
0.3571428571428572
 40
0.3571428571428572
 40
0.3571428571428572
 40
0.3571428571428572
 40
0.4285714285714285
 40
0.4285714285714285
 40
0.4285714285714285
 40
0.4285714285714285
 40
0.5
 40
0.5
 40
0.5
 40
0.5
 40
0.5714285714285714
 40
0.5714285714285714
 40
0.5714285714285714
 40
0.5714285714285714
 40
0.6428571428571429
 40
0.6428571428571429
 40
0.6428571428571429
 40
0.6428571428571429
 40
0.7142857142857143
 40
0.7142857142857143
 40
0.7142857142857143
 40
0.7142857142857143
 40
0.7857142857142857
 40
0.7857142857142857
 40
0.7857142857142857
 40
0.7857142857142857
 40
0.8571428571428571
 40
0.8571428571428571
 40
0.8571428571428571
 40
0.8571428571428571
 40
1.0
 40
1.0
 40
1.0
 40
1.0
 10
65.8716
 20
10.1847
 30
0.0
 10
65.7687
 20
10.1847
 30
0.0
 10
65.6745
 20
10.1563
 30
0.0
 10
65.5887
 20
10.0993
 30
0.0
 10
65.5887
 20
10.0993
 30
0.0
 10
65.5027
 20
10.0425
 30
0.0
 10
65.4288
 20
9.9591
 30
0.0
 10
65.3657
 20
9.8479
 30
0.0
 10
65.3657
 20
9.8479
 30
0.0
 10
65.3026
 20
9.7365
 30
0.0
 10
65.2539
 20
9.5995
 30
0.0
 10
65.2192
 20
9.4365
 30
0.0
 10
65.2192
 20
9.4365
 30
0.0
 10
65.1851
 20
9.2736
 30
0.0
 10
65.1676
 20
9.086
 30
0.0
 10
65.167
 20
8.8731
 30
0.0
 10
65.167
 20
8.8731
 30
0.0
 10
65.1701
 20
8.5944
 30
0.0
 10
65.1996
 20
8.3591
 30
0.0
 10
65.2559
 20
8.1664
 30
0.0
 10
65.2559
 20
8.1664
 30
0.0
 10
65.3123
 20
7.9736
 30
0.0
 10
65.3905
 20
7.8276
 30
0.0
 10
65.4898
 20
7.7279
 30
0.0
 10
65.4898
 20
7.7279
 30
0.0
 10
65.5891
 20
7.6283
 30
0.0
 10
65.705
 20
7.5779
 30
0.0
 10
65.8374
 20
7.5772
 30
0.0
 10
65.8374
 20
7.5772
 30
0.0
 10
65.9859
 20
7.5779
 30
0.0
 10
66.1122
 20
7.6296
 30
0.0
 10
66.2166
 20
7.7318
 30
0.0
 10
66.2166
 20
7.7318
 30
0.0
 10
66.3212
 20
7.834
 30
0.0
 10
66.4009
 20
7.984
 30
0.0
 10
66.4557
 20
8.182
 30
0.0
 10
66.4557
 20
8.182
 30
0.0
 10
66.511
 20
8.3798
 30
0.0
 10
66.5385
 20
8.6217
 30
0.0
 10
66.539
 20
8.9081
 30
0.0
 10
66.539
 20
8.9081
 30
0.0
 10
66.5385
 20
9.1766
 30
0.0
 10
66.5121
 20
9.4062
 30
0.0
 10
66.4598
 20
9.5963
 30
0.0
 10
66.4598
 20
9.5963
 30
0.0
 10
66.4076
 20
9.7864
 30
0.0
 10
66.3316
 20
9.9318
 30
0.0
 10
66.2323
 20
10.0321
 30
0.0
 10
66.2323
 20
10.0321
 30
0.0
 10
66.1329
 20
10.133
 30
0.0
 10
66.0129
 20
10.1841
 30
0.0
 10
65.8716
 20
10.1847
 30
0.0
  0
SPLINE
  5
48
330
1F
100
AcDbEntity
  8
Ilustrace
 62
   250
100
AcDbSpline
210
0.0
220
0.0
230
1.0
 70
    11
 71
     3
 72
    56
 73
    52
 74
     0
 42
0.0000000001
 43
0.0000000001
 40
0.0
 40
0.0
 40
0.0
 40
0.0
 40
0.0714285714285714
 40
0.0714285714285714
 40
0.0714285714285714
 40
0.0714285714285714
 40
0.1428571428571428
 40
0.1428571428571428
 40
0.1428571428571428
 40
0.1428571428571428
 40
0.2142857142857143
 40
0.2142857142857143
 40
0.2142857142857143
 40
0.2142857142857143
 40
0.2857142857142857
 40
0.2857142857142857
 40
0.2857142857142857
 40
0.2857142857142857
 40
0.3571428571428572
 40
0.3571428571428572
 40
0.3571428571428572
 40
0.3571428571428572
 40
0.4285714285714285
 40
0.4285714285714285
 40
0.4285714285714285
 40
0.4285714285714285
 40
0.5
 40
0.5
 40
0.5
 40
0.5
 40
0.5714285714285714
 40
0.5714285714285714
 40
0.5714285714285714
 40
0.5714285714285714
 40
0.6428571428571429
 40
0.6428571428571429
 40
0.6428571428571429
 40
0.6428571428571429
 40
0.7142857142857143
 40
0.7142857142857143
 40
0.7142857142857143
 40
0.7142857142857143
 40
0.7857142857142857
 40
0.7857142857142857
 40
0.7857142857142857
 40
0.7857142857142857
 40
0.8571428571428571
 40
0.8571428571428571
 40
0.8571428571428571
 40
0.8571428571428571
 40
1.0
 40
1.0
 40
1.0
 40
1.0
 10
65.8529
 20
9.9209
 30
0.0
 10
65.9244
 20
9.9203
 30
0.0
 10
65.9859
 20
9.8963
 30
0.0
 10
66.0377
 20
9.8479
 30
0.0
 10
66.0377
 20
9.8479
 30
0.0
 10
66.0894
 20
9.7993
 30
0.0
 10
66.1318
 20
9.73
 30
0.0
 10
66.165
 20
9.6397
 30
0.0
 10
66.165
 20
9.6397
 30
0.0
 10
66.1981
 20
9.5496
 30
0.0
 10
66.223
 20
9.4409
 30
0.0
 10
66.239
 20
9.3156
 30
0.0
 10
66.239
 20
9.3156
 30
0.0
 10
66.2549
 20
9.1895
 30
0.0
 10
66.2627
 20
9.0485
 30
0.0
 10
66.2627
 20
8.8927
 30
0.0
 10
66.2627
 20
8.8927
 30
0.0
 10
66.2627
 20
8.6766
 30
0.0
 10
66.2478
 20
8.4904
 30
0.0
 10
66.2178
 20
8.3339
 30
0.0
 10
66.2178
 20
8.3339
 30
0.0
 10
66.1882
 20
8.1768
 30
0.0
 10
66.1428
 20
8.0557
 30
0.0
 10
66.0822
 20
7.9703
 30
0.0
 10
66.0822
 20
7.9703
 30
0.0
 10
66.0217
 20
7.885
 30
0.0
 10
65.945
 20
7.8423
 30
0.0
 10
65.8529
 20
7.841
 30
0.0
 10
65.8529
 20
7.841
 30
0.0
 10
65.7697
 20
7.8417
 30
0.0
 10
65.6978
 20
7.8817
 30
0.0
 10
65.6363
 20
7.9621
 30
0.0
 10
65.6363
 20
7.9621
 30
0.0
 10
65.5752
 20
8.0423
 30
0.0
 10
65.5281
 20
8.1586
 30
0.0
 10
65.4944
 20
8.3113
 30
0.0
 10
65.4944
 20
8.3113
 30
0.0
 10
65.4608
 20
8.4644
 30
0.0
 10
65.4437
 20
8.65
 30
0.0
 10
65.4432
 20
8.8694
 30
0.0
 10
65.4432
 20
8.8694
 30
0.0
 10
65.4437
 20
9.0989
 30
0.0
 10
65.4618
 20
9.291
 30
0.0
 10
65.4971
 20
9.4476
 30
0.0
 10
65.4971
 20
9.4476
 30
0.0
 10
65.5323
 20
9.6034
 30
0.0
 10
65.5803
 20
9.7211
 30
0.0
 10
65.6419
 20
9.8012
 30
0.0
 10
65.6419
 20
9.8012
 30
0.0
 10
65.7034
 20
9.8809
 30
0.0
 10
65.7739
 20
9.9209
 30
0.0
 10
65.8529
 20
9.9209
 30
0.0
  0
SPLINE
  5
49
330
1F
100
AcDbEntity
  8
Ilustrace
 62
   250
100
AcDbSpline
210
0.0
220
0.0
230
1.0
 70
    11
 71
     3
 72
   132
 73
   128
 74
     0
 42
0.0000000001
 43
0.0000000001
 40
0.0
 40
0.0
 40
0.0
 40
0.0
 40
0.0303030303030303
 40
0.0303030303030303
 40
0.0303030303030303
 40
0.0303030303030303
 40
0.0606060606060606
 40
0.0606060606060606
 40
0.0606060606060606
 40
0.0606060606060606
 40
0.0909090909090909
 40
0.0909090909090909
 40
0.0909090909090909
 40
0.0909090909090909
 40
0.1212121212121212
 40
0.1212121212121212
 40
0.1212121212121212
 40
0.1212121212121212
 40
0.1515151515151515
 40
0.1515151515151515
 40
0.1515151515151515
 40
0.1515151515151515
 40
0.1818181818181818
 40
0.1818181818181818
 40
0.1818181818181818
 40
0.1818181818181818
 40
0.2121212121212121
 40
0.2121212121212121
 40
0.2121212121212121
 40
0.2121212121212121
 40
0.2424242424242424
 40
0.2424242424242424
 40
0.2424242424242424
 40
0.2424242424242424
 40
0.2727272727272727
 40
0.2727272727272727
 40
0.2727272727272727
 40
0.2727272727272727
 40
0.303030303030303
 40
0.303030303030303
 40
0.303030303030303
 40
0.303030303030303
 40
0.3333333333333333
 40
0.3333333333333333
 40
0.3333333333333333
 40
0.3333333333333333
 40
0.3636363636363636
 40
0.3636363636363636
 40
0.3636363636363636
 40
0.3636363636363636
 40
0.3939393939393939
 40
0.3939393939393939
 40
0.3939393939393939
 40
0.3939393939393939
 40
0.4242424242424243
 40
0.4242424242424243
 40
0.4242424242424243
 40
0.4242424242424243
 40
0.4545454545454545
 40
0.4545454545454545
 40
0.4545454545454545
 40
0.4545454545454545
 40
0.4848484848484849
 40
0.4848484848484849
 40
0.4848484848484849
 40
0.4848484848484849
 40
0.5151515151515151
 40
0.5151515151515151
 40
0.5151515151515151
 40
0.5151515151515151
 40
0.5454545454545454
 40
0.5454545454545454
 40
0.5454545454545454
 40
0.5454545454545454
 40
0.5757575757575758
 40
0.5757575757575758
 40
0.5757575757575758
 40
0.5757575757575758
 40
0.6060606060606061
 40
0.6060606060606061
 40
0.6060606060606061
 40
0.6060606060606061
 40
0.6363636363636364
 40
0.6363636363636364
 40
0.6363636363636364
 40
0.6363636363636364
 40
0.6666666666666666
 40
0.6666666666666666
 40
0.6666666666666666
 40
0.6666666666666666
 40
0.696969696969697
 40
0.696969696969697
 40
0.696969696969697
 40
0.696969696969697
 40
0.7272727272727273
 40
0.7272727272727273
 40
0.7272727272727273
 40
0.7272727272727273
 40
0.7575757575757576
 40
0.7575757575757576
 40
0.7575757575757576
 40
0.7575757575757576
 40
0.7878787878787878
 40
0.7878787878787878
 40
0.7878787878787878
 40
0.7878787878787878
 40
0.8181818181818182
 40
0.8181818181818182
 40
0.8181818181818182
 40
0.8181818181818182
 40
0.8484848484848485
 40
0.8484848484848485
 40
0.8484848484848485
 40
0.8484848484848485
 40
0.8787878787878788
 40
0.8787878787878788
 40
0.8787878787878788
 40
0.8787878787878788
 40
0.9090909090909091
 40
0.9090909090909091
 40
0.9090909090909091
 40
0.9090909090909091
 40
0.9393939393939394
 40
0.9393939393939394
 40
0.9393939393939394
 40
0.9393939393939394
 40
1.0
 40
1.0
 40
1.0
 40
1.0
 10
42.8464
 20
10.0741
 30
0.0
 10
42.8464
 20
10.0741
 30
0.0
 10
41.8811
 20
10.0741
 30
0.0
 10
41.8811
 20
10.0741
 30
0.0
 10
41.8811
 20
10.0741
 30
0.0
 10
41.8811
 20
10.0741
 30
0.0
 10
41.7507
 20
8.8635
 30
0.0
 10
41.7507
 20
8.8635
 30
0.0
 10
41.7507
 20
8.8635
 30
0.0
 10
41.788
 20
8.87
 30
0.0
 10
41.8293
 20
8.8752
 30
0.0
 10
41.8759
 20
8.8797
 30
0.0
 10
41.8759
 20
8.8797
 30
0.0
 10
41.9218
 20
8.8842
 30
0.0
 10
41.9746
 20
8.8868
 30
0.0
 10
42.0332
 20
8.8868
 30
0.0
 10
42.0332
 20
8.8868
 30
0.0
 10
42.1666
 20
8.8861
 30
0.0
 10
42.2758
 20
8.8623
 30
0.0
 10
42.3606
 20
8.8156
 30
0.0
 10
42.3606
 20
8.8156
 30
0.0
 10
42.4459
 20
8.7685
 30
0.0
 10
42.5091
 20
8.7037
 30
0.0
 10
42.5499
 20
8.6211
 30
0.0
 10
42.5499
 20
8.6211
 30
0.0
 10
42.5908
 20
8.5377
 30
0.0
 10
42.6111
 20
8.4412
 30
0.0
 10
42.6105
 20
8.332
 30
0.0
 10
42.6105
 20
8.332
 30
0.0
 10
42.6111
 20
8.2471
 30
0.0
 10
42.5986
 20
8.1716
 30
0.0
 10
42.5732
 20
8.1044
 30
0.0
 10
42.5732
 20
8.1044
 30
0.0
 10
42.5484
 20
8.0364
 30
0.0
 10
42.5138
 20
7.9796
 30
0.0
 10
42.4697
 20
7.9317
 30
0.0
 10
42.4697
 20
7.9317
 30
0.0
 10
42.4258
 20
7.8843
 30
0.0
 10
42.3751
 20
7.8483
 30
0.0
 10
42.3177
 20
7.823
 30
0.0
 10
42.3177
 20
7.823
 30
0.0
 10
42.2603
 20
7.7977
 30
0.0
 10
42.1997
 20
7.7848
 30
0.0
 10
42.1356
 20
7.7848
 30
0.0
 10
42.1356
 20
7.7848
 30
0.0
 10
42.0729
 20
7.7855
 30
0.0
 10
42.0139
 20
7.7925
 30
0.0
 10
41.9585
 20
7.8074
 30
0.0
 10
41.9585
 20
7.8074
 30
0.0
 10
41.9033
 20
7.8217
 30
0.0
 10
41.8535
 20
7.8391
 30
0.0
 10
41.8096
 20
7.8605
 30
0.0
 10
41.8096
 20
7.8605
 30
0.0
 10
41.7656
 20
7.8818
 30
0.0
 10
41.7294
 20
7.9032
 30
0.0
 10
41.701
 20
7.9245
 30
0.0
 10
41.701
 20
7.9245
 30
0.0
 10
41.701
 20
7.9245
 30
0.0
 10
41.6327
 20
7.6644
 30
0.0
 10
41.6327
 20
7.6644
 30
0.0
 10
41.6327
 20
7.6644
 30
0.0
 10
41.6663
 20
7.6381
 30
0.0
 10
41.7082
 20
7.6135
 30
0.0
 10
41.7584
 20
7.5895
 30
0.0
 10
41.7584
 20
7.5895
 30
0.0
 10
41.8086
 20
7.5662
 30
0.0
 10
41.8654
 20
7.5475
 30
0.0
 10
41.9291
 20
7.5326
 30
0.0
 10
41.9291
 20
7.5326
 30
0.0
 10
41.9933
 20
7.5177
 30
0.0
 10
42.0621
 20
7.51
 30
0.0
 10
42.1356
 20
7.5093
 30
0.0
 10
42.1356
 20
7.5093
 30
0.0
 10
42.2458
 20
7.51
 30
0.0
 10
42.3461
 20
7.5319
 30
0.0
 10
42.4378
 20
7.5746
 30
0.0
 10
42.4378
 20
7.5746
 30
0.0
 10
42.5293
 20
7.6173
 30
0.0
 10
42.6085
 20
7.6775
 30
0.0
 10
42.6752
 20
7.755
 30
0.0
 10
42.6752
 20
7.755
 30
0.0
 10
42.7425
 20
7.8327
 30
0.0
 10
42.7941
 20
7.9238
 30
0.0
 10
42.8309
 20
8.028
 30
0.0
 10
42.8309
 20
8.028
 30
0.0
 10
42.8676
 20
8.1327
 30
0.0
 10
42.8863
 20
8.2471
 30
0.0
 10
42.8868
 20
8.3707
 30
0.0
 10
42.8868
 20
8.3707
 30
0.0
 10
42.8863
 20
8.4754
 30
0.0
 10
42.8728
 20
8.5699
 30
0.0
 10
42.8469
 20
8.6533
 30
0.0
 10
42.8469
 20
8.6533
 30
0.0
 10
42.8211
 20
8.7367
 30
0.0
 10
42.787
 20
8.8085
 30
0.0
 10
42.7435
 20
8.8693
 30
0.0
 10
42.7435
 20
8.8693
 30
0.0
 10
42.7
 20
8.9301
 30
0.0
 10
42.6514
 20
8.9787
 30
0.0
 10
42.5982
 20
9.0149
 30
0.0
 10
42.5982
 20
9.0149
 30
0.0
 10
42.5355
 20
9.0628
 30
0.0
 10
42.4677
 20
9.0976
 30
0.0
 10
42.3937
 20
9.1189
 30
0.0
 10
42.3937
 20
9.1189
 30
0.0
 10
42.3197
 20
9.1403
 30
0.0
 10
42.2432
 20
9.1514
 30
0.0
 10
42.1634
 20
9.1507
 30
0.0
 10
42.1634
 20
9.1507
 30
0.0
 10
42.1273
 20
9.1507
 30
0.0
 10
42.0963
 20
9.1499
 30
0.0
 10
42.0709
 20
9.1481
 30
0.0
 10
42.0709
 20
9.1481
 30
0.0
 10
42.0455
 20
9.1462
 30
0.0
 10
42.0217
 20
9.1429
 30
0.0
 10
41.999
 20
9.139
 30
0.0
 10
41.999
 20
9.139
 30
0.0
 10
41.999
 20
9.139
 30
0.0
 10
42.0766
 20
9.787
 30
0.0
 10
42.0766
 20
9.787
 30
0.0
 10
42.0766
 20
9.787
 30
0.0
 10
42.0766
 20
9.787
 30
0.0
 10
42.8464
 20
9.787
 30
0.0
 10
42.8464
 20
9.787
 30
0.0
 10
42.8464
 20
9.787
 30
0.0
 10
42.8464
 20
9.787
 30
0.0
 10
42.8464
 20
10.0741
 30
0.0
 10
42.8464
 20
10.0741
 30
0.0
  0
SPLINE
  5
4A
330
1F
100
AcDbEntity
  8
Ilustrace
 62
   250
100
AcDbSpline
210
0.0
220
0.0
230
1.0
 70
    11
 71
     3
 72
    48
 73
    44
 74
     0
 42
0.0000000001
 43
0.0000000001
 40
0.0
 40
0.0
 40
0.0
 40
0.0
 40
0.0833333333333333
 40
0.0833333333333333
 40
0.0833333333333333
 40
0.0833333333333333
 40
0.1666666666666667
 40
0.1666666666666667
 40
0.1666666666666667
 40
0.1666666666666667
 40
0.25
 40
0.25
 40
0.25
 40
0.25
 40
0.3333333333333333
 40
0.3333333333333333
 40
0.3333333333333333
 40
0.3333333333333333
 40
0.4166666666666667
 40
0.4166666666666667
 40
0.4166666666666667
 40
0.4166666666666667
 40
0.5
 40
0.5
 40
0.5
 40
0.5
 40
0.5833333333333334
 40
0.5833333333333334
 40
0.5833333333333334
 40
0.5833333333333334
 40
0.6666666666666666
 40
0.6666666666666666
 40
0.6666666666666666
 40
0.6666666666666666
 40
0.75
 40
0.75
 40
0.75
 40
0.75
 40
0.8333333333333334
 40
0.8333333333333334
 40
0.8333333333333334
 40
0.8333333333333334
 40
1.0
 40
1.0
 40
1.0
 40
1.0
 10
44.3363
 20
7.552
 30
0.0
 10
44.3363
 20
7.552
 30
0.0
 10
44.3363
 20
8.2426
 30
0.0
 10
44.3363
 20
8.2426
 30
0.0
 10
44.3363
 20
8.2426
 30
0.0
 10
44.3363
 20
8.2426
 30
0.0
 10
44.6188
 20
8.2426
 30
0.0
 10
44.6188
 20
8.2426
 30
0.0
 10
44.6188
 20
8.2426
 30
0.0
 10
44.6188
 20
8.2426
 30
0.0
 10
44.6188
 20
8.5065
 30
0.0
 10
44.6188
 20
8.5065
 30
0.0
 10
44.6188
 20
8.5065
 30
0.0
 10
44.6188
 20
8.5065
 30
0.0
 10
44.3363
 20
8.5065
 30
0.0
 10
44.3363
 20
8.5065
 30
0.0
 10
44.3363
 20
8.5065
 30
0.0
 10
44.3363
 20
8.5065
 30
0.0
 10
44.3363
 20
10.0741
 30
0.0
 10
44.3363
 20
10.0741
 30
0.0
 10
44.3363
 20
10.0741
 30
0.0
 10
44.3363
 20
10.0741
 30
0.0
 10
44.0415
 20
10.0741
 30
0.0
 10
44.0415
 20
10.0741
 30
0.0
 10
44.0415
 20
10.0741
 30
0.0
 10
44.0415
 20
10.0741
 30
0.0
 10
43.1413
 20
8.4638
 30
0.0
 10
43.1413
 20
8.4638
 30
0.0
 10
43.1413
 20
8.4638
 30
0.0
 10
43.1413
 20
8.4638
 30
0.0
 10
43.1413
 20
8.2426
 30
0.0
 10
43.1413
 20
8.2426
 30
0.0
 10
43.1413
 20
8.2426
 30
0.0
 10
43.1413
 20
8.2426
 30
0.0
 10
44.0788
 20
8.2426
 30
0.0
 10
44.0788
 20
8.2426
 30
0.0
 10
44.0788
 20
8.2426
 30
0.0
 10
44.0788
 20
8.2426
 30
0.0
 10
44.0788
 20
7.552
 30
0.0
 10
44.0788
 20
7.552
 30
0.0
 10
44.0788
 20
7.552
 30
0.0
 10
44.0788
 20
7.552
 30
0.0
 10
44.3363
 20
7.552
 30
0.0
 10
44.3363
 20
7.552
 30
0.0
  0
SPLINE
  5
4B
330
1F
100
AcDbEntity
  8
Ilustrace
 62
   250
100
AcDbSpline
210
0.0
220
0.0
230
1.0
 70
    11
 71
     3
 72
    36
 73
    32
 74
     0
 42
0.0000000001
 43
0.0000000001
 40
0.0
 40
0.0
 40
0.0
 40
0.0
 40
0.1111111111111111
 40
0.1111111111111111
 40
0.1111111111111111
 40
0.1111111111111111
 40
0.2222222222222222
 40
0.2222222222222222
 40
0.2222222222222222
 40
0.2222222222222222
 40
0.3333333333333333
 40
0.3333333333333333
 40
0.3333333333333333
 40
0.3333333333333333
 40
0.4444444444444444
 40
0.4444444444444444
 40
0.4444444444444444
 40
0.4444444444444444
 40
0.5555555555555556
 40
0.5555555555555556
 40
0.5555555555555556
 40
0.5555555555555556
 40
0.6666666666666666
 40
0.6666666666666666
 40
0.6666666666666666
 40
0.6666666666666666
 40
0.7777777777777778
 40
0.7777777777777778
 40
0.7777777777777778
 40
0.7777777777777778
 40
1.0
 40
1.0
 40
1.0
 40
1.0
 10
43.4175
 20
8.5065
 30
0.0
 10
43.4175
 20
8.5065
 30
0.0
 10
43.4175
 20
8.5144
 30
0.0
 10
43.4175
 20
8.5144
 30
0.0
 10
43.4175
 20
8.5144
 30
0.0
 10
43.4175
 20
8.5144
 30
0.0
 10
43.9111
 20
9.3718
 30
0.0
 10
43.9111
 20
9.3718
 30
0.0
 10
43.9111
 20
9.3718
 30
0.0
 10
43.9385
 20
9.4294
 30
0.0
 10
43.966
 20
9.4876
 30
0.0
 10
43.9929
 20
9.5465
 30
0.0
 10
43.9929
 20
9.5465
 30
0.0
 10
44.0193
 20
9.606
 30
0.0
 10
44.0482
 20
9.6718
 30
0.0
 10
44.0788
 20
9.7443
 30
0.0
 10
44.0788
 20
9.7443
 30
0.0
 10
44.0788
 20
9.7443
 30
0.0
 10
44.0881
 20
9.7443
 30
0.0
 10
44.0881
 20
9.7443
 30
0.0
 10
44.0881
 20
9.7443
 30
0.0
 10
44.0818
 20
9.6125
 30
0.0
 10
44.0788
 20
9.4805
 30
0.0
 10
44.0788
 20
9.3485
 30
0.0
 10
44.0788
 20
9.3485
 30
0.0
 10
44.0788
 20
9.3485
 30
0.0
 10
44.0788
 20
8.5065
 30
0.0
 10
44.0788
 20
8.5065
 30
0.0
 10
44.0788
 20
8.5065
 30
0.0
 10
44.0788
 20
8.5065
 30
0.0
 10
43.4175
 20
8.5065
 30
0.0
 10
43.4175
 20
8.5065
 30
0.0
  0
SPLINE
  5
4C
330
1F
100
AcDbEntity
  8
Ilustrace
 62
   250
370
    15
100
AcDbSpline
210
0.0
220
0.0
230
1.0
 70
    24
 71
     3
 72
     8
 73
     4
 74
     0
 42
0.0000000001
 43
0.0000000001
 40
0.0
 40
0.0
 40
0.0
 40
0.0
 40
1.0
 40
1.0
 40
1.0
 40
1.0
 10
69.4383
 20
7.0094
 30
0.0
 10
69.4383
 20
7.0094
 30
0.0
 10
60.5086
 20
7.0094
 30
0.0
 10
60.5086
 20
7.0094
 30
0.0
  0
SPLINE
  5
4D
330
1F
100
AcDbEntity
  8
Ilustrace
 62
   250
370
    15
100
AcDbSpline
210
0.0
220
0.0
230
1.0
 70
    24
 71
     3
 72
     8
 73
     4
 74
     0
 42
0.0000000001
 43
0.0000000001
 40
0.0
 40
0.0
 40
0.0
 40
0.0
 40
1.0
 40
1.0
 40
1.0
 40
1.0
 10
49.2423
 20
6.9856
 30
0.0
 10
49.2423
 20
6.9856
 30
0.0
 10
37.0219
 20
6.9856
 30
0.0
 10
37.0219
 20
6.9856
 30
0.0
  0
SPLINE
  5
4E
330
1F
100
AcDbEntity
  8
Ilustrace
 62
   250
370
    15
100
AcDbSpline
210
0.0
220
0.0
230
1.0
 70
    24
 71
     3
 72
     8
 73
     4
 74
     0
 42
0.0000000001
 43
0.0000000001
 40
0.0
 40
0.0
 40
0.0
 40
0.0
 40
1.0
 40
1.0
 40
1.0
 40
1.0
 10
72.3231
 20
2.7256
 30
0.0
 10
72.3231
 20
2.7256
 30
0.0
 10
72.3231
 20
-14.0393
 30
0.0
 10
72.3231
 20
-14.0393
 30
0.0
  0
SPLINE
  5
4F
330
1F
100
AcDbEntity
  8
Ilustrace
 62
   250
370
     9
100
AcDbSpline
210
0.0
220
0.0
230
1.0
 70
    11
 71
     3
 72
    32
 73
    28
 74
     0
 42
0.0000000001
 43
0.0000000001
 40
0.0
 40
0.0
 40
0.0
 40
0.0
 40
0.125
 40
0.125
 40
0.125
 40
0.125
 40
0.25
 40
0.25
 40
0.25
 40
0.25
 40
0.375
 40
0.375
 40
0.375
 40
0.375
 40
0.5
 40
0.5
 40
0.5
 40
0.5
 40
0.625
 40
0.625
 40
0.625
 40
0.625
 40
0.75
 40
0.75
 40
0.75
 40
0.75
 40
1.0
 40
1.0
 40
1.0
 40
1.0
 10
61.172
 20
6.5731
 30
0.0
 10
61.172
 20
6.5731
 30
0.0
 10
61.172
 20
6.5731
 30
0.0
 10
61.172
 20
6.5731
 30
0.0
 10
61.172
 20
6.5731
 30
0.0
 10
61.172
 20
6.5731
 30
0.0
 10
61.172
 20
6.5731
 30
0.0
 10
61.172
 20
6.5731
 30
0.0
 10
61.172
 20
6.5731
 30
0.0
 10
61.172
 20
6.5731
 30
0.0
 10
62.4448
 20
7.0165
 30
0.0
 10
62.4448
 20
7.0165
 30
0.0
 10
62.4448
 20
7.0165
 30
0.0
 10
62.4448
 20
7.0165
 30
0.0
 10
61.172
 20
7.4599
 30
0.0
 10
61.172
 20
7.4599
 30
0.0
 10
61.172
 20
7.4599
 30
0.0
 10
61.172
 20
7.4599
 30
0.0
 10
61.172
 20
7.4599
 30
0.0
 10
61.172
 20
7.4599
 30
0.0
 10
61.172
 20
7.4599
 30
0.0
 10
61.172
 20
7.4599
 30
0.0
 10
61.172
 20
7.4599
 30
0.0
 10
61.172
 20
7.4599
 30
0.0
 10
61.172
 20
7.4599
 30
0.0
 10
61.172
 20
7.4599
 30
0.0
 10
61.172
 20
6.5731
 30
0.0
 10
61.172
 20
6.5731
 30
0.0
  0
SPLINE
  5
50
330
1F
100
AcDbEntity
  8
Ilustrace
 62
   250
370
     9
100
AcDbSpline
210
0.0
220
0.0
230
1.0
 70
    11
 71
     3
 72
    32
 73
    28
 74
     0
 42
0.0000000001
 43
0.0000000001
 40
0.0
 40
0.0
 40
0.0
 40
0.0
 40
0.125
 40
0.125
 40
0.125
 40
0.125
 40
0.25
 40
0.25
 40
0.25
 40
0.25
 40
0.375
 40
0.375
 40
0.375
 40
0.375
 40
0.5
 40
0.5
 40
0.5
 40
0.5
 40
0.625
 40
0.625
 40
0.625
 40
0.625
 40
0.75
 40
0.75
 40
0.75
 40
0.75
 40
1.0
 40
1.0
 40
1.0
 40
1.0
 10
48.2515
 20
6.5272
 30
0.0
 10
48.2515
 20
6.5272
 30
0.0
 10
48.2515
 20
6.5272
 30
0.0
 10
48.2515
 20
6.5272
 30
0.0
 10
48.2515
 20
6.5272
 30
0.0
 10
48.2515
 20
6.5272
 30
0.0
 10
48.2515
 20
6.5272
 30
0.0
 10
48.2515
 20
6.5272
 30
0.0
 10
48.2515
 20
6.5272
 30
0.0
 10
48.2515
 20
6.5272
 30
0.0
 10
49.5243
 20
6.9706
 30
0.0
 10
49.5243
 20
6.9706
 30
0.0
 10
49.5243
 20
6.9706
 30
0.0
 10
49.5243
 20
6.9706
 30
0.0
 10
48.2515
 20
7.414
 30
0.0
 10
48.2515
 20
7.414
 30
0.0
 10
48.2515
 20
7.414
 30
0.0
 10
48.2515
 20
7.414
 30
0.0
 10
48.2515
 20
7.414
 30
0.0
 10
48.2515
 20
7.414
 30
0.0
 10
48.2515
 20
7.414
 30
0.0
 10
48.2515
 20
7.414
 30
0.0
 10
48.2515
 20
7.414
 30
0.0
 10
48.2515
 20
7.414
 30
0.0
 10
48.2515
 20
7.414
 30
0.0
 10
48.2515
 20
7.414
 30
0.0
 10
48.2515
 20
6.5272
 30
0.0
 10
48.2515
 20
6.5272
 30
0.0
  0
SPLINE
  5
51
330
1F
100
AcDbEntity
  8
Ilustrace
 62
   250
370
     9
100
AcDbSpline
210
0.0
220
0.0
230
1.0
 70
    11
 71
     3
 72
    32
 73
    28
 74
     0
 42
0.0000000001
 43
0.0000000001
 40
0.0
 40
0.0
 40
0.0
 40
0.0
 40
0.125
 40
0.125
 40
0.125
 40
0.125
 40
0.25
 40
0.25
 40
0.25
 40
0.25
 40
0.375
 40
0.375
 40
0.375
 40
0.375
 40
0.5
 40
0.5
 40
0.5
 40
0.5
 40
0.625
 40
0.625
 40
0.625
 40
0.625
 40
0.75
 40
0.75
 40
0.75
 40
0.75
 40
1.0
 40
1.0
 40
1.0
 40
1.0
 10
72.7483
 20
1.9496
 30
0.0
 10
72.7483
 20
1.9496
 30
0.0
 10
72.7483
 20
1.9496
 30
0.0
 10
72.7483
 20
1.9496
 30
0.0
 10
72.7483
 20
1.9496
 30
0.0
 10
72.7483
 20
1.9496
 30
0.0
 10
72.7483
 20
1.9496
 30
0.0
 10
72.7483
 20
1.9496
 30
0.0
 10
72.7483
 20
1.9496
 30
0.0
 10
72.7483
 20
1.9496
 30
0.0
 10
72.3049
 20
3.2224
 30
0.0
 10
72.3049
 20
3.2224
 30
0.0
 10
72.3049
 20
3.2224
 30
0.0
 10
72.3049
 20
3.2224
 30
0.0
 10
71.8615
 20
1.9496
 30
0.0
 10
71.8615
 20
1.9496
 30
0.0
 10
71.8615
 20
1.9496
 30
0.0
 10
71.8615
 20
1.9496
 30
0.0
 10
71.8615
 20
1.9496
 30
0.0
 10
71.8615
 20
1.9496
 30
0.0
 10
71.8615
 20
1.9496
 30
0.0
 10
71.8615
 20
1.9496
 30
0.0
 10
71.8615
 20
1.9496
 30
0.0
 10
71.8615
 20
1.9496
 30
0.0
 10
71.8615
 20
1.9496
 30
0.0
 10
71.8615
 20
1.9496
 30
0.0
 10
72.7483
 20
1.9496
 30
0.0
 10
72.7483
 20
1.9496
 30
0.0
  0
SPLINE
  5
52
330
1F
100
AcDbEntity
  8
Ilustrace
 62
   250
370
     9
100
AcDbSpline
210
0.0
220
0.0
230
1.0
 70
    11
 71
     3
 72
    32
 73
    28
 74
     0
 42
0.0000000001
 43
0.0000000001
 40
0.0
 40
0.0
 40
0.0
 40
0.0
 40
0.125
 40
0.125
 40
0.125
 40
0.125
 40
0.25
 40
0.25
 40
0.25
 40
0.25
 40
0.375
 40
0.375
 40
0.375
 40
0.375
 40
0.5
 40
0.5
 40
0.5
 40
0.5
 40
0.625
 40
0.625
 40
0.625
 40
0.625
 40
0.75
 40
0.75
 40
0.75
 40
0.75
 40
1.0
 40
1.0
 40
1.0
 40
1.0
 10
68.6948
 20
6.5587
 30
0.0
 10
68.6948
 20
6.5587
 30
0.0
 10
68.6948
 20
6.5587
 30
0.0
 10
68.6948
 20
6.5587
 30
0.0
 10
68.6948
 20
6.5587
 30
0.0
 10
68.6948
 20
6.5587
 30
0.0
 10
68.6948
 20
6.5587
 30
0.0
 10
68.6948
 20
6.5587
 30
0.0
 10
68.6948
 20
6.5587
 30
0.0
 10
68.6948
 20
6.5587
 30
0.0
 10
67.422
 20
7.0021
 30
0.0
 10
67.422
 20
7.0021
 30
0.0
 10
67.422
 20
7.0021
 30
0.0
 10
67.422
 20
7.0021
 30
0.0
 10
68.6948
 20
7.4455
 30
0.0
 10
68.6948
 20
7.4455
 30
0.0
 10
68.6948
 20
7.4455
 30
0.0
 10
68.6948
 20
7.4455
 30
0.0
 10
68.6948
 20
7.4455
 30
0.0
 10
68.6948
 20
7.4455
 30
0.0
 10
68.6948
 20
7.4455
 30
0.0
 10
68.6948
 20
7.4455
 30
0.0
 10
68.6948
 20
7.4455
 30
0.0
 10
68.6948
 20
7.4455
 30
0.0
 10
68.6948
 20
7.4455
 30
0.0
 10
68.6948
 20
7.4455
 30
0.0
 10
68.6948
 20
6.5587
 30
0.0
 10
68.6948
 20
6.5587
 30
0.0
  0
SPLINE
  5
53
330
1F
100
AcDbEntity
  8
Ilustrace
 62
   250
370
     9
100
AcDbSpline
210
0.0
220
0.0
230
1.0
 70
    11
 71
     3
 72
    32
 73
    28
 74
     0
 42
0.0000000001
 43
0.0000000001
 40
0.0
 40
0.0
 40
0.0
 40
0.0
 40
0.125
 40
0.125
 40
0.125
 40
0.125
 40
0.25
 40
0.25
 40
0.25
 40
0.25
 40
0.375
 40
0.375
 40
0.375
 40
0.375
 40
0.5
 40
0.5
 40
0.5
 40
0.5
 40
0.625
 40
0.625
 40
0.625
 40
0.625
 40
0.75
 40
0.75
 40
0.75
 40
0.75
 40
1.0
 40
1.0
 40
1.0
 40
1.0
 10
37.9148
 20
6.579
 30
0.0
 10
37.9148
 20
6.579
 30
0.0
 10
37.9148
 20
6.579
 30
0.0
 10
37.9148
 20
6.579
 30
0.0
 10
37.9148
 20
6.579
 30
0.0
 10
37.9148
 20
6.579
 30
0.0
 10
37.9148
 20
6.579
 30
0.0
 10
37.9148
 20
6.579
 30
0.0
 10
37.9148
 20
6.579
 30
0.0
 10
37.9148
 20
6.579
 30
0.0
 10
36.642
 20
7.0224
 30
0.0
 10
36.642
 20
7.0224
 30
0.0
 10
36.642
 20
7.0224
 30
0.0
 10
36.642
 20
7.0224
 30
0.0
 10
37.9148
 20
7.4658
 30
0.0
 10
37.9148
 20
7.4658
 30
0.0
 10
37.9148
 20
7.4658
 30
0.0
 10
37.9148
 20
7.4658
 30
0.0
 10
37.9148
 20
7.4658
 30
0.0
 10
37.9148
 20
7.4658
 30
0.0
 10
37.9148
 20
7.4658
 30
0.0
 10
37.9148
 20
7.4658
 30
0.0
 10
37.9148
 20
7.4658
 30
0.0
 10
37.9148
 20
7.4658
 30
0.0
 10
37.9148
 20
7.4658
 30
0.0
 10
37.9148
 20
7.4658
 30
0.0
 10
37.9148
 20
6.579
 30
0.0
 10
37.9148
 20
6.579
 30
0.0
  0
SPLINE
  5
54
330
1F
100
AcDbEntity
  8
Ilustrace
 62
   250
370
     9
100
AcDbSpline
210
0.0
220
0.0
230
1.0
 70
    11
 71
     3
 72
    32
 73
    28
 74
     0
 42
0.0000000001
 43
0.0000000001
 40
0.0
 40
0.0
 40
0.0
 40
0.0
 40
0.125
 40
0.125
 40
0.125
 40
0.125
 40
0.25
 40
0.25
 40
0.25
 40
0.25
 40
0.375
 40
0.375
 40
0.375
 40
0.375
 40
0.5
 40
0.5
 40
0.5
 40
0.5
 40
0.625
 40
0.625
 40
0.625
 40
0.625
 40
0.75
 40
0.75
 40
0.75
 40
0.75
 40
1.0
 40
1.0
 40
1.0
 40
1.0
 10
72.8123
 20
-13.3438
 30
0.0
 10
72.8123
 20
-13.3438
 30
0.0
 10
72.8123
 20
-13.3438
 30
0.0
 10
72.8123
 20
-13.3438
 30
0.0
 10
72.8123
 20
-13.3438
 30
0.0
 10
72.8123
 20
-13.3438
 30
0.0
 10
72.8123
 20
-13.3438
 30
0.0
 10
72.8123
 20
-13.3438
 30
0.0
 10
72.8123
 20
-13.3438
 30
0.0
 10
72.8123
 20
-13.3438
 30
0.0
 10
72.3689
 20
-14.6166
 30
0.0
 10
72.3689
 20
-14.6166
 30
0.0
 10
72.3689
 20
-14.6166
 30
0.0
 10
72.3689
 20
-14.6166
 30
0.0
 10
71.9255
 20
-13.3438
 30
0.0
 10
71.9255
 20
-13.3438
 30
0.0
 10
71.9255
 20
-13.3438
 30
0.0
 10
71.9255
 20
-13.3438
 30
0.0
 10
71.9255
 20
-13.3438
 30
0.0
 10
71.9255
 20
-13.3438
 30
0.0
 10
71.9255
 20
-13.3438
 30
0.0
 10
71.9255
 20
-13.3438
 30
0.0
 10
71.9255
 20
-13.3438
 30
0.0
 10
71.9255
 20
-13.3438
 30
0.0
 10
71.9255
 20
-13.3438
 30
0.0
 10
71.9255
 20
-13.3438
 30
0.0
 10
72.8123
 20
-13.3438
 30
0.0
 10
72.8123
 20
-13.3438
 30
0.0
  0
SPLINE
  5
55
330
1F
100
AcDbEntity
  8
Ilustrace
 62
   250
100
AcDbSpline
210
0.0
220
0.0
230
1.0
 70
    11
 71
     3
 72
   124
 73
   120
 74
     0
 42
0.0000000001
 43
0.0000000001
 40
0.0
 40
0.0
 40
0.0
 40
0.0
 40
0.032258064516129
 40
0.032258064516129
 40
0.032258064516129
 40
0.032258064516129
 40
0.0645161290322581
 40
0.0645161290322581
 40
0.0645161290322581
 40
0.0645161290322581
 40
0.0967741935483871
 40
0.0967741935483871
 40
0.0967741935483871
 40
0.0967741935483871
 40
0.1290322580645161
 40
0.1290322580645161
 40
0.1290322580645161
 40
0.1290322580645161
 40
0.1612903225806452
 40
0.1612903225806452
 40
0.1612903225806452
 40
0.1612903225806452
 40
0.1935483870967742
 40
0.1935483870967742
 40
0.1935483870967742
 40
0.1935483870967742
 40
0.2258064516129032
 40
0.2258064516129032
 40
0.2258064516129032
 40
0.2258064516129032
 40
0.2580645161290323
 40
0.2580645161290323
 40
0.2580645161290323
 40
0.2580645161290323
 40
0.2903225806451613
 40
0.2903225806451613
 40
0.2903225806451613
 40
0.2903225806451613
 40
0.3225806451612903
 40
0.3225806451612903
 40
0.3225806451612903
 40
0.3225806451612903
 40
0.3548387096774194
 40
0.3548387096774194
 40
0.3548387096774194
 40
0.3548387096774194
 40
0.3870967741935484
 40
0.3870967741935484
 40
0.3870967741935484
 40
0.3870967741935484
 40
0.4193548387096774
 40
0.4193548387096774
 40
0.4193548387096774
 40
0.4193548387096774
 40
0.4516129032258064
 40
0.4516129032258064
 40
0.4516129032258064
 40
0.4516129032258064
 40
0.4838709677419355
 40
0.4838709677419355
 40
0.4838709677419355
 40
0.4838709677419355
 40
0.5161290322580645
 40
0.5161290322580645
 40
0.5161290322580645
 40
0.5161290322580645
 40
0.5483870967741935
 40
0.5483870967741935
 40
0.5483870967741935
 40
0.5483870967741935
 40
0.5806451612903226
 40
0.5806451612903226
 40
0.5806451612903226
 40
0.5806451612903226
 40
0.6129032258064516
 40
0.6129032258064516
 40
0.6129032258064516
 40
0.6129032258064516
 40
0.6451612903225806
 40
0.6451612903225806
 40
0.6451612903225806
 40
0.6451612903225806
 40
0.6774193548387096
 40
0.6774193548387096
 40
0.6774193548387096
 40
0.6774193548387096
 40
0.7096774193548387
 40
0.7096774193548387
 40
0.7096774193548387
 40
0.7096774193548387
 40
0.7419354838709677
 40
0.7419354838709677
 40
0.7419354838709677
 40
0.7419354838709677
 40
0.7741935483870968
 40
0.7741935483870968
 40
0.7741935483870968
 40
0.7741935483870968
 40
0.8064516129032258
 40
0.8064516129032258
 40
0.8064516129032258
 40
0.8064516129032258
 40
0.8387096774193549
 40
0.8387096774193549
 40
0.8387096774193549
 40
0.8387096774193549
 40
0.8709677419354839
 40
0.8709677419354839
 40
0.8709677419354839
 40
0.8709677419354839
 40
0.9032258064516129
 40
0.9032258064516129
 40
0.9032258064516129
 40
0.9032258064516129
 40
0.9354838709677419
 40
0.9354838709677419
 40
0.9354838709677419
 40
0.9354838709677419
 40
1.0
 40
1.0
 40
1.0
 40
1.0
 10
55.8765
 20
2.6729
 30
0.0
 10
55.8765
 20
2.6479
 30
0.0
 10
55.8777
 20
2.6185
 30
0.0
 10
55.8804
 20
2.5854
 30
0.0
 10
55.8804
 20
2.5854
 30
0.0
 10
55.8829
 20
2.5518
 30
0.0
 10
55.8881
 20
2.5145
 30
0.0
 10
55.8959
 20
2.4742
 30
0.0
 10
55.8959
 20
2.4742
 30
0.0
 10
55.9154
 20
2.3464
 30
0.0
 10
55.9567
 20
2.2279
 30
0.0
 10
56.0194
 20
2.1188
 30
0.0
 10
56.0194
 20
2.1188
 30
0.0
 10
56.0822
 20
2.0096
 30
0.0
 10
56.1651
 20
1.9128
 30
0.0
 10
56.2684
 20
1.8286
 30
0.0
 10
56.2684
 20
1.8286
 30
0.0
 10
56.3512
 20
1.7607
 30
0.0
 10
56.4495
 20
1.7013
 30
0.0
 10
56.5634
 20
1.6505
 30
0.0
 10
56.5634
 20
1.6505
 30
0.0
 10
56.6765
 20
1.5993
 30
0.0
 10
56.8039
 20
1.5594
 30
0.0
 10
56.9448
 20
1.5306
 30
0.0
 10
56.9448
 20
1.5306
 30
0.0
 10
57.0858
 20
1.502
 30
0.0
 10
57.2399
 20
1.4875
 30
0.0
 10
57.4054
 20
1.4871
 30
0.0
 10
57.4054
 20
1.4871
 30
0.0
 10
57.5697
 20
1.4875
 30
0.0
 10
57.7178
 20
1.5046
 30
0.0
 10
57.8496
 20
1.5377
 30
0.0
 10
57.8496
 20
1.5377
 30
0.0
 10
57.9821
 20
1.5713
 30
0.0
 10
58.0948
 20
1.6195
 30
0.0
 10
58.1886
 20
1.6821
 30
0.0
 10
58.1886
 20
1.6821
 30
0.0
 10
58.2824
 20
1.7442
 30
0.0
 10
58.3546
 20
1.8192
 30
0.0
 10
58.4045
 20
1.906
 30
0.0
 10
58.4045
 20
1.906
 30
0.0
 10
58.4544
 20
1.993
 30
0.0
 10
58.4795
 20
2.0903
 30
0.0
 10
58.4802
 20
2.1979
 30
0.0
 10
58.4802
 20
2.1979
 30
0.0
 10
58.4789
 20
2.3035
 30
0.0
 10
58.4544
 20
2.3982
 30
0.0
 10
58.4065
 20
2.4814
 30
0.0
 10
58.4065
 20
2.4814
 30
0.0
 10
58.3579
 20
2.5642
 30
0.0
 10
58.2921
 20
2.635
 30
0.0
 10
58.2085
 20
2.693
 30
0.0
 10
58.2085
 20
2.693
 30
0.0
 10
58.1251
 20
2.751
 30
0.0
 10
58.03
 20
2.7954
 30
0.0
 10
57.9233
 20
2.8254
 30
0.0
 10
57.9233
 20
2.8254
 30
0.0
 10
57.8173
 20
2.856
 30
0.0
 10
57.7054
 20
2.8715
 30
0.0
 10
57.5878
 20
2.8715
 30
0.0
 10
57.5878
 20
2.8715
 30
0.0
 10
57.4649
 20
2.871
 30
0.0
 10
57.3536
 20
2.856
 30
0.0
 10
57.254
 20
2.8266
 30
0.0
 10
57.254
 20
2.8266
 30
0.0
 10
57.1545
 20
2.797
 30
0.0
 10
57.0684
 20
2.7551
 30
0.0
 10
56.9967
 20
2.7013
 30
0.0
 10
56.9967
 20
2.7013
 30
0.0
 10
56.9255
 20
2.6469
 30
0.0
 10
56.8699
 20
2.5828
 30
0.0
 10
56.8317
 20
2.5088
 30
0.0
 10
56.8317
 20
2.5088
 30
0.0
 10
56.7929
 20
2.4349
 30
0.0
 10
56.7736
 20
2.3525
 30
0.0
 10
56.7728
 20
2.2631
 30
0.0
 10
56.7728
 20
2.2631
 30
0.0
 10
56.7736
 20
2.1885
 30
0.0
 10
56.787
 20
2.1202
 30
0.0
 10
56.813
 20
2.0583
 30
0.0
 10
56.813
 20
2.0583
 30
0.0
 10
56.8396
 20
1.9961
 30
0.0
 10
56.8744
 20
1.9408
 30
0.0
 10
56.919
 20
1.8927
 30
0.0
 10
56.919
 20
1.8927
 30
0.0
 10
56.9629
 20
1.8451
 30
0.0
 10
57.0128
 20
1.8047
 30
0.0
 10
57.0677
 20
1.7726
 30
0.0
 10
57.0677
 20
1.7726
 30
0.0
 10
57.0677
 20
1.7726
 30
0.0
 10
57.0677
 20
1.7664
 30
0.0
 10
57.0677
 20
1.7664
 30
0.0
 10
57.0677
 20
1.7664
 30
0.0
 10
56.9624
 20
1.7778
 30
0.0
 10
56.8609
 20
1.8006
 30
0.0
 10
56.7632
 20
1.8352
 30
0.0
 10
56.7632
 20
1.8352
 30
0.0
 10
56.6661
 20
1.8693
 30
0.0
 10
56.577
 20
1.9149
 30
0.0
 10
56.4961
 20
1.9729
 30
0.0
 10
56.4961
 20
1.9729
 30
0.0
 10
56.416
 20
2.0309
 30
0.0
 10
56.3473
 20
2.1006
 30
0.0
 10
56.2917
 20
2.1829
 30
0.0
 10
56.2917
 20
2.1829
 30
0.0
 10
56.2361
 20
2.2652
 30
0.0
 10
56.1973
 20
2.3604
 30
0.0
 10
56.1753
 20
2.468
 30
0.0
 10
56.1753
 20
2.468
 30
0.0
 10
56.1676
 20
2.5068
 30
0.0
 10
56.1616
 20
2.5441
 30
0.0
 10
56.1584
 20
2.5786
 30
0.0
 10
56.1584
 20
2.5786
 30
0.0
 10
56.1546
 20
2.6134
 30
0.0
 10
56.1539
 20
2.6449
 30
0.0
 10
56.1559
 20
2.6729
 30
0.0
 10
56.1559
 20
2.6729
 30
0.0
 10
56.1559
 20
2.6729
 30
0.0
 10
55.8765
 20
2.6729
 30
0.0
 10
55.8765
 20
2.6729
 30
0.0
  0
SPLINE
  5
56
330
1F
100
AcDbEntity
  8
Ilustrace
 62
   250
100
AcDbSpline
210
0.0
220
0.0
230
1.0
 70
    11
 71
     3
 72
    64
 73
    60
 74
     0
 42
0.0000000001
 43
0.0000000001
 40
0.0
 40
0.0
 40
0.0
 40
0.0
 40
0.0625
 40
0.0625
 40
0.0625
 40
0.0625
 40
0.125
 40
0.125
 40
0.125
 40
0.125
 40
0.1875
 40
0.1875
 40
0.1875
 40
0.1875
 40
0.25
 40
0.25
 40
0.25
 40
0.25
 40
0.3125
 40
0.3125
 40
0.3125
 40
0.3125
 40
0.375
 40
0.375
 40
0.375
 40
0.375
 40
0.4375
 40
0.4375
 40
0.4375
 40
0.4375
 40
0.5
 40
0.5
 40
0.5
 40
0.5
 40
0.5625
 40
0.5625
 40
0.5625
 40
0.5625
 40
0.625
 40
0.625
 40
0.625
 40
0.625
 40
0.6875
 40
0.6875
 40
0.6875
 40
0.6875
 40
0.75
 40
0.75
 40
0.75
 40
0.75
 40
0.8125
 40
0.8125
 40
0.8125
 40
0.8125
 40
0.875
 40
0.875
 40
0.875
 40
0.875
 40
1.0
 40
1.0
 40
1.0
 40
1.0
 10
58.2164
 20
2.2042
 30
0.0
 10
58.2157
 20
2.1317
 30
0.0
 10
58.1975
 20
2.068
 30
0.0
 10
58.1613
 20
2.0126
 30
0.0
 10
58.1613
 20
2.0126
 30
0.0
 10
58.1251
 20
1.9578
 30
0.0
 10
58.0747
 20
1.9113
 30
0.0
 10
58.0094
 20
1.8735
 30
0.0
 10
58.0094
 20
1.8735
 30
0.0
 10
57.9441
 20
1.8357
 30
0.0
 10
57.8672
 20
1.8073
 30
0.0
 10
57.7791
 20
1.7877
 30
0.0
 10
57.7791
 20
1.7877
 30
0.0
 10
57.6913
 20
1.768
 30
0.0
 10
57.5948
 20
1.7581
 30
0.0
 10
57.4908
 20
1.7571
 30
0.0
 10
57.4908
 20
1.7571
 30
0.0
 10
57.4597
 20
1.7571
 30
0.0
 10
57.4325
 20
1.7603
 30
0.0
 10
57.4079
 20
1.7654
 30
0.0
 10
57.4079
 20
1.7654
 30
0.0
 10
57.384
 20
1.7706
 30
0.0
 10
57.3627
 20
1.7773
 30
0.0
 10
57.3433
 20
1.7851
 30
0.0
 10
57.3433
 20
1.7851
 30
0.0
 10
57.2806
 20
1.8103
 30
0.0
 10
57.2262
 20
1.8431
 30
0.0
 10
57.1796
 20
1.8838
 30
0.0
 10
57.1796
 20
1.8838
 30
0.0
 10
57.1337
 20
1.9243
 30
0.0
 10
57.0975
 20
1.9697
 30
0.0
 10
57.0716
 20
2.0204
 30
0.0
 10
57.0716
 20
2.0204
 30
0.0
 10
57.0463
 20
2.0712
 30
0.0
 10
57.0329
 20
2.124
 30
0.0
 10
57.0329
 20
2.1792
 30
0.0
 10
57.0329
 20
2.1792
 30
0.0
 10
57.0334
 20
2.2636
 30
0.0
 10
57.0567
 20
2.3366
 30
0.0
 10
57.1027
 20
2.3992
 30
0.0
 10
57.1027
 20
2.3992
 30
0.0
 10
57.1486
 20
2.4613
 30
0.0
 10
57.2146
 20
2.5093
 30
0.0
 10
57.3006
 20
2.5435
 30
0.0
 10
57.3006
 20
2.5435
 30
0.0
 10
57.3866
 20
2.5776
 30
0.0
 10
57.49
 20
2.5947
 30
0.0
 10
57.6111
 20
2.5953
 30
0.0
 10
57.6111
 20
2.5953
 30
0.0
 10
57.732
 20
2.5947
 30
0.0
 10
57.838
 20
2.5782
 30
0.0
 10
57.9285
 20
2.5455
 30
0.0
 10
57.9285
 20
2.5455
 30
0.0
 10
58.0191
 20
2.5129
 30
0.0
 10
58.0889
 20
2.4675
 30
0.0
 10
58.1394
 20
2.4091
 30
0.0
 10
58.1394
 20
2.4091
 30
0.0
 10
58.1898
 20
2.3505
 30
0.0
 10
58.2157
 20
2.2822
 30
0.0
 10
58.2164
 20
2.2042
 30
0.0
  0
SPLINE
  5
57
330
1F
100
AcDbEntity
  8
Ilustrace
 62
   250
370
    15
100
AcDbSpline
210
0.0
220
0.0
230
1.0
 70
    24
 71
     3
 72
     8
 73
     4
 74
     0
 42
0.0000000001
 43
0.0000000001
 40
0.0
 40
0.0
 40
0.0
 40
0.0
 40
1.0
 40
1.0
 40
1.0
 40
1.0
 10
58.7007
 20
4.0816
 30
0.0
 10
58.7007
 20
4.0816
 30
0.0
 10
58.7007
 20
-4.1205
 30
0.0
 10
58.7007
 20
-4.1205
 30
0.0
  0
SPLINE
  5
58
330
1F
100
AcDbEntity
  8
Ilustrace
 62
   250
370
     9
100
AcDbSpline
210
0.0
220
0.0
230
1.0
 70
    11
 71
     3
 72
    32
 73
    28
 74
     0
 42
0.0000000001
 43
0.0000000001
 40
0.0
 40
0.0
 40
0.0
 40
0.0
 40
0.125
 40
0.125
 40
0.125
 40
0.125
 40
0.25
 40
0.25
 40
0.25
 40
0.25
 40
0.375
 40
0.375
 40
0.375
 40
0.375
 40
0.5
 40
0.5
 40
0.5
 40
0.5
 40
0.625
 40
0.625
 40
0.625
 40
0.625
 40
0.75
 40
0.75
 40
0.75
 40
0.75
 40
1.0
 40
1.0
 40
1.0
 40
1.0
 10
59.126
 20
-3.4322
 30
0.0
 10
59.126
 20
-3.4322
 30
0.0
 10
59.126
 20
-3.4322
 30
0.0
 10
59.126
 20
-3.4322
 30
0.0
 10
59.126
 20
-3.4322
 30
0.0
 10
59.126
 20
-3.4322
 30
0.0
 10
59.126
 20
-3.4322
 30
0.0
 10
59.126
 20
-3.4322
 30
0.0
 10
59.126
 20
-3.4322
 30
0.0
 10
59.126
 20
-3.4322
 30
0.0
 10
58.6826
 20
-2.1594
 30
0.0
 10
58.6826
 20
-2.1594
 30
0.0
 10
58.6826
 20
-2.1594
 30
0.0
 10
58.6826
 20
-2.1594
 30
0.0
 10
58.2392
 20
-3.4322
 30
0.0
 10
58.2392
 20
-3.4322
 30
0.0
 10
58.2392
 20
-3.4322
 30
0.0
 10
58.2392
 20
-3.4322
 30
0.0
 10
58.2392
 20
-3.4322
 30
0.0
 10
58.2392
 20
-3.4322
 30
0.0
 10
58.2392
 20
-3.4322
 30
0.0
 10
58.2392
 20
-3.4322
 30
0.0
 10
58.2392
 20
-3.4322
 30
0.0
 10
58.2392
 20
-3.4322
 30
0.0
 10
58.2392
 20
-3.4322
 30
0.0
 10
58.2392
 20
-3.4322
 30
0.0
 10
59.126
 20
-3.4322
 30
0.0
 10
59.126
 20
-3.4322
 30
0.0
  0
SPLINE
  5
59
330
1F
100
AcDbEntity
  8
Ilustrace
 62
   250
370
     9
100
AcDbSpline
210
0.0
220
0.0
230
1.0
 70
    11
 71
     3
 72
    32
 73
    28
 74
     0
 42
0.0000000001
 43
0.0000000001
 40
0.0
 40
0.0
 40
0.0
 40
0.0
 40
0.125
 40
0.125
 40
0.125
 40
0.125
 40
0.25
 40
0.25
 40
0.25
 40
0.25
 40
0.375
 40
0.375
 40
0.375
 40
0.375
 40
0.5
 40
0.5
 40
0.5
 40
0.5
 40
0.625
 40
0.625
 40
0.625
 40
0.625
 40
0.75
 40
0.75
 40
0.75
 40
0.75
 40
1.0
 40
1.0
 40
1.0
 40
1.0
 10
59.11
 20
0.7009
 30
0.0
 10
59.11
 20
0.7009
 30
0.0
 10
59.11
 20
0.7009
 30
0.0
 10
59.11
 20
0.7009
 30
0.0
 10
59.11
 20
0.7009
 30
0.0
 10
59.11
 20
0.7009
 30
0.0
 10
59.11
 20
0.7009
 30
0.0
 10
59.11
 20
0.7009
 30
0.0
 10
59.11
 20
0.7009
 30
0.0
 10
59.11
 20
0.7009
 30
0.0
 10
58.6666
 20
-0.5719
 30
0.0
 10
58.6666
 20
-0.5719
 30
0.0
 10
58.6666
 20
-0.5719
 30
0.0
 10
58.6666
 20
-0.5719
 30
0.0
 10
58.2232
 20
0.7009
 30
0.0
 10
58.2232
 20
0.7009
 30
0.0
 10
58.2232
 20
0.7009
 30
0.0
 10
58.2232
 20
0.7009
 30
0.0
 10
58.2232
 20
0.7009
 30
0.0
 10
58.2232
 20
0.7009
 30
0.0
 10
58.2232
 20
0.7009
 30
0.0
 10
58.2232
 20
0.7009
 30
0.0
 10
58.2232
 20
0.7009
 30
0.0
 10
58.2232
 20
0.7009
 30
0.0
 10
58.2232
 20
0.7009
 30
0.0
 10
58.2232
 20
0.7009
 30
0.0
 10
59.11
 20
0.7009
 30
0.0
 10
59.11
 20
0.7009
 30
0.0
  0
SPLINE
  5
5A
330
1F
100
AcDbEntity
  8
Ilustrace
 62
   250
370
    15
100
AcDbSpline
210
0.0
220
0.0
230
1.0
 70
    24
 71
     3
 72
     8
 73
     4
 74
     0
 42
0.0000000001
 43
0.0000000001
 40
0.0
 40
0.0
 40
0.0
 40
0.0
 40
1.0
 40
1.0
 40
1.0
 40
1.0
 10
49.878
 20
-2.1628
 30
0.0
 10
49.878
 20
-2.1628
 30
0.0
 10
58.9604
 20
-2.1628
 30
0.0
 10
58.9604
 20
-2.1628
 30
0.0
  0
SPLINE
  5
5B
330
1F
100
AcDbEntity
  8
Ilustrace
 62
   250
370
    15
100
AcDbSpline
210
0.0
220
0.0
230
1.0
 70
    24
 71
     3
 72
     8
 73
     4
 74
     0
 42
0.0000000001
 43
0.0000000001
 40
0.0
 40
0.0
 40
0.0
 40
0.0
 40
1.0
 40
1.0
 40
1.0
 40
1.0
 10
49.9441
 20
-0.5864
 30
0.0
 10
49.9441
 20
-0.5864
 30
0.0
 10
59.0265
 20
-0.5864
 30
0.0
 10
59.0265
 20
-0.5864
 30
0.0
  0
SPLINE
  5
5C
330
1F
100
AcDbEntity
  8
Ilustrace
 62
   250
370
    15
100
AcDbSpline
210
0.0
220
0.0
230
1.0
 70
    24
 71
     3
 72
     8
 73
     4
 74
     0
 42
0.0000000001
 43
0.0000000001
 40
0.0
 40
0.0
 40
0.0
 40
0.0
 40
1.0
 40
1.0
 40
1.0
 40
1.0
 10
67.4209
 20
3.217
 30
0.0
 10
67.4209
 20
3.217
 30
0.0
 10
72.9275
 20
3.217
 30
0.0
 10
72.9275
 20
3.217
 30
0.0
  0
SPLINE
  5
5D
330
1F
100
AcDbEntity
  8
Ilustrace
 62
   250
100
AcDbSpline
210
0.0
220
0.0
230
1.0
 70
    11
 71
     3
 72
    36
 73
    32
 74
     0
 42
0.0000000001
 43
0.0000000001
 40
0.0
 40
0.0
 40
0.0
 40
0.0
 40
0.1111111111111111
 40
0.1111111111111111
 40
0.1111111111111111
 40
0.1111111111111111
 40
0.2222222222222222
 40
0.2222222222222222
 40
0.2222222222222222
 40
0.2222222222222222
 40
0.3333333333333333
 40
0.3333333333333333
 40
0.3333333333333333
 40
0.3333333333333333
 40
0.4444444444444444
 40
0.4444444444444444
 40
0.4444444444444444
 40
0.4444444444444444
 40
0.5555555555555556
 40
0.5555555555555556
 40
0.5555555555555556
 40
0.5555555555555556
 40
0.6666666666666666
 40
0.6666666666666666
 40
0.6666666666666666
 40
0.6666666666666666
 40
0.7777777777777778
 40
0.7777777777777778
 40
0.7777777777777778
 40
0.7777777777777778
 40
1.0
 40
1.0
 40
1.0
 40
1.0
 10
69.2555
 20
-7.2533
 30
0.0
 10
69.2555
 20
-7.2533
 30
0.0
 10
69.5387
 20
-7.2533
 30
0.0
 10
69.5387
 20
-7.2533
 30
0.0
 10
69.5387
 20
-7.2533
 30
0.0
 10
69.5387
 20
-7.2533
 30
0.0
 10
69.5387
 20
-6.2662
 30
0.0
 10
69.5387
 20
-6.2662
 30
0.0
 10
69.5387
 20
-6.2662
 30
0.0
 10
69.5387
 20
-6.2662
 30
0.0
 10
69.5465
 20
-6.2662
 30
0.0
 10
69.5465
 20
-6.2662
 30
0.0
 10
69.5465
 20
-6.2662
 30
0.0
 10
69.5465
 20
-6.2662
 30
0.0
 10
71.7777
 20
-7.1416
 30
0.0
 10
71.7777
 20
-7.1416
 30
0.0
 10
71.7777
 20
-7.1416
 30
0.0
 10
71.7777
 20
-7.1416
 30
0.0
 10
71.7777
 20
-6.8591
 30
0.0
 10
71.7777
 20
-6.8591
 30
0.0
 10
71.7777
 20
-6.8591
 30
0.0
 10
71.7777
 20
-6.8591
 30
0.0
 10
69.4805
 20
-5.9806
 30
0.0
 10
69.4805
 20
-5.9806
 30
0.0
 10
69.4805
 20
-5.9806
 30
0.0
 10
69.4805
 20
-5.9806
 30
0.0
 10
69.2555
 20
-5.9806
 30
0.0
 10
69.2555
 20
-5.9806
 30
0.0
 10
69.2555
 20
-5.9806
 30
0.0
 10
69.2555
 20
-5.9806
 30
0.0
 10
69.2555
 20
-7.2533
 30
0.0
 10
69.2555
 20
-7.2533
 30
0.0
  0
SPLINE
  5
5E
330
1F
100
AcDbEntity
  8
Ilustrace
 62
   250
100
AcDbSpline
210
0.0
220
0.0
230
1.0
 70
    11
 71
     3
 72
   132
 73
   128
 74
     0
 42
0.0000000001
 43
0.0000000001
 40
0.0
 40
0.0
 40
0.0
 40
0.0
 40
0.0303030303030303
 40
0.0303030303030303
 40
0.0303030303030303
 40
0.0303030303030303
 40
0.0606060606060606
 40
0.0606060606060606
 40
0.0606060606060606
 40
0.0606060606060606
 40
0.0909090909090909
 40
0.0909090909090909
 40
0.0909090909090909
 40
0.0909090909090909
 40
0.1212121212121212
 40
0.1212121212121212
 40
0.1212121212121212
 40
0.1212121212121212
 40
0.1515151515151515
 40
0.1515151515151515
 40
0.1515151515151515
 40
0.1515151515151515
 40
0.1818181818181818
 40
0.1818181818181818
 40
0.1818181818181818
 40
0.1818181818181818
 40
0.2121212121212121
 40
0.2121212121212121
 40
0.2121212121212121
 40
0.2121212121212121
 40
0.2424242424242424
 40
0.2424242424242424
 40
0.2424242424242424
 40
0.2424242424242424
 40
0.2727272727272727
 40
0.2727272727272727
 40
0.2727272727272727
 40
0.2727272727272727
 40
0.303030303030303
 40
0.303030303030303
 40
0.303030303030303
 40
0.303030303030303
 40
0.3333333333333333
 40
0.3333333333333333
 40
0.3333333333333333
 40
0.3333333333333333
 40
0.3636363636363636
 40
0.3636363636363636
 40
0.3636363636363636
 40
0.3636363636363636
 40
0.3939393939393939
 40
0.3939393939393939
 40
0.3939393939393939
 40
0.3939393939393939
 40
0.4242424242424243
 40
0.4242424242424243
 40
0.4242424242424243
 40
0.4242424242424243
 40
0.4545454545454545
 40
0.4545454545454545
 40
0.4545454545454545
 40
0.4545454545454545
 40
0.4848484848484849
 40
0.4848484848484849
 40
0.4848484848484849
 40
0.4848484848484849
 40
0.5151515151515151
 40
0.5151515151515151
 40
0.5151515151515151
 40
0.5151515151515151
 40
0.5454545454545454
 40
0.5454545454545454
 40
0.5454545454545454
 40
0.5454545454545454
 40
0.5757575757575758
 40
0.5757575757575758
 40
0.5757575757575758
 40
0.5757575757575758
 40
0.6060606060606061
 40
0.6060606060606061
 40
0.6060606060606061
 40
0.6060606060606061
 40
0.6363636363636364
 40
0.6363636363636364
 40
0.6363636363636364
 40
0.6363636363636364
 40
0.6666666666666666
 40
0.6666666666666666
 40
0.6666666666666666
 40
0.6666666666666666
 40
0.696969696969697
 40
0.696969696969697
 40
0.696969696969697
 40
0.696969696969697
 40
0.7272727272727273
 40
0.7272727272727273
 40
0.7272727272727273
 40
0.7272727272727273
 40
0.7575757575757576
 40
0.7575757575757576
 40
0.7575757575757576
 40
0.7575757575757576
 40
0.7878787878787878
 40
0.7878787878787878
 40
0.7878787878787878
 40
0.7878787878787878
 40
0.8181818181818182
 40
0.8181818181818182
 40
0.8181818181818182
 40
0.8181818181818182
 40
0.8484848484848485
 40
0.8484848484848485
 40
0.8484848484848485
 40
0.8484848484848485
 40
0.8787878787878788
 40
0.8787878787878788
 40
0.8787878787878788
 40
0.8787878787878788
 40
0.9090909090909091
 40
0.9090909090909091
 40
0.9090909090909091
 40
0.9090909090909091
 40
0.9393939393939394
 40
0.9393939393939394
 40
0.9393939393939394
 40
0.9393939393939394
 40
1.0
 40
1.0
 40
1.0
 40
1.0
 10
69.2555
 20
-4.4936
 30
0.0
 10
69.2555
 20
-4.4936
 30
0.0
 10
69.2555
 20
-5.459
 30
0.0
 10
69.2555
 20
-5.459
 30
0.0
 10
69.2555
 20
-5.459
 30
0.0
 10
69.2555
 20
-5.459
 30
0.0
 10
70.4661
 20
-5.5894
 30
0.0
 10
70.4661
 20
-5.5894
 30
0.0
 10
70.4661
 20
-5.5894
 30
0.0
 10
70.4597
 20
-5.5522
 30
0.0
 10
70.4545
 20
-5.5107
 30
0.0
 10
70.45
 20
-5.4643
 30
0.0
 10
70.45
 20
-5.4643
 30
0.0
 10
70.4454
 20
-5.4181
 30
0.0
 10
70.4428
 20
-5.3655
 30
0.0
 10
70.4428
 20
-5.307
 30
0.0
 10
70.4428
 20
-5.307
 30
0.0
 10
70.4436
 20
-5.1735
 30
0.0
 10
70.4674
 20
-5.0643
 30
0.0
 10
70.514
 20
-4.9795
 30
0.0
 10
70.514
 20
-4.9795
 30
0.0
 10
70.5612
 20
-4.8941
 30
0.0
 10
70.6259
 20
-4.8309
 30
0.0
 10
70.7086
 20
-4.79
 30
0.0
 10
70.7086
 20
-4.79
 30
0.0
 10
70.7921
 20
-4.7491
 30
0.0
 10
70.8885
 20
-4.729
 30
0.0
 10
70.9977
 20
-4.7296
 30
0.0
 10
70.9977
 20
-4.7296
 30
0.0
 10
71.0824
 20
-4.729
 30
0.0
 10
71.1582
 20
-4.7414
 30
0.0
 10
71.2255
 20
-4.7667
 30
0.0
 10
71.2255
 20
-4.7667
 30
0.0
 10
71.2933
 20
-4.7917
 30
0.0
 10
71.3503
 20
-4.8263
 30
0.0
 10
71.398
 20
-4.8703
 30
0.0
 10
71.398
 20
-4.8703
 30
0.0
 10
71.4452
 20
-4.9142
 30
0.0
 10
71.4815
 20
-4.9649
 30
0.0
 10
71.5067
 20
-5.0223
 30
0.0
 10
71.5067
 20
-5.0223
 30
0.0
 10
71.5319
 20
-5.0798
 30
0.0
 10
71.5448
 20
-5.1404
 30
0.0
 10
71.5448
 20
-5.2044
 30
0.0
 10
71.5448
 20
-5.2044
 30
0.0
 10
71.5443
 20
-5.2671
 30
0.0
 10
71.5371
 20
-5.3261
 30
0.0
 10
71.5223
 20
-5.3814
 30
0.0
 10
71.5223
 20
-5.3814
 30
0.0
 10
71.508
 20
-5.4368
 30
0.0
 10
71.4905
 20
-5.4865
 30
0.0
 10
71.4692
 20
-5.5304
 30
0.0
 10
71.4692
 20
-5.5304
 30
0.0
 10
71.4478
 20
-5.5745
 30
0.0
 10
71.4266
 20
-5.6106
 30
0.0
 10
71.4052
 20
-5.6391
 30
0.0
 10
71.4052
 20
-5.6391
 30
0.0
 10
71.4052
 20
-5.6391
 30
0.0
 10
71.6651
 20
-5.7074
 30
0.0
 10
71.6651
 20
-5.7074
 30
0.0
 10
71.6651
 20
-5.7074
 30
0.0
 10
71.6916
 20
-5.6737
 30
0.0
 10
71.7162
 20
-5.6319
 30
0.0
 10
71.7401
 20
-5.5817
 30
0.0
 10
71.7401
 20
-5.5817
 30
0.0
 10
71.7634
 20
-5.5315
 30
0.0
 10
71.7822
 20
-5.4746
 30
0.0
 10
71.7971
 20
-5.4109
 30
0.0
 10
71.7971
 20
-5.4109
 30
0.0
 10
71.8119
 20
-5.3468
 30
0.0
 10
71.8198
 20
-5.278
 30
0.0
 10
71.8204
 20
-5.2044
 30
0.0
 10
71.8204
 20
-5.2044
 30
0.0
 10
71.8198
 20
-5.0943
 30
0.0
 10
71.7978
 20
-4.9939
 30
0.0
 10
71.7551
 20
-4.9023
 30
0.0
 10
71.7551
 20
-4.9023
 30
0.0
 10
71.7123
 20
-4.8108
 30
0.0
 10
71.6522
 20
-4.7315
 30
0.0
 10
71.5747
 20
-4.6649
 30
0.0
 10
71.5747
 20
-4.6649
 30
0.0
 10
71.4971
 20
-4.5976
 30
0.0
 10
71.4059
 20
-4.5458
 30
0.0
 10
71.3018
 20
-4.5091
 30
0.0
 10
71.3018
 20
-4.5091
 30
0.0
 10
71.1969
 20
-4.4724
 30
0.0
 10
71.0824
 20
-4.4538
 30
0.0
 10
70.959
 20
-4.4532
 30
0.0
 10
70.959
 20
-4.4532
 30
0.0
 10
70.8541
 20
-4.4538
 30
0.0
 10
70.7597
 20
-4.4672
 30
0.0
 10
70.6763
 20
-4.4931
 30
0.0
 10
70.6763
 20
-4.4931
 30
0.0
 10
70.5928
 20
-4.5189
 30
0.0
 10
70.521
 20
-4.5531
 30
0.0
 10
70.4603
 20
-4.5965
 30
0.0
 10
70.4603
 20
-4.5965
 30
0.0
 10
70.3996
 20
-4.64
 30
0.0
 10
70.3511
 20
-4.6887
 30
0.0
 10
70.3148
 20
-4.7419
 30
0.0
 10
70.3148
 20
-4.7419
 30
0.0
 10
70.2669
 20
-4.8046
 30
0.0
 10
70.2319
 20
-4.8723
 30
0.0
 10
70.2107
 20
-4.9463
 30
0.0
 10
70.2107
 20
-4.9463
 30
0.0
 10
70.1893
 20
-5.0202
 30
0.0
 10
70.1784
 20
-5.0969
 30
0.0
 10
70.1789
 20
-5.1766
 30
0.0
 10
70.1789
 20
-5.1766
 30
0.0
 10
70.1789
 20
-5.2127
 30
0.0
 10
70.1797
 20
-5.2438
 30
0.0
 10
70.1816
 20
-5.2692
 30
0.0
 10
70.1816
 20
-5.2692
 30
0.0
 10
70.1835
 20
-5.2945
 30
0.0
 10
70.1868
 20
-5.3183
 30
0.0
 10
70.1906
 20
-5.3411
 30
0.0
 10
70.1906
 20
-5.3411
 30
0.0
 10
70.1906
 20
-5.3411
 30
0.0
 10
69.5425
 20
-5.2635
 30
0.0
 10
69.5425
 20
-5.2635
 30
0.0
 10
69.5425
 20
-5.2635
 30
0.0
 10
69.5425
 20
-5.2635
 30
0.0
 10
69.5425
 20
-4.4936
 30
0.0
 10
69.5425
 20
-4.4936
 30
0.0
 10
69.5425
 20
-4.4936
 30
0.0
 10
69.5425
 20
-4.4936
 30
0.0
 10
69.2555
 20
-4.4936
 30
0.0
 10
69.2555
 20
-4.4936
 30
0.0
  0
SPLINE
  5
5F
330
1F
100
AcDbEntity
  8
Ilustrace
 62
   250
370
    15
100
AcDbSpline
210
0.0
220
0.0
230
1.0
 70
    24
 71
     3
 72
     8
 73
     4
 74
     0
 42
0.0000000001
 43
0.0000000001
 40
0.0
 40
0.0
 40
0.0
 40
0.0
 40
1.0
 40
1.0
 40
1.0
 40
1.0
 10
55.3863
 20
3.6514
 30
0.0
 10
55.3863
 20
3.6514
 30
0.0
 10
55.3863
 20
11.8165
 30
0.0
 10
55.3863
 20
11.8165
 30
0.0
  0
SPLINE
  5
60
330
1F
100
AcDbEntity
  8
Ilustrace
 62
   250
370
    15
100
AcDbSpline
210
0.0
220
0.0
230
1.0
 70
    24
 71
     3
 72
     8
 73
     4
 74
     0
 42
0.0000000001
 43
0.0000000001
 40
0.0
 40
0.0
 40
0.0
 40
0.0
 40
1.0
 40
1.0
 40
1.0
 40
1.0
 10
-72.9273
 20
3.6558
 30
0.0
 10
-72.9273
 20
3.6558
 30
0.0
 10
-72.9273
 20
11.8166
 30
0.0
 10
-72.9273
 20
11.8166
 30
0.0
  0
SPLINE
  5
61
330
1F
100
AcDbEntity
  8
Ilustrace
 62
   250
100
AcDbSpline
210
0.0
220
0.0
230
1.0
 70
    11
 71
     3
 72
   124
 73
   120
 74
     0
 42
0.0000000001
 43
0.0000000001
 40
0.0
 40
0.0
 40
0.0
 40
0.0
 40
0.032258064516129
 40
0.032258064516129
 40
0.032258064516129
 40
0.032258064516129
 40
0.0645161290322581
 40
0.0645161290322581
 40
0.0645161290322581
 40
0.0645161290322581
 40
0.0967741935483871
 40
0.0967741935483871
 40
0.0967741935483871
 40
0.0967741935483871
 40
0.1290322580645161
 40
0.1290322580645161
 40
0.1290322580645161
 40
0.1290322580645161
 40
0.1612903225806452
 40
0.1612903225806452
 40
0.1612903225806452
 40
0.1612903225806452
 40
0.1935483870967742
 40
0.1935483870967742
 40
0.1935483870967742
 40
0.1935483870967742
 40
0.2258064516129032
 40
0.2258064516129032
 40
0.2258064516129032
 40
0.2258064516129032
 40
0.2580645161290323
 40
0.2580645161290323
 40
0.2580645161290323
 40
0.2580645161290323
 40
0.2903225806451613
 40
0.2903225806451613
 40
0.2903225806451613
 40
0.2903225806451613
 40
0.3225806451612903
 40
0.3225806451612903
 40
0.3225806451612903
 40
0.3225806451612903
 40
0.3548387096774194
 40
0.3548387096774194
 40
0.3548387096774194
 40
0.3548387096774194
 40
0.3870967741935484
 40
0.3870967741935484
 40
0.3870967741935484
 40
0.3870967741935484
 40
0.4193548387096774
 40
0.4193548387096774
 40
0.4193548387096774
 40
0.4193548387096774
 40
0.4516129032258064
 40
0.4516129032258064
 40
0.4516129032258064
 40
0.4516129032258064
 40
0.4838709677419355
 40
0.4838709677419355
 40
0.4838709677419355
 40
0.4838709677419355
 40
0.5161290322580645
 40
0.5161290322580645
 40
0.5161290322580645
 40
0.5161290322580645
 40
0.5483870967741935
 40
0.5483870967741935
 40
0.5483870967741935
 40
0.5483870967741935
 40
0.5806451612903226
 40
0.5806451612903226
 40
0.5806451612903226
 40
0.5806451612903226
 40
0.6129032258064516
 40
0.6129032258064516
 40
0.6129032258064516
 40
0.6129032258064516
 40
0.6451612903225806
 40
0.6451612903225806
 40
0.6451612903225806
 40
0.6451612903225806
 40
0.6774193548387096
 40
0.6774193548387096
 40
0.6774193548387096
 40
0.6774193548387096
 40
0.7096774193548387
 40
0.7096774193548387
 40
0.7096774193548387
 40
0.7096774193548387
 40
0.7419354838709677
 40
0.7419354838709677
 40
0.7419354838709677
 40
0.7419354838709677
 40
0.7741935483870968
 40
0.7741935483870968
 40
0.7741935483870968
 40
0.7741935483870968
 40
0.8064516129032258
 40
0.8064516129032258
 40
0.8064516129032258
 40
0.8064516129032258
 40
0.8387096774193549
 40
0.8387096774193549
 40
0.8387096774193549
 40
0.8387096774193549
 40
0.8709677419354839
 40
0.8709677419354839
 40
0.8709677419354839
 40
0.8709677419354839
 40
0.9032258064516129
 40
0.9032258064516129
 40
0.9032258064516129
 40
0.9032258064516129
 40
0.9354838709677419
 40
0.9354838709677419
 40
0.9354838709677419
 40
0.9354838709677419
 40
1.0
 40
1.0
 40
1.0
 40
1.0
 10
-18.0488
 20
12.1568
 30
0.0
 10
-18.0162
 20
12.1548
 30
0.0
 10
-17.9785
 20
12.1548
 30
0.0
 10
-17.936
 20
12.158
 30
0.0
 10
-17.936
 20
12.158
 30
0.0
 10
-17.8936
 20
12.1605
 30
0.0
 10
-17.8471
 20
12.1664
 30
0.0
 10
-17.7973
 20
12.1761
 30
0.0
 10
-17.7973
 20
12.1761
 30
0.0
 10
-17.7244
 20
12.1865
 30
0.0
 10
-17.653
 20
12.2064
 30
0.0
 10
-17.5832
 20
12.235
 30
0.0
 10
-17.5832
 20
12.235
 30
0.0
 10
-17.5134
 20
12.264
 30
0.0
 10
-17.4466
 20
12.3022
 30
0.0
 10
-17.3835
 20
12.3488
 30
0.0
 10
-17.3835
 20
12.3488
 30
0.0
 10
-17.3204
 20
12.3953
 30
0.0
 10
-17.2629
 20
12.4503
 30
0.0
 10
-17.2106
 20
12.5137
 30
0.0
 10
-17.2106
 20
12.5137
 30
0.0
 10
-17.1439
 20
12.5938
 30
0.0
 10
-17.0844
 20
12.6903
 30
0.0
 10
-17.0321
 20
12.804
 30
0.0
 10
-17.0321
 20
12.804
 30
0.0
 10
-16.9799
 20
12.9172
 30
0.0
 10
-16.939
 20
13.0479
 30
0.0
 10
-16.909
 20
13.1959
 30
0.0
 10
-16.909
 20
13.1959
 30
0.0
 10
-16.8791
 20
13.344
 30
0.0
 10
-16.8636
 20
13.5095
 30
0.0
 10
-16.863
 20
13.6932
 30
0.0
 10
-16.863
 20
13.6932
 30
0.0
 10
-16.863
 20
13.8569
 30
0.0
 10
-16.8785
 20
14.0036
 30
0.0
 10
-16.909
 20
14.1349
 30
0.0
 10
-16.909
 20
14.1349
 30
0.0
 10
-16.9396
 20
14.2662
 30
0.0
 10
-16.9841
 20
14.3781
 30
0.0
 10
-17.042
 20
14.4714
 30
0.0
 10
-17.042
 20
14.4714
 30
0.0
 10
-17.1
 20
14.5644
 30
0.0
 10
-17.1697
 20
14.6355
 30
0.0
 10
-17.2521
 20
14.6853
 30
0.0
 10
-17.2521
 20
14.6853
 30
0.0
 10
-17.3343
 20
14.7352
 30
0.0
 10
-17.427
 20
14.7597
 30
0.0
 10
-17.5304
 20
14.7603
 30
0.0
 10
-17.5304
 20
14.7603
 30
0.0
 10
-17.6339
 20
14.7597
 30
0.0
 10
-17.728
 20
14.7352
 30
0.0
 10
-17.8124
 20
14.6873
 30
0.0
 10
-17.8124
 20
14.6873
 30
0.0
 10
-17.8967
 20
14.6401
 30
0.0
 10
-17.9692
 20
14.5741
 30
0.0
 10
-18.0297
 20
14.4913
 30
0.0
 10
-18.0297
 20
14.4913
 30
0.0
 10
-18.0907
 20
14.4079
 30
0.0
 10
-18.1373
 20
14.3128
 30
0.0
 10
-18.1699
 20
14.2054
 30
0.0
 10
-18.1699
 20
14.2054
 30
0.0
 10
-18.2025
 20
14.0981
 30
0.0
 10
-18.219
 20
13.9843
 30
0.0
 10
-18.2195
 20
13.8639
 30
0.0
 10
-18.2195
 20
13.8639
 30
0.0
 10
-18.219
 20
13.756
 30
0.0
 10
-18.205
 20
13.6552
 30
0.0
 10
-18.1776
 20
13.5619
 30
0.0
 10
-18.1776
 20
13.5619
 30
0.0
 10
-18.1497
 20
13.4683
 30
0.0
 10
-18.1098
 20
13.3867
 30
0.0
 10
-18.0581
 20
13.3162
 30
0.0
 10
-18.0581
 20
13.3162
 30
0.0
 10
-18.0063
 20
13.2464
 30
0.0
 10
-17.9438
 20
13.1914
 30
0.0
 10
-17.8713
 20
13.1519
 30
0.0
 10
-17.8713
 20
13.1519
 30
0.0
 10
-17.7984
 20
13.1125
 30
0.0
 10
-17.7171
 20
13.0926
 30
0.0
 10
-17.6266
 20
13.0919
 30
0.0
 10
-17.6266
 20
13.0919
 30
0.0
 10
-17.5241
 20
13.0926
 30
0.0
 10
-17.4326
 20
13.1157
 30
0.0
 10
-17.3524
 20
13.1616
 30
0.0
 10
-17.3524
 20
13.1616
 30
0.0
 10
-17.2728
 20
13.2075
 30
0.0
 10
-17.2045
 20
13.2735
 30
0.0
 10
-17.1486
 20
13.3596
 30
0.0
 10
-17.1486
 20
13.3596
 30
0.0
 10
-17.1486
 20
13.3596
 30
0.0
 10
-17.1393
 20
13.3596
 30
0.0
 10
-17.1393
 20
13.3596
 30
0.0
 10
-17.1393
 20
13.3596
 30
0.0
 10
-17.1584
 20
13.2122
 30
0.0
 10
-17.191
 20
13.0827
 30
0.0
 10
-17.2366
 20
12.9722
 30
0.0
 10
-17.2366
 20
12.9722
 30
0.0
 10
-17.2825
 20
12.861
 30
0.0
 10
-17.339
 20
12.7678
 30
0.0
 10
-17.4062
 20
12.6921
 30
0.0
 10
-17.4062
 20
12.6921
 30
0.0
 10
-17.4641
 20
12.6223
 30
0.0
 10
-17.5289
 20
12.568
 30
0.0
 10
-17.6007
 20
12.5278
 30
0.0
 10
-17.6007
 20
12.5278
 30
0.0
 10
-17.6726
 20
12.4878
 30
0.0
 10
-17.7487
 20
12.4613
 30
0.0
 10
-17.8284
 20
12.4477
 30
0.0
 10
-17.8284
 20
12.4477
 30
0.0
 10
-17.8745
 20
12.4419
 30
0.0
 10
-17.9158
 20
12.4374
 30
0.0
 10
-17.9515
 20
12.4347
 30
0.0
 10
-17.9515
 20
12.4347
 30
0.0
 10
-17.9873
 20
12.4322
 30
0.0
 10
-18.0198
 20
12.4322
 30
0.0
 10
-18.0488
 20
12.436
 30
0.0
 10
-18.0488
 20
12.436
 30
0.0
 10
-18.0488
 20
12.436
 30
0.0
 10
-18.0488
 20
12.1568
 30
0.0
 10
-18.0488
 20
12.1568
 30
0.0
  0
SPLINE
  5
62
330
1F
100
AcDbEntity
  8
Ilustrace
 62
   250
100
AcDbSpline
210
0.0
220
0.0
230
1.0
 70
    11
 71
     3
 72
    64
 73
    60
 74
     0
 42
0.0000000001
 43
0.0000000001
 40
0.0
 40
0.0
 40
0.0
 40
0.0
 40
0.0625
 40
0.0625
 40
0.0625
 40
0.0625
 40
0.125
 40
0.125
 40
0.125
 40
0.125
 40
0.1875
 40
0.1875
 40
0.1875
 40
0.1875
 40
0.25
 40
0.25
 40
0.25
 40
0.25
 40
0.3125
 40
0.3125
 40
0.3125
 40
0.3125
 40
0.375
 40
0.375
 40
0.375
 40
0.375
 40
0.4375
 40
0.4375
 40
0.4375
 40
0.4375
 40
0.5
 40
0.5
 40
0.5
 40
0.5
 40
0.5625
 40
0.5625
 40
0.5625
 40
0.5625
 40
0.625
 40
0.625
 40
0.625
 40
0.625
 40
0.6875
 40
0.6875
 40
0.6875
 40
0.6875
 40
0.75
 40
0.75
 40
0.75
 40
0.75
 40
0.8125
 40
0.8125
 40
0.8125
 40
0.8125
 40
0.875
 40
0.875
 40
0.875
 40
0.875
 40
1.0
 40
1.0
 40
1.0
 40
1.0
 10
-17.5553
 20
14.5004
 30
0.0
 10
-17.4834
 20
14.4997
 30
0.0
 10
-17.4207
 20
14.4803
 30
0.0
 10
-17.3685
 20
14.4421
 30
0.0
 10
-17.3685
 20
14.4421
 30
0.0
 10
-17.3162
 20
14.4039
 30
0.0
 10
-17.2728
 20
14.3503
 30
0.0
 10
-17.2392
 20
14.2818
 30
0.0
 10
-17.2392
 20
14.2818
 30
0.0
 10
-17.205
 20
14.2133
 30
0.0
 10
-17.1801
 20
14.1324
 30
0.0
 10
-17.1636
 20
14.0406
 30
0.0
 10
-17.1636
 20
14.0406
 30
0.0
 10
-17.1471
 20
13.948
 30
0.0
 10
-17.1393
 20
13.8478
 30
0.0
 10
-17.1393
 20
13.7398
 30
0.0
 10
-17.1393
 20
13.7398
 30
0.0
 10
-17.1393
 20
13.7113
 30
0.0
 10
-17.1413
 20
13.6867
 30
0.0
 10
-17.1459
 20
13.6674
 30
0.0
 10
-17.1459
 20
13.6674
 30
0.0
 10
-17.1501
 20
13.6473
 30
0.0
 10
-17.1564
 20
13.6286
 30
0.0
 10
-17.1641
 20
13.6118
 30
0.0
 10
-17.1641
 20
13.6118
 30
0.0
 10
-17.188
 20
13.5607
 30
0.0
 10
-17.2195
 20
13.5155
 30
0.0
 10
-17.2583
 20
13.476
 30
0.0
 10
-17.2583
 20
13.476
 30
0.0
 10
-17.2966
 20
13.4366
 30
0.0
 10
-17.3416
 20
13.4055
 30
0.0
 10
-17.3928
 20
13.3829
 30
0.0
 10
-17.3928
 20
13.3829
 30
0.0
 10
-17.4441
 20
13.3602
 30
0.0
 10
-17.5004
 20
13.3485
 30
0.0
 10
-17.5614
 20
13.348
 30
0.0
 10
-17.5614
 20
13.348
 30
0.0
 10
-17.6406
 20
13.3485
 30
0.0
 10
-17.7089
 20
13.3718
 30
0.0
 10
-17.7669
 20
13.4172
 30
0.0
 10
-17.7669
 20
13.4172
 30
0.0
 10
-17.8248
 20
13.4624
 30
0.0
 10
-17.8697
 20
13.5244
 30
0.0
 10
-17.9013
 20
13.6046
 30
0.0
 10
-17.9013
 20
13.6046
 30
0.0
 10
-17.9329
 20
13.6849
 30
0.0
 10
-17.9489
 20
13.778
 30
0.0
 10
-17.9495
 20
13.8835
 30
0.0
 10
-17.9495
 20
13.8835
 30
0.0
 10
-17.9489
 20
14.0051
 30
0.0
 10
-17.9319
 20
14.1118
 30
0.0
 10
-17.8983
 20
14.2036
 30
0.0
 10
-17.8983
 20
14.2036
 30
0.0
 10
-17.8646
 20
14.296
 30
0.0
 10
-17.8185
 20
14.3684
 30
0.0
 10
-17.7596
 20
14.4208
 30
0.0
 10
-17.7596
 20
14.4208
 30
0.0
 10
-17.7006
 20
14.4732
 30
0.0
 10
-17.6323
 20
14.4997
 30
0.0
 10
-17.5553
 20
14.5004
 30
0.0
  0
SPLINE
  5
63
330
1F
100
AcDbEntity
  8
Ilustrace
 62
   250
100
AcDbSpline
210
0.0
220
0.0
230
1.0
 70
    11
 71
     3
 72
   124
 73
   120
 74
     0
 42
0.0000000001
 43
0.0000000001
 40
0.0
 40
0.0
 40
0.0
 40
0.0
 40
0.032258064516129
 40
0.032258064516129
 40
0.032258064516129
 40
0.032258064516129
 40
0.0645161290322581
 40
0.0645161290322581
 40
0.0645161290322581
 40
0.0645161290322581
 40
0.0967741935483871
 40
0.0967741935483871
 40
0.0967741935483871
 40
0.0967741935483871
 40
0.1290322580645161
 40
0.1290322580645161
 40
0.1290322580645161
 40
0.1290322580645161
 40
0.1612903225806452
 40
0.1612903225806452
 40
0.1612903225806452
 40
0.1612903225806452
 40
0.1935483870967742
 40
0.1935483870967742
 40
0.1935483870967742
 40
0.1935483870967742
 40
0.2258064516129032
 40
0.2258064516129032
 40
0.2258064516129032
 40
0.2258064516129032
 40
0.2580645161290323
 40
0.2580645161290323
 40
0.2580645161290323
 40
0.2580645161290323
 40
0.2903225806451613
 40
0.2903225806451613
 40
0.2903225806451613
 40
0.2903225806451613
 40
0.3225806451612903
 40
0.3225806451612903
 40
0.3225806451612903
 40
0.3225806451612903
 40
0.3548387096774194
 40
0.3548387096774194
 40
0.3548387096774194
 40
0.3548387096774194
 40
0.3870967741935484
 40
0.3870967741935484
 40
0.3870967741935484
 40
0.3870967741935484
 40
0.4193548387096774
 40
0.4193548387096774
 40
0.4193548387096774
 40
0.4193548387096774
 40
0.4516129032258064
 40
0.4516129032258064
 40
0.4516129032258064
 40
0.4516129032258064
 40
0.4838709677419355
 40
0.4838709677419355
 40
0.4838709677419355
 40
0.4838709677419355
 40
0.5161290322580645
 40
0.5161290322580645
 40
0.5161290322580645
 40
0.5161290322580645
 40
0.5483870967741935
 40
0.5483870967741935
 40
0.5483870967741935
 40
0.5483870967741935
 40
0.5806451612903226
 40
0.5806451612903226
 40
0.5806451612903226
 40
0.5806451612903226
 40
0.6129032258064516
 40
0.6129032258064516
 40
0.6129032258064516
 40
0.6129032258064516
 40
0.6451612903225806
 40
0.6451612903225806
 40
0.6451612903225806
 40
0.6451612903225806
 40
0.6774193548387096
 40
0.6774193548387096
 40
0.6774193548387096
 40
0.6774193548387096
 40
0.7096774193548387
 40
0.7096774193548387
 40
0.7096774193548387
 40
0.7096774193548387
 40
0.7419354838709677
 40
0.7419354838709677
 40
0.7419354838709677
 40
0.7419354838709677
 40
0.7741935483870968
 40
0.7741935483870968
 40
0.7741935483870968
 40
0.7741935483870968
 40
0.8064516129032258
 40
0.8064516129032258
 40
0.8064516129032258
 40
0.8064516129032258
 40
0.8387096774193549
 40
0.8387096774193549
 40
0.8387096774193549
 40
0.8387096774193549
 40
0.8709677419354839
 40
0.8709677419354839
 40
0.8709677419354839
 40
0.8709677419354839
 40
0.9032258064516129
 40
0.9032258064516129
 40
0.9032258064516129
 40
0.9032258064516129
 40
0.9354838709677419
 40
0.9354838709677419
 40
0.9354838709677419
 40
0.9354838709677419
 40
1.0
 40
1.0
 40
1.0
 40
1.0
 10
-16.4564
 20
12.1568
 30
0.0
 10
-16.4238
 20
12.1548
 30
0.0
 10
-16.3861
 20
12.1548
 30
0.0
 10
-16.3436
 20
12.158
 30
0.0
 10
-16.3436
 20
12.158
 30
0.0
 10
-16.3011
 20
12.1605
 30
0.0
 10
-16.2547
 20
12.1664
 30
0.0
 10
-16.2049
 20
12.1761
 30
0.0
 10
-16.2049
 20
12.1761
 30
0.0
 10
-16.132
 20
12.1865
 30
0.0
 10
-16.0605
 20
12.2064
 30
0.0
 10
-15.9908
 20
12.235
 30
0.0
 10
-15.9908
 20
12.235
 30
0.0
 10
-15.9209
 20
12.264
 30
0.0
 10
-15.8542
 20
12.3022
 30
0.0
 10
-15.7911
 20
12.3488
 30
0.0
 10
-15.7911
 20
12.3488
 30
0.0
 10
-15.728
 20
12.3953
 30
0.0
 10
-15.6704
 20
12.4503
 30
0.0
 10
-15.6182
 20
12.5137
 30
0.0
 10
-15.6182
 20
12.5137
 30
0.0
 10
-15.5515
 20
12.5938
 30
0.0
 10
-15.492
 20
12.6903
 30
0.0
 10
-15.4397
 20
12.804
 30
0.0
 10
-15.4397
 20
12.804
 30
0.0
 10
-15.3875
 20
12.9172
 30
0.0
 10
-15.3466
 20
13.0479
 30
0.0
 10
-15.3166
 20
13.1959
 30
0.0
 10
-15.3166
 20
13.1959
 30
0.0
 10
-15.2866
 20
13.344
 30
0.0
 10
-15.2711
 20
13.5095
 30
0.0
 10
-15.2706
 20
13.6932
 30
0.0
 10
-15.2706
 20
13.6932
 30
0.0
 10
-15.2706
 20
13.8569
 30
0.0
 10
-15.2861
 20
14.0036
 30
0.0
 10
-15.3166
 20
14.1349
 30
0.0
 10
-15.3166
 20
14.1349
 30
0.0
 10
-15.3472
 20
14.2662
 30
0.0
 10
-15.3917
 20
14.3781
 30
0.0
 10
-15.4496
 20
14.4714
 30
0.0
 10
-15.4496
 20
14.4714
 30
0.0
 10
-15.5076
 20
14.5644
 30
0.0
 10
-15.5773
 20
14.6355
 30
0.0
 10
-15.6597
 20
14.6853
 30
0.0
 10
-15.6597
 20
14.6853
 30
0.0
 10
-15.7419
 20
14.7352
 30
0.0
 10
-15.8346
 20
14.7597
 30
0.0
 10
-15.938
 20
14.7603
 30
0.0
 10
-15.938
 20
14.7603
 30
0.0
 10
-16.0415
 20
14.7597
 30
0.0
 10
-16.1356
 20
14.7352
 30
0.0
 10
-16.2199
 20
14.6873
 30
0.0
 10
-16.2199
 20
14.6873
 30
0.0
 10
-16.3043
 20
14.6401
 30
0.0
 10
-16.3768
 20
14.5741
 30
0.0
 10
-16.4373
 20
14.4913
 30
0.0
 10
-16.4373
 20
14.4913
 30
0.0
 10
-16.4983
 20
14.4079
 30
0.0
 10
-16.5449
 20
14.3128
 30
0.0
 10
-16.5775
 20
14.2054
 30
0.0
 10
-16.5775
 20
14.2054
 30
0.0
 10
-16.61
 20
14.0981
 30
0.0
 10
-16.6265
 20
13.9843
 30
0.0
 10
-16.6271
 20
13.8639
 30
0.0
 10
-16.6271
 20
13.8639
 30
0.0
 10
-16.6265
 20
13.756
 30
0.0
 10
-16.6126
 20
13.6552
 30
0.0
 10
-16.5852
 20
13.5619
 30
0.0
 10
-16.5852
 20
13.5619
 30
0.0
 10
-16.5572
 20
13.4683
 30
0.0
 10
-16.5174
 20
13.3867
 30
0.0
 10
-16.4657
 20
13.3162
 30
0.0
 10
-16.4657
 20
13.3162
 30
0.0
 10
-16.4139
 20
13.2464
 30
0.0
 10
-16.3514
 20
13.1914
 30
0.0
 10
-16.2789
 20
13.1519
 30
0.0
 10
-16.2789
 20
13.1519
 30
0.0
 10
-16.206
 20
13.1125
 30
0.0
 10
-16.1247
 20
13.0926
 30
0.0
 10
-16.0341
 20
13.0919
 30
0.0
 10
-16.0341
 20
13.0919
 30
0.0
 10
-15.9317
 20
13.0926
 30
0.0
 10
-15.8402
 20
13.1157
 30
0.0
 10
-15.76
 20
13.1616
 30
0.0
 10
-15.76
 20
13.1616
 30
0.0
 10
-15.6803
 20
13.2075
 30
0.0
 10
-15.612
 20
13.2735
 30
0.0
 10
-15.5562
 20
13.3596
 30
0.0
 10
-15.5562
 20
13.3596
 30
0.0
 10
-15.5562
 20
13.3596
 30
0.0
 10
-15.5469
 20
13.3596
 30
0.0
 10
-15.5469
 20
13.3596
 30
0.0
 10
-15.5469
 20
13.3596
 30
0.0
 10
-15.566
 20
13.2122
 30
0.0
 10
-15.5986
 20
13.0827
 30
0.0
 10
-15.6442
 20
12.9722
 30
0.0
 10
-15.6442
 20
12.9722
 30
0.0
 10
-15.6901
 20
12.861
 30
0.0
 10
-15.7466
 20
12.7678
 30
0.0
 10
-15.8138
 20
12.6921
 30
0.0
 10
-15.8138
 20
12.6921
 30
0.0
 10
-15.8717
 20
12.6223
 30
0.0
 10
-15.9364
 20
12.568
 30
0.0
 10
-16.0083
 20
12.5278
 30
0.0
 10
-16.0083
 20
12.5278
 30
0.0
 10
-16.0802
 20
12.4878
 30
0.0
 10
-16.1562
 20
12.4613
 30
0.0
 10
-16.236
 20
12.4477
 30
0.0
 10
-16.236
 20
12.4477
 30
0.0
 10
-16.2821
 20
12.4419
 30
0.0
 10
-16.3234
 20
12.4374
 30
0.0
 10
-16.3591
 20
12.4347
 30
0.0
 10
-16.3591
 20
12.4347
 30
0.0
 10
-16.3948
 20
12.4322
 30
0.0
 10
-16.4274
 20
12.4322
 30
0.0
 10
-16.4564
 20
12.436
 30
0.0
 10
-16.4564
 20
12.436
 30
0.0
 10
-16.4564
 20
12.436
 30
0.0
 10
-16.4564
 20
12.1568
 30
0.0
 10
-16.4564
 20
12.1568
 30
0.0
  0
SPLINE
  5
64
330
1F
100
AcDbEntity
  8
Ilustrace
 62
   250
100
AcDbSpline
210
0.0
220
0.0
230
1.0
 70
    11
 71
     3
 72
    64
 73
    60
 74
     0
 42
0.0000000001
 43
0.0000000001
 40
0.0
 40
0.0
 40
0.0
 40
0.0
 40
0.0625
 40
0.0625
 40
0.0625
 40
0.0625
 40
0.125
 40
0.125
 40
0.125
 40
0.125
 40
0.1875
 40
0.1875
 40
0.1875
 40
0.1875
 40
0.25
 40
0.25
 40
0.25
 40
0.25
 40
0.3125
 40
0.3125
 40
0.3125
 40
0.3125
 40
0.375
 40
0.375
 40
0.375
 40
0.375
 40
0.4375
 40
0.4375
 40
0.4375
 40
0.4375
 40
0.5
 40
0.5
 40
0.5
 40
0.5
 40
0.5625
 40
0.5625
 40
0.5625
 40
0.5625
 40
0.625
 40
0.625
 40
0.625
 40
0.625
 40
0.6875
 40
0.6875
 40
0.6875
 40
0.6875
 40
0.75
 40
0.75
 40
0.75
 40
0.75
 40
0.8125
 40
0.8125
 40
0.8125
 40
0.8125
 40
0.875
 40
0.875
 40
0.875
 40
0.875
 40
1.0
 40
1.0
 40
1.0
 40
1.0
 10
-15.9628
 20
14.5004
 30
0.0
 10
-15.891
 20
14.4997
 30
0.0
 10
-15.8283
 20
14.4803
 30
0.0
 10
-15.776
 20
14.4421
 30
0.0
 10
-15.776
 20
14.4421
 30
0.0
 10
-15.7238
 20
14.4039
 30
0.0
 10
-15.6803
 20
14.3503
 30
0.0
 10
-15.6468
 20
14.2818
 30
0.0
 10
-15.6468
 20
14.2818
 30
0.0
 10
-15.6126
 20
14.2133
 30
0.0
 10
-15.5877
 20
14.1324
 30
0.0
 10
-15.5712
 20
14.0406
 30
0.0
 10
-15.5712
 20
14.0406
 30
0.0
 10
-15.5547
 20
13.948
 30
0.0
 10
-15.5469
 20
13.8478
 30
0.0
 10
-15.5469
 20
13.7398
 30
0.0
 10
-15.5469
 20
13.7398
 30
0.0
 10
-15.5469
 20
13.7113
 30
0.0
 10
-15.5489
 20
13.6867
 30
0.0
 10
-15.5535
 20
13.6674
 30
0.0
 10
-15.5535
 20
13.6674
 30
0.0
 10
-15.5577
 20
13.6473
 30
0.0
 10
-15.564
 20
13.6286
 30
0.0
 10
-15.5717
 20
13.6118
 30
0.0
 10
-15.5717
 20
13.6118
 30
0.0
 10
-15.5955
 20
13.5607
 30
0.0
 10
-15.6271
 20
13.5155
 30
0.0
 10
-15.6658
 20
13.476
 30
0.0
 10
-15.6658
 20
13.476
 30
0.0
 10
-15.7042
 20
13.4366
 30
0.0
 10
-15.7492
 20
13.4055
 30
0.0
 10
-15.8004
 20
13.3829
 30
0.0
 10
-15.8004
 20
13.3829
 30
0.0
 10
-15.8516
 20
13.3602
 30
0.0
 10
-15.908
 20
13.3485
 30
0.0
 10
-15.969
 20
13.348
 30
0.0
 10
-15.969
 20
13.348
 30
0.0
 10
-16.0482
 20
13.3485
 30
0.0
 10
-16.1165
 20
13.3718
 30
0.0
 10
-16.1745
 20
13.4172
 30
0.0
 10
-16.1745
 20
13.4172
 30
0.0
 10
-16.2324
 20
13.4624
 30
0.0
 10
-16.2773
 20
13.5244
 30
0.0
 10
-16.3089
 20
13.6046
 30
0.0
 10
-16.3089
 20
13.6046
 30
0.0
 10
-16.3405
 20
13.6849
 30
0.0
 10
-16.3565
 20
13.778
 30
0.0
 10
-16.3571
 20
13.8835
 30
0.0
 10
-16.3571
 20
13.8835
 30
0.0
 10
-16.3565
 20
14.0051
 30
0.0
 10
-16.3395
 20
14.1118
 30
0.0
 10
-16.3059
 20
14.2036
 30
0.0
 10
-16.3059
 20
14.2036
 30
0.0
 10
-16.2722
 20
14.296
 30
0.0
 10
-16.2261
 20
14.3684
 30
0.0
 10
-16.1671
 20
14.4208
 30
0.0
 10
-16.1671
 20
14.4208
 30
0.0
 10
-16.1082
 20
14.4732
 30
0.0
 10
-16.0399
 20
14.4997
 30
0.0
 10
-15.9628
 20
14.5004
 30
0.0
  0
SPLINE
  5
65
330
1F
100
AcDbEntity
  8
Ilustrace
 62
   250
100
AcDbSpline
210
0.0
220
0.0
230
1.0
 70
    11
 71
     3
 72
   124
 73
   120
 74
     0
 42
0.0000000001
 43
0.0000000001
 40
0.0
 40
0.0
 40
0.0
 40
0.0
 40
0.032258064516129
 40
0.032258064516129
 40
0.032258064516129
 40
0.032258064516129
 40
0.0645161290322581
 40
0.0645161290322581
 40
0.0645161290322581
 40
0.0645161290322581
 40
0.0967741935483871
 40
0.0967741935483871
 40
0.0967741935483871
 40
0.0967741935483871
 40
0.1290322580645161
 40
0.1290322580645161
 40
0.1290322580645161
 40
0.1290322580645161
 40
0.1612903225806452
 40
0.1612903225806452
 40
0.1612903225806452
 40
0.1612903225806452
 40
0.1935483870967742
 40
0.1935483870967742
 40
0.1935483870967742
 40
0.1935483870967742
 40
0.2258064516129032
 40
0.2258064516129032
 40
0.2258064516129032
 40
0.2258064516129032
 40
0.2580645161290323
 40
0.2580645161290323
 40
0.2580645161290323
 40
0.2580645161290323
 40
0.2903225806451613
 40
0.2903225806451613
 40
0.2903225806451613
 40
0.2903225806451613
 40
0.3225806451612903
 40
0.3225806451612903
 40
0.3225806451612903
 40
0.3225806451612903
 40
0.3548387096774194
 40
0.3548387096774194
 40
0.3548387096774194
 40
0.3548387096774194
 40
0.3870967741935484
 40
0.3870967741935484
 40
0.3870967741935484
 40
0.3870967741935484
 40
0.4193548387096774
 40
0.4193548387096774
 40
0.4193548387096774
 40
0.4193548387096774
 40
0.4516129032258064
 40
0.4516129032258064
 40
0.4516129032258064
 40
0.4516129032258064
 40
0.4838709677419355
 40
0.4838709677419355
 40
0.4838709677419355
 40
0.4838709677419355
 40
0.5161290322580645
 40
0.5161290322580645
 40
0.5161290322580645
 40
0.5161290322580645
 40
0.5483870967741935
 40
0.5483870967741935
 40
0.5483870967741935
 40
0.5483870967741935
 40
0.5806451612903226
 40
0.5806451612903226
 40
0.5806451612903226
 40
0.5806451612903226
 40
0.6129032258064516
 40
0.6129032258064516
 40
0.6129032258064516
 40
0.6129032258064516
 40
0.6451612903225806
 40
0.6451612903225806
 40
0.6451612903225806
 40
0.6451612903225806
 40
0.6774193548387096
 40
0.6774193548387096
 40
0.6774193548387096
 40
0.6774193548387096
 40
0.7096774193548387
 40
0.7096774193548387
 40
0.7096774193548387
 40
0.7096774193548387
 40
0.7419354838709677
 40
0.7419354838709677
 40
0.7419354838709677
 40
0.7419354838709677
 40
0.7741935483870968
 40
0.7741935483870968
 40
0.7741935483870968
 40
0.7741935483870968
 40
0.8064516129032258
 40
0.8064516129032258
 40
0.8064516129032258
 40
0.8064516129032258
 40
0.8387096774193549
 40
0.8387096774193549
 40
0.8387096774193549
 40
0.8387096774193549
 40
0.8709677419354839
 40
0.8709677419354839
 40
0.8709677419354839
 40
0.8709677419354839
 40
0.9032258064516129
 40
0.9032258064516129
 40
0.9032258064516129
 40
0.9032258064516129
 40
0.9354838709677419
 40
0.9354838709677419
 40
0.9354838709677419
 40
0.9354838709677419
 40
1.0
 40
1.0
 40
1.0
 40
1.0
 10
-14.6466
 20
13.511
 30
0.0
 10
-14.73
 20
13.4669
 30
0.0
 10
-14.8014
 20
13.412
 30
0.0
 10
-14.8608
 20
13.3472
 30
0.0
 10
-14.8608
 20
13.3472
 30
0.0
 10
-14.9204
 20
13.282
 30
0.0
 10
-14.9664
 20
13.2063
 30
0.0
 10
-14.9985
 20
13.1204
 30
0.0
 10
-14.9985
 20
13.1204
 30
0.0
 10
-15.0305
 20
13.0343
 30
0.0
 10
-15.0466
 20
12.938
 30
0.0
 10
-15.047
 20
12.8318
 30
0.0
 10
-15.047
 20
12.8318
 30
0.0
 10
-15.0466
 20
12.7387
 30
0.0
 10
-15.0315
 20
12.6521
 30
0.0
 10
-15.0006
 20
12.57
 30
0.0
 10
-15.0006
 20
12.57
 30
0.0
 10
-14.97
 20
12.4885
 30
0.0
 10
-14.9255
 20
12.4166
 30
0.0
 10
-14.8671
 20
12.3539
 30
0.0
 10
-14.8671
 20
12.3539
 30
0.0
 10
-14.8086
 20
12.2918
 30
0.0
 10
-14.7377
 20
12.2427
 30
0.0
 10
-14.6545
 20
12.2072
 30
0.0
 10
-14.6545
 20
12.2072
 30
0.0
 10
-14.5706
 20
12.1716
 30
0.0
 10
-14.4759
 20
12.1535
 30
0.0
 10
-14.3704
 20
12.1528
 30
0.0
 10
-14.3704
 20
12.1528
 30
0.0
 10
-14.2736
 20
12.1535
 30
0.0
 10
-14.1836
 20
12.1709
 30
0.0
 10
-14.1008
 20
12.2052
 30
0.0
 10
-14.1008
 20
12.2052
 30
0.0
 10
-14.018
 20
12.2394
 30
0.0
 10
-13.9452
 20
12.2893
 30
0.0
 10
-13.883
 20
12.3539
 30
0.0
 10
-13.883
 20
12.3539
 30
0.0
 10
-13.8209
 20
12.4179
 30
0.0
 10
-13.7723
 20
12.495
 30
0.0
 10
-13.7377
 20
12.5849
 30
0.0
 10
-13.7377
 20
12.5849
 30
0.0
 10
-13.7024
 20
12.6747
 30
0.0
 10
-13.6849
 20
12.775
 30
0.0
 10
-13.6843
 20
12.8861
 30
0.0
 10
-13.6843
 20
12.8861
 30
0.0
 10
-13.6849
 20
12.9871
 30
0.0
 10
-13.7014
 20
13.0789
 30
0.0
 10
-13.734
 20
13.1623
 30
0.0
 10
-13.734
 20
13.1623
 30
0.0
 10
-13.7667
 20
13.2452
 30
0.0
 10
-13.8132
 20
13.3182
 30
0.0
 10
-13.8737
 20
13.381
 30
0.0
 10
-13.8737
 20
13.381
 30
0.0
 10
-13.9343
 20
13.4443
 30
0.0
 10
-14.0067
 20
13.4966
 30
0.0
 10
-14.0911
 20
13.5381
 30
0.0
 10
-14.0911
 20
13.5381
 30
0.0
 10
-14.0911
 20
13.5381
 30
0.0
 10
-14.0911
 20
13.5497
 30
0.0
 10
-14.0911
 20
13.5497
 30
0.0
 10
-14.0911
 20
13.5497
 30
0.0
 10
-14.0087
 20
13.5981
 30
0.0
 10
-13.943
 20
13.6545
 30
0.0
 10
-13.8939
 20
13.7192
 30
0.0
 10
-13.8939
 20
13.7192
 30
0.0
 10
-13.8447
 20
13.7832
 30
0.0
 10
-13.809
 20
13.8517
 30
0.0
 10
-13.7873
 20
13.9235
 30
0.0
 10
-13.7873
 20
13.9235
 30
0.0
 10
-13.7661
 20
13.9959
 30
0.0
 10
-13.7552
 20
14.0677
 30
0.0
 10
-13.7558
 20
14.1396
 30
0.0
 10
-13.7558
 20
14.1396
 30
0.0
 10
-13.7558
 20
14.2197
 30
0.0
 10
-13.7681
 20
14.2972
 30
0.0
 10
-13.7931
 20
14.3711
 30
0.0
 10
-13.7931
 20
14.3711
 30
0.0
 10
-13.8179
 20
14.4448
 30
0.0
 10
-13.8546
 20
14.5106
 30
0.0
 10
-13.9037
 20
14.5696
 30
0.0
 10
-13.9037
 20
14.5696
 30
0.0
 10
-13.9533
 20
14.6277
 30
0.0
 10
-14.0149
 20
14.6744
 30
0.0
 10
-14.0885
 20
14.7079
 30
0.0
 10
-14.0885
 20
14.7079
 30
0.0
 10
-14.162
 20
14.7422
 30
0.0
 10
-14.2477
 20
14.7597
 30
0.0
 10
-14.3456
 20
14.7603
 30
0.0
 10
-14.3456
 20
14.7603
 30
0.0
 10
-14.4351
 20
14.7597
 30
0.0
 10
-14.5183
 20
14.7436
 30
0.0
 10
-14.594
 20
14.7119
 30
0.0
 10
-14.594
 20
14.7119
 30
0.0
 10
-14.67
 20
14.6796
 30
0.0
 10
-14.7361
 20
14.6342
 30
0.0
 10
-14.7931
 20
14.5747
 30
0.0
 10
-14.7931
 20
14.5747
 30
0.0
 10
-14.8495
 20
14.5153
 30
0.0
 10
-14.8934
 20
14.4448
 30
0.0
 10
-14.9249
 20
14.3627
 30
0.0
 10
-14.9249
 20
14.3627
 30
0.0
 10
-14.9561
 20
14.2805
 30
0.0
 10
-14.9721
 20
14.1893
 30
0.0
 10
-14.9726
 20
14.089
 30
0.0
 10
-14.9726
 20
14.089
 30
0.0
 10
-14.9726
 20
14.016
 30
0.0
 10
-14.9617
 20
13.9448
 30
0.0
 10
-14.939
 20
13.875
 30
0.0
 10
-14.939
 20
13.875
 30
0.0
 10
-14.9168
 20
13.8051
 30
0.0
 10
-14.8816
 20
13.7398
 30
0.0
 10
-14.834
 20
13.6797
 30
0.0
 10
-14.834
 20
13.6797
 30
0.0
 10
-14.7863
 20
13.6195
 30
0.0
 10
-14.7254
 20
13.5671
 30
0.0
 10
-14.6498
 20
13.5226
 30
0.0
 10
-14.6498
 20
13.5226
 30
0.0
 10
-14.6498
 20
13.5226
 30
0.0
 10
-14.6466
 20
13.511
 30
0.0
 10
-14.6466
 20
13.511
 30
0.0
  0
SPLINE
  5
66
330
1F
100
AcDbEntity
  8
Ilustrace
 62
   250
100
AcDbSpline
210
0.0
220
0.0
230
1.0
 70
    11
 71
     3
 72
    56
 73
    52
 74
     0
 42
0.0000000001
 43
0.0000000001
 40
0.0
 40
0.0
 40
0.0
 40
0.0
 40
0.0714285714285714
 40
0.0714285714285714
 40
0.0714285714285714
 40
0.0714285714285714
 40
0.1428571428571428
 40
0.1428571428571428
 40
0.1428571428571428
 40
0.1428571428571428
 40
0.2142857142857143
 40
0.2142857142857143
 40
0.2142857142857143
 40
0.2142857142857143
 40
0.2857142857142857
 40
0.2857142857142857
 40
0.2857142857142857
 40
0.2857142857142857
 40
0.3571428571428572
 40
0.3571428571428572
 40
0.3571428571428572
 40
0.3571428571428572
 40
0.4285714285714285
 40
0.4285714285714285
 40
0.4285714285714285
 40
0.4285714285714285
 40
0.5
 40
0.5
 40
0.5
 40
0.5
 40
0.5714285714285714
 40
0.5714285714285714
 40
0.5714285714285714
 40
0.5714285714285714
 40
0.6428571428571429
 40
0.6428571428571429
 40
0.6428571428571429
 40
0.6428571428571429
 40
0.7142857142857143
 40
0.7142857142857143
 40
0.7142857142857143
 40
0.7142857142857143
 40
0.7857142857142857
 40
0.7857142857142857
 40
0.7857142857142857
 40
0.7857142857142857
 40
0.8571428571428571
 40
0.8571428571428571
 40
0.8571428571428571
 40
0.8571428571428571
 40
1.0
 40
1.0
 40
1.0
 40
1.0
 10
-14.3642
 20
12.4012
 30
0.0
 10
-14.4288
 20
12.4017
 30
0.0
 10
-14.4863
 20
12.4147
 30
0.0
 10
-14.537
 20
12.4399
 30
0.0
 10
-14.537
 20
12.4399
 30
0.0
 10
-14.5882
 20
12.4658
 30
0.0
 10
-14.6311
 20
12.5007
 30
0.0
 10
-14.6663
 20
12.5454
 30
0.0
 10
-14.6663
 20
12.5454
 30
0.0
 10
-14.701
 20
12.5893
 30
0.0
 10
-14.7274
 20
12.6404
 30
0.0
 10
-14.745
 20
12.6973
 30
0.0
 10
-14.745
 20
12.6973
 30
0.0
 10
-14.7621
 20
12.7543
 30
0.0
 10
-14.7698
 20
12.8151
 30
0.0
 10
-14.7677
 20
12.8784
 30
0.0
 10
-14.7677
 20
12.8784
 30
0.0
 10
-14.7677
 20
12.9593
 30
0.0
 10
-14.7538
 20
13.0336
 30
0.0
 10
-14.7258
 20
13.1023
 30
0.0
 10
-14.7258
 20
13.1023
 30
0.0
 10
-14.6984
 20
13.1708
 30
0.0
 10
-14.6575
 20
13.2308
 30
0.0
 10
-14.6037
 20
13.282
 30
0.0
 10
-14.6037
 20
13.282
 30
0.0
 10
-14.5493
 20
13.3331
 30
0.0
 10
-14.4832
 20
13.3732
 30
0.0
 10
-14.4046
 20
13.4023
 30
0.0
 10
-14.4046
 20
13.4023
 30
0.0
 10
-14.313
 20
13.3706
 30
0.0
 10
-14.2343
 20
13.3311
 30
0.0
 10
-14.1681
 20
13.2832
 30
0.0
 10
-14.1681
 20
13.2832
 30
0.0
 10
-14.1018
 20
13.236
 30
0.0
 10
-14.0506
 20
13.1772
 30
0.0
 10
-14.0149
 20
13.1073
 30
0.0
 10
-14.0149
 20
13.1073
 30
0.0
 10
-13.9793
 20
13.0368
 30
0.0
 10
-13.9611
 20
12.9514
 30
0.0
 10
-13.9607
 20
12.8512
 30
0.0
 10
-13.9607
 20
12.8512
 30
0.0
 10
-13.9611
 20
12.764
 30
0.0
 10
-13.9777
 20
12.6864
 30
0.0
 10
-14.0109
 20
12.6191
 30
0.0
 10
-14.0109
 20
12.6191
 30
0.0
 10
-14.0439
 20
12.5519
 30
0.0
 10
-14.0905
 20
12.4988
 30
0.0
 10
-14.1505
 20
12.46
 30
0.0
 10
-14.1505
 20
12.46
 30
0.0
 10
-14.2106
 20
12.4211
 30
0.0
 10
-14.2819
 20
12.4017
 30
0.0
 10
-14.3642
 20
12.4012
 30
0.0
  0
SPLINE
  5
67
330
1F
100
AcDbEntity
  8
Ilustrace
 62
   250
100
AcDbSpline
210
0.0
220
0.0
230
1.0
 70
    11
 71
     3
 72
    56
 73
    52
 74
     0
 42
0.0000000001
 43
0.0000000001
 40
0.0
 40
0.0
 40
0.0
 40
0.0
 40
0.0714285714285714
 40
0.0714285714285714
 40
0.0714285714285714
 40
0.0714285714285714
 40
0.1428571428571428
 40
0.1428571428571428
 40
0.1428571428571428
 40
0.1428571428571428
 40
0.2142857142857143
 40
0.2142857142857143
 40
0.2142857142857143
 40
0.2142857142857143
 40
0.2857142857142857
 40
0.2857142857142857
 40
0.2857142857142857
 40
0.2857142857142857
 40
0.3571428571428572
 40
0.3571428571428572
 40
0.3571428571428572
 40
0.3571428571428572
 40
0.4285714285714285
 40
0.4285714285714285
 40
0.4285714285714285
 40
0.4285714285714285
 40
0.5
 40
0.5
 40
0.5
 40
0.5
 40
0.5714285714285714
 40
0.5714285714285714
 40
0.5714285714285714
 40
0.5714285714285714
 40
0.6428571428571429
 40
0.6428571428571429
 40
0.6428571428571429
 40
0.6428571428571429
 40
0.7142857142857143
 40
0.7142857142857143
 40
0.7142857142857143
 40
0.7142857142857143
 40
0.7857142857142857
 40
0.7857142857142857
 40
0.7857142857142857
 40
0.7857142857142857
 40
0.8571428571428571
 40
0.8571428571428571
 40
0.8571428571428571
 40
0.8571428571428571
 40
1.0
 40
1.0
 40
1.0
 40
1.0
 10
-14.3611
 20
14.5158
 30
0.0
 10
-14.3
 20
14.5153
 30
0.0
 10
-14.2477
 20
14.5036
 30
0.0
 10
-14.2043
 20
14.4803
 30
0.0
 10
-14.2043
 20
14.4803
 30
0.0
 10
-14.1608
 20
14.457
 30
0.0
 10
-14.1257
 20
14.4253
 30
0.0
 10
-14.0982
 20
14.386
 30
0.0
 10
-14.0982
 20
14.386
 30
0.0
 10
-14.0714
 20
14.3465
 30
0.0
 10
-14.0512
 20
14.3024
 30
0.0
 10
-14.0383
 20
14.254
 30
0.0
 10
-14.0383
 20
14.254
 30
0.0
 10
-14.0258
 20
14.2054
 30
0.0
 10
-14.0196
 20
14.1557
 30
0.0
 10
-14.0196
 20
14.1046
 30
0.0
 10
-14.0196
 20
14.1046
 30
0.0
 10
-14.0202
 20
14.0282
 30
0.0
 10
-14.0335
 20
13.9604
 30
0.0
 10
-14.0605
 20
13.9009
 30
0.0
 10
-14.0605
 20
13.9009
 30
0.0
 10
-14.0873
 20
13.8408
 30
0.0
 10
-14.1236
 20
13.7897
 30
0.0
 10
-14.1701
 20
13.7475
 30
0.0
 10
-14.1701
 20
13.7475
 30
0.0
 10
-14.2162
 20
13.7048
 30
0.0
 10
-14.2684
 20
13.6713
 30
0.0
 10
-14.3269
 20
13.6467
 30
0.0
 10
-14.3269
 20
13.6467
 30
0.0
 10
-14.405
 20
13.6726
 30
0.0
 10
-14.4729
 20
13.7056
 30
0.0
 10
-14.5308
 20
13.7457
 30
0.0
 10
-14.5308
 20
13.7457
 30
0.0
 10
-14.5888
 20
13.7864
 30
0.0
 10
-14.6337
 20
13.8368
 30
0.0
 10
-14.6653
 20
13.8969
 30
0.0
 10
-14.6653
 20
13.8969
 30
0.0
 10
-14.6968
 20
13.9572
 30
0.0
 10
-14.7123
 20
14.0289
 30
0.0
 10
-14.7119
 20
14.1123
 30
0.0
 10
-14.7119
 20
14.1123
 30
0.0
 10
-14.7119
 20
14.186
 30
0.0
 10
-14.6984
 20
14.2527
 30
0.0
 10
-14.6716
 20
14.3135
 30
0.0
 10
-14.6716
 20
14.3135
 30
0.0
 10
-14.6446
 20
14.3743
 30
0.0
 10
-14.6047
 20
14.4228
 30
0.0
 10
-14.5525
 20
14.4597
 30
0.0
 10
-14.5525
 20
14.4597
 30
0.0
 10
-14.5008
 20
14.4965
 30
0.0
 10
-14.4366
 20
14.5153
 30
0.0
 10
-14.3611
 20
14.5158
 30
0.0
  0
SPLINE
  5
68
330
1F
100
AcDbEntity
  8
Ilustrace
 62
   250
370
    15
100
AcDbSpline
210
0.0
220
0.0
230
1.0
 70
    24
 71
     3
 72
     8
 73
     4
 74
     0
 42
0.0000000001
 43
0.0000000001
 40
0.0
 40
0.0
 40
0.0
 40
0.0
 40
1.0
 40
1.0
 40
1.0
 40
1.0
 10
54.6393
 20
11.3971
 30
0.0
 10
54.6393
 20
11.3971
 30
0.0
 10
-71.832
 20
11.3971
 30
0.0
 10
-71.832
 20
11.3971
 30
0.0
  0
SPLINE
  5
69
330
1F
100
AcDbEntity
  8
Ilustrace
 62
   250
370
     9
100
AcDbSpline
210
0.0
220
0.0
230
1.0
 70
    11
 71
     3
 72
    32
 73
    28
 74
     0
 42
0.0000000001
 43
0.0000000001
 40
0.0
 40
0.0
 40
0.0
 40
0.0
 40
0.125
 40
0.125
 40
0.125
 40
0.125
 40
0.25
 40
0.25
 40
0.25
 40
0.25
 40
0.375
 40
0.375
 40
0.375
 40
0.375
 40
0.5
 40
0.5
 40
0.5
 40
0.5
 40
0.625
 40
0.625
 40
0.625
 40
0.625
 40
0.75
 40
0.75
 40
0.75
 40
0.75
 40
1.0
 40
1.0
 40
1.0
 40
1.0
 10
54.0486
 20
10.9384
 30
0.0
 10
54.0486
 20
10.9384
 30
0.0
 10
54.0486
 20
10.9384
 30
0.0
 10
54.0486
 20
10.9384
 30
0.0
 10
54.0486
 20
10.9384
 30
0.0
 10
54.0486
 20
10.9384
 30
0.0
 10
54.0486
 20
10.9384
 30
0.0
 10
54.0486
 20
10.9384
 30
0.0
 10
54.0486
 20
10.9384
 30
0.0
 10
54.0486
 20
10.9384
 30
0.0
 10
55.3214
 20
11.3818
 30
0.0
 10
55.3214
 20
11.3818
 30
0.0
 10
55.3214
 20
11.3818
 30
0.0
 10
55.3214
 20
11.3818
 30
0.0
 10
54.0486
 20
11.8252
 30
0.0
 10
54.0486
 20
11.8252
 30
0.0
 10
54.0486
 20
11.8252
 30
0.0
 10
54.0486
 20
11.8252
 30
0.0
 10
54.0486
 20
11.8252
 30
0.0
 10
54.0486
 20
11.8252
 30
0.0
 10
54.0486
 20
11.8252
 30
0.0
 10
54.0486
 20
11.8252
 30
0.0
 10
54.0486
 20
11.8252
 30
0.0
 10
54.0486
 20
11.8252
 30
0.0
 10
54.0486
 20
11.8252
 30
0.0
 10
54.0486
 20
11.8252
 30
0.0
 10
54.0486
 20
10.9384
 30
0.0
 10
54.0486
 20
10.9384
 30
0.0
  0
SPLINE
  5
6A
330
1F
100
AcDbEntity
  8
Ilustrace
 62
   250
370
     9
100
AcDbSpline
210
0.0
220
0.0
230
1.0
 70
    11
 71
     3
 72
    32
 73
    28
 74
     0
 42
0.0000000001
 43
0.0000000001
 40
0.0
 40
0.0
 40
0.0
 40
0.0
 40
0.125
 40
0.125
 40
0.125
 40
0.125
 40
0.25
 40
0.25
 40
0.25
 40
0.25
 40
0.375
 40
0.375
 40
0.375
 40
0.375
 40
0.5
 40
0.5
 40
0.5
 40
0.5
 40
0.625
 40
0.625
 40
0.625
 40
0.625
 40
0.75
 40
0.75
 40
0.75
 40
0.75
 40
1.0
 40
1.0
 40
1.0
 40
1.0
 10
-71.618
 20
10.893
 30
0.0
 10
-71.618
 20
10.893
 30
0.0
 10
-71.618
 20
10.893
 30
0.0
 10
-71.618
 20
10.893
 30
0.0
 10
-71.618
 20
10.893
 30
0.0
 10
-71.618
 20
10.893
 30
0.0
 10
-71.618
 20
10.893
 30
0.0
 10
-71.618
 20
10.893
 30
0.0
 10
-71.618
 20
10.893
 30
0.0
 10
-71.618
 20
10.893
 30
0.0
 10
-72.8908
 20
11.3364
 30
0.0
 10
-72.8908
 20
11.3364
 30
0.0
 10
-72.8908
 20
11.3364
 30
0.0
 10
-72.8908
 20
11.3364
 30
0.0
 10
-71.618
 20
11.7798
 30
0.0
 10
-71.618
 20
11.7798
 30
0.0
 10
-71.618
 20
11.7798
 30
0.0
 10
-71.618
 20
11.7798
 30
0.0
 10
-71.618
 20
11.7798
 30
0.0
 10
-71.618
 20
11.7798
 30
0.0
 10
-71.618
 20
11.7798
 30
0.0
 10
-71.618
 20
11.7798
 30
0.0
 10
-71.618
 20
11.7798
 30
0.0
 10
-71.618
 20
11.7798
 30
0.0
 10
-71.618
 20
11.7798
 30
0.0
 10
-71.618
 20
11.7798
 30
0.0
 10
-71.618
 20
10.893
 30
0.0
 10
-71.618
 20
10.893
 30
0.0
  0
SPLINE
  5
6B
330
1F
100
AcDbEntity
  8
Ilustrace
 62
   254
100
AcDbSpline
210
0.0
220
0.0
230
1.0
 70
    11
 71
     3
 72
   204
 73
   200
 74
     0
 42
0.0000000001
 43
0.0000000001
 40
0.0
 40
0.0
 40
0.0
 40
0.0
 40
0.0196078431372549
 40
0.0196078431372549
 40
0.0196078431372549
 40
0.0196078431372549
 40
0.0392156862745098
 40
0.0392156862745098
 40
0.0392156862745098
 40
0.0392156862745098
 40
0.0588235294117647
 40
0.0588235294117647
 40
0.0588235294117647
 40
0.0588235294117647
 40
0.0784313725490196
 40
0.0784313725490196
 40
0.0784313725490196
 40
0.0784313725490196
 40
0.0980392156862745
 40
0.0980392156862745
 40
0.0980392156862745
 40
0.0980392156862745
 40
0.1176470588235294
 40
0.1176470588235294
 40
0.1176470588235294
 40
0.1176470588235294
 40
0.1372549019607843
 40
0.1372549019607843
 40
0.1372549019607843
 40
0.1372549019607843
 40
0.1568627450980392
 40
0.1568627450980392
 40
0.1568627450980392
 40
0.1568627450980392
 40
0.1764705882352941
 40
0.1764705882352941
 40
0.1764705882352941
 40
0.1764705882352941
 40
0.196078431372549
 40
0.196078431372549
 40
0.196078431372549
 40
0.196078431372549
 40
0.2156862745098039
 40
0.2156862745098039
 40
0.2156862745098039
 40
0.2156862745098039
 40
0.2352941176470588
 40
0.2352941176470588
 40
0.2352941176470588
 40
0.2352941176470588
 40
0.2549019607843137
 40
0.2549019607843137
 40
0.2549019607843137
 40
0.2549019607843137
 40
0.2745098039215687
 40
0.2745098039215687
 40
0.2745098039215687
 40
0.2745098039215687
 40
0.2941176470588235
 40
0.2941176470588235
 40
0.2941176470588235
 40
0.2941176470588235
 40
0.3137254901960784
 40
0.3137254901960784
 40
0.3137254901960784
 40
0.3137254901960784
 40
0.3333333333333333
 40
0.3333333333333333
 40
0.3333333333333333
 40
0.3333333333333333
 40
0.3529411764705883
 40
0.3529411764705883
 40
0.3529411764705883
 40
0.3529411764705883
 40
0.3725490196078431
 40
0.3725490196078431
 40
0.3725490196078431
 40
0.3725490196078431
 40
0.392156862745098
 40
0.392156862745098
 40
0.392156862745098
 40
0.392156862745098
 40
0.4117647058823529
 40
0.4117647058823529
 40
0.4117647058823529
 40
0.4117647058823529
 40
0.4313725490196079
 40
0.4313725490196079
 40
0.4313725490196079
 40
0.4313725490196079
 40
0.4509803921568628
 40
0.4509803921568628
 40
0.4509803921568628
 40
0.4509803921568628
 40
0.4705882352941176
 40
0.4705882352941176
 40
0.4705882352941176
 40
0.4705882352941176
 40
0.4901960784313725
 40
0.4901960784313725
 40
0.4901960784313725
 40
0.4901960784313725
 40
0.5098039215686274
 40
0.5098039215686274
 40
0.5098039215686274
 40
0.5098039215686274
 40
0.5294117647058824
 40
0.5294117647058824
 40
0.5294117647058824
 40
0.5294117647058824
 40
0.5490196078431373
 40
0.5490196078431373
 40
0.5490196078431373
 40
0.5490196078431373
 40
0.5686274509803921
 40
0.5686274509803921
 40
0.5686274509803921
 40
0.5686274509803921
 40
0.5882352941176471
 40
0.5882352941176471
 40
0.5882352941176471
 40
0.5882352941176471
 40
0.6078431372549019
 40
0.6078431372549019
 40
0.6078431372549019
 40
0.6078431372549019
 40
0.6274509803921569
 40
0.6274509803921569
 40
0.6274509803921569
 40
0.6274509803921569
 40
0.6470588235294118
 40
0.6470588235294118
 40
0.6470588235294118
 40
0.6470588235294118
 40
0.6666666666666666
 40
0.6666666666666666
 40
0.6666666666666666
 40
0.6666666666666666
 40
0.6862745098039216
 40
0.6862745098039216
 40
0.6862745098039216
 40
0.6862745098039216
 40
0.7058823529411765
 40
0.7058823529411765
 40
0.7058823529411765
 40
0.7058823529411765
 40
0.7254901960784313
 40
0.7254901960784313
 40
0.7254901960784313
 40
0.7254901960784313
 40
0.7450980392156863
 40
0.7450980392156863
 40
0.7450980392156863
 40
0.7450980392156863
 40
0.7647058823529411
 40
0.7647058823529411
 40
0.7647058823529411
 40
0.7647058823529411
 40
0.7843137254901961
 40
0.7843137254901961
 40
0.7843137254901961
 40
0.7843137254901961
 40
0.803921568627451
 40
0.803921568627451
 40
0.803921568627451
 40
0.803921568627451
 40
0.8235294117647058
 40
0.8235294117647058
 40
0.8235294117647058
 40
0.8235294117647058
 40
0.8431372549019608
 40
0.8431372549019608
 40
0.8431372549019608
 40
0.8431372549019608
 40
0.8627450980392157
 40
0.8627450980392157
 40
0.8627450980392157
 40
0.8627450980392157
 40
0.8823529411764706
 40
0.8823529411764706
 40
0.8823529411764706
 40
0.8823529411764706
 40
0.9019607843137255
 40
0.9019607843137255
 40
0.9019607843137255
 40
0.9019607843137255
 40
0.9215686274509803
 40
0.9215686274509803
 40
0.9215686274509803
 40
0.9215686274509803
 40
0.9411764705882353
 40
0.9411764705882353
 40
0.9411764705882353
 40
0.9411764705882353
 40
0.9607843137254902
 40
0.9607843137254902
 40
0.9607843137254902
 40
0.9607843137254902
 40
1.0
 40
1.0
 40
1.0
 40
1.0
 10
62.5446
 20
-11.3287
 30
0.0
 10
62.5446
 20
-11.3287
 30
0.0
 10
62.9084
 20
-11.3397
 30
0.0
 10
62.9084
 20
-11.3397
 30
0.0
 10
62.9084
 20
-11.3397
 30
0.0
 10
62.9084
 20
-11.3397
 30
0.0
 10
62.9029
 20
-13.721
 30
0.0
 10
62.9029
 20
-13.721
 30
0.0
 10
62.9029
 20
-13.721
 30
0.0
 10
62.9029
 20
-13.721
 30
0.0
 10
62.9966
 20
-13.9911
 30
0.0
 10
62.9966
 20
-13.9911
 30
0.0
 10
62.9966
 20
-13.9911
 30
0.0
 10
62.9966
 20
-13.9911
 30
0.0
 10
63.173
 20
-14.1896
 30
0.0
 10
63.173
 20
-14.1896
 30
0.0
 10
63.173
 20
-14.1896
 30
0.0
 10
63.173
 20
-14.1896
 30
0.0
 10
63.421
 20
-14.3384
 30
0.0
 10
63.421
 20
-14.3384
 30
0.0
 10
63.421
 20
-14.3384
 30
0.0
 10
63.421
 20
-14.3384
 30
0.0
 10
63.7407
 20
-14.3549
 30
0.0
 10
63.7407
 20
-14.3549
 30
0.0
 10
63.7407
 20
-14.3549
 30
0.0
 10
63.7407
 20
-14.3549
 30
0.0
 10
66.4913
 20
-14.3549
 30
0.0
 10
66.4913
 20
-14.3549
 30
0.0
 10
66.4913
 20
-14.3549
 30
0.0
 10
66.4913
 20
-14.3549
 30
0.0
 10
66.7339
 20
-14.2337
 30
0.0
 10
66.7339
 20
-14.2337
 30
0.0
 10
66.7339
 20
-14.2337
 30
0.0
 10
66.7339
 20
-14.2337
 30
0.0
 10
66.8937
 20
-14.0793
 30
0.0
 10
66.8937
 20
-14.0793
 30
0.0
 10
66.8937
 20
-14.0793
 30
0.0
 10
66.8937
 20
-14.0793
 30
0.0
 10
66.9709
 20
-13.8533
 30
0.0
 10
66.9709
 20
-13.8533
 30
0.0
 10
66.9709
 20
-13.8533
 30
0.0
 10
66.9709
 20
-13.8533
 30
0.0
 10
67.015
 20
-13.5942
 30
0.0
 10
67.015
 20
-13.5942
 30
0.0
 10
67.015
 20
-13.5942
 30
0.0
 10
67.015
 20
-13.5942
 30
0.0
 10
66.979
 20
2.1819
 30
0.0
 10
66.9818
 20
2.1984
 30
0.0
 10
66.9818
 20
2.1984
 30
0.0
 10
66.9846
 20
2.2149
 30
0.0
 10
66.957
 20
2.43
 30
0.0
 10
66.9515
 20
2.452
 30
0.0
 10
66.9515
 20
2.452
 30
0.0
 10
66.946
 20
2.474
 30
0.0
 10
66.8164
 20
2.6862
 30
0.0
 10
66.8164
 20
2.6862
 30
0.0
 10
66.8164
 20
2.6862
 30
0.0
 10
66.8164
 20
2.6862
 30
0.0
 10
66.6621
 20
2.8571
 30
0.0
 10
66.6621
 20
2.8571
 30
0.0
 10
66.6621
 20
2.8571
 30
0.0
 10
66.6621
 20
2.8571
 30
0.0
 10
66.4554
 20
2.9122
 30
0.0
 10
66.4554
 20
2.9122
 30
0.0
 10
66.4554
 20
2.9122
 30
0.0
 10
66.4554
 20
2.9122
 30
0.0
 10
66.2404
 20
2.9618
 30
0.0
 10
66.2404
 20
2.9618
 30
0.0
 10
66.2404
 20
2.9618
 30
0.0
 10
66.2404
 20
2.9618
 30
0.0
 10
63.4126
 20
2.937
 30
0.0
 10
63.4126
 20
2.937
 30
0.0
 10
63.4126
 20
2.937
 30
0.0
 10
63.4126
 20
2.937
 30
0.0
 10
63.17
 20
2.8102
 30
0.0
 10
63.17
 20
2.8102
 30
0.0
 10
63.17
 20
2.8102
 30
0.0
 10
63.17
 20
2.8102
 30
0.0
 10
63.0212
 20
2.6503
 30
0.0
 10
63.0212
 20
2.6503
 30
0.0
 10
63.0212
 20
2.6503
 30
0.0
 10
63.0212
 20
2.6503
 30
0.0
 10
62.9495
 20
2.4574
 30
0.0
 10
62.9495
 20
2.4574
 30
0.0
 10
62.9495
 20
2.4574
 30
0.0
 10
62.9495
 20
2.4574
 30
0.0
 10
62.8999
 20
-0.0287
 30
0.0
 10
62.8999
 20
-0.0287
 30
0.0
 10
62.8999
 20
-0.0287
 30
0.0
 10
62.8999
 20
-0.0287
 30
0.0
 10
62.5527
 20
-0.0287
 30
0.0
 10
62.5527
 20
-0.0287
 30
0.0
 10
62.5527
 20
-0.0287
 30
0.0
 10
62.5527
 20
-0.0287
 30
0.0
 10
62.5692
 20
2.4684
 30
0.0
 10
62.5692
 20
2.4684
 30
0.0
 10
62.5692
 20
2.4684
 30
0.0
 10
62.5692
 20
2.4684
 30
0.0
 10
62.6243
 20
2.744
 30
0.0
 10
62.6629
 20
2.7771
 30
0.0
 10
62.6629
 20
2.7771
 30
0.0
 10
62.7015
 20
2.8102
 30
0.0
 10
62.8283
 20
2.9701
 30
0.0
 10
62.8283
 20
2.9701
 30
0.0
 10
62.8283
 20
2.9701
 30
0.0
 10
62.8283
 20
2.9701
 30
0.0
 10
63.0102
 20
3.1354
 30
0.0
 10
63.0102
 20
3.1354
 30
0.0
 10
63.0102
 20
3.1354
 30
0.0
 10
63.0102
 20
3.1354
 30
0.0
 10
63.2307
 20
3.1905
 30
0.0
 10
63.2307
 20
3.1905
 30
0.0
 10
63.2307
 20
3.1905
 30
0.0
 10
63.2307
 20
3.1905
 30
0.0
 10
63.5118
 20
3.2732
 30
0.0
 10
63.5118
 20
3.2732
 30
0.0
 10
63.5118
 20
3.2732
 30
0.0
 10
63.5118
 20
3.2732
 30
0.0
 10
63.8756
 20
3.2898
 30
0.0
 10
63.8756
 20
3.2898
 30
0.0
 10
63.8756
 20
3.2898
 30
0.0
 10
63.8756
 20
3.2898
 30
0.0
 10
66.549
 20
3.2952
 30
0.0
 10
66.5683
 20
3.3007
 30
0.0
 10
66.5683
 20
3.3007
 30
0.0
 10
66.5876
 20
3.3062
 30
0.0
 10
66.7888
 20
3.2015
 30
0.0
 10
66.7888
 20
3.2015
 30
0.0
 10
66.7888
 20
3.2015
 30
0.0
 10
66.7888
 20
3.2015
 30
0.0
 10
66.9707
 20
3.0389
 30
0.0
 10
66.9707
 20
3.0389
 30
0.0
 10
66.9707
 20
3.0389
 30
0.0
 10
66.9707
 20
3.0389
 30
0.0
 10
67.1939
 20
2.8322
 30
0.0
 10
67.1939
 20
2.8322
 30
0.0
 10
67.1939
 20
2.8322
 30
0.0
 10
67.1939
 20
2.8322
 30
0.0
 10
67.3042
 20
2.5979
 30
0.0
 10
67.3042
 20
2.5979
 30
0.0
 10
67.3042
 20
2.5979
 30
0.0
 10
67.3042
 20
2.5979
 30
0.0
 10
67.3786
 20
2.3526
 30
0.0
 10
67.3786
 20
2.3526
 30
0.0
 10
67.3786
 20
2.3526
 30
0.0
 10
67.3786
 20
2.3526
 30
0.0
 10
67.3565
 20
2.0632
 30
0.0
 10
67.3565
 20
2.0632
 30
0.0
 10
67.3565
 20
2.0632
 30
0.0
 10
67.3565
 20
2.0632
 30
0.0
 10
67.3538
 20
-13.8232
 30
0.0
 10
67.3538
 20
-13.8232
 30
0.0
 10
67.3538
 20
-13.8232
 30
0.0
 10
67.3538
 20
-13.8232
 30
0.0
 10
67.2821
 20
-14.1154
 30
0.0
 10
67.2821
 20
-14.1154
 30
0.0
 10
67.2821
 20
-14.1154
 30
0.0
 10
67.2821
 20
-14.1154
 30
0.0
 10
67.0726
 20
-14.3855
 30
0.0
 10
67.0726
 20
-14.3855
 30
0.0
 10
67.0726
 20
-14.3855
 30
0.0
 10
67.0726
 20
-14.3855
 30
0.0
 10
66.8466
 20
-14.5784
 30
0.0
 10
66.8466
 20
-14.5784
 30
0.0
 10
66.8466
 20
-14.5784
 30
0.0
 10
66.8466
 20
-14.5784
 30
0.0
 10
66.6592
 20
-14.6831
 30
0.0
 10
66.6592
 20
-14.6831
 30
0.0
 10
66.6592
 20
-14.6831
 30
0.0
 10
66.6592
 20
-14.6831
 30
0.0
 10
66.323
 20
-14.7603
 30
0.0
 10
66.323
 20
-14.7603
 30
0.0
 10
66.323
 20
-14.7603
 30
0.0
 10
66.323
 20
-14.7603
 30
0.0
 10
63.4952
 20
-14.7383
 30
0.0
 10
63.4952
 20
-14.7383
 30
0.0
 10
63.4952
 20
-14.7383
 30
0.0
 10
63.4952
 20
-14.7383
 30
0.0
 10
63.1921
 20
-14.6666
 30
0.0
 10
63.1921
 20
-14.6666
 30
0.0
 10
63.1921
 20
-14.6666
 30
0.0
 10
63.1921
 20
-14.6666
 30
0.0
 10
62.8944
 20
-14.4406
 30
0.0
 10
62.8944
 20
-14.4406
 30
0.0
 10
62.8944
 20
-14.4406
 30
0.0
 10
62.8944
 20
-14.4406
 30
0.0
 10
62.7731
 20
-14.2477
 30
0.0
 10
62.7731
 20
-14.2477
 30
0.0
 10
62.7731
 20
-14.2477
 30
0.0
 10
62.7731
 20
-14.2477
 30
0.0
 10
62.6022
 20
-13.9886
 30
0.0
 10
62.6022
 20
-13.9886
 30
0.0
 10
62.6022
 20
-13.9886
 30
0.0
 10
62.6022
 20
-13.9886
 30
0.0
 10
62.5582
 20
-13.6854
 30
0.0
 10
62.5582
 20
-13.6854
 30
0.0
 10
62.5582
 20
-13.6854
 30
0.0
 10
62.5582
 20
-13.6854
 30
0.0
 10
62.5446
 20
-11.3287
 30
0.0
 10
62.5446
 20
-11.3287
 30
0.0
  0
SPLINE
  5
6C
330
1F
100
AcDbEntity
  8
Ilustrace
 62
   250
370
    30
100
AcDbSpline
210
0.0
220
0.0
230
1.0
 70
    24
 71
     3
 72
     8
 73
     4
 74
     0
 42
0.0000000001
 43
0.0000000001
 40
0.0
 40
0.0
 40
0.0
 40
0.0
 40
1.0
 40
1.0
 40
1.0
 40
1.0
 10
62.9232
 20
-0.0605
 30
0.0
 10
62.9232
 20
-0.0605
 30
0.0
 10
62.5633
 20
-0.0605
 30
0.0
 10
62.5633
 20
-0.0605
 30
0.0
  0
SPLINE
  5
6D
330
1F
100
AcDbEntity
  8
Ilustrace
 62
   250
370
    30
100
AcDbSpline
210
0.0
220
0.0
230
1.0
 70
    24
 71
     3
 72
     8
 73
     4
 74
     0
 42
0.0000000001
 43
0.0000000001
 40
0.0
 40
0.0
 40
0.0
 40
0.0
 40
1.0
 40
1.0
 40
1.0
 40
1.0
 10
62.5633
 20
-11.3345
 30
0.0
 10
62.5633
 20
-11.3345
 30
0.0
 10
62.9232
 20
-11.3345
 30
0.0
 10
62.9232
 20
-11.3345
 30
0.0
  0
SPLINE
  5
6E
330
1F
100
AcDbEntity
  8
Ilustrace
 62
   250
370
    30
100
AcDbSpline
210
0.0
220
0.0
230
1.0
 70
    24
 71
     3
 72
     8
 73
     4
 74
     0
 42
0.0000000001
 43
0.0000000001
 40
0.0
 40
0.0
 40
0.0
 40
0.0
 40
1.0
 40
1.0
 40
1.0
 40
1.0
 10
62.5633
 20
-0.0605
 30
0.0
 10
62.5633
 20
-0.0605
 30
0.0
 10
62.5633
 20
0.0098
 30
0.0
 10
62.5633
 20
0.0098
 30
0.0
  0
SPLINE
  5
6F
330
1F
100
AcDbEntity
  8
Ilustrace
 62
   250
370
    30
100
AcDbSpline
210
0.0
220
0.0
230
1.0
 70
    24
 71
     3
 72
     8
 73
     4
 74
     0
 42
0.0000000001
 43
0.0000000001
 40
0.0
 40
0.0
 40
0.0
 40
0.0
 40
1.0
 40
1.0
 40
1.0
 40
1.0
 10
62.5633
 20
-0.0596
 30
0.0
 10
62.5633
 20
-0.0596
 30
0.0
 10
62.5633
 20
0.0029
 30
0.0
 10
62.5633
 20
0.0029
 30
0.0
  0
SPLINE
  5
70
330
1F
100
AcDbEntity
  8
Ilustrace
 62
   250
370
    30
100
AcDbSpline
210
0.0
220
0.0
230
1.0
 70
    24
 71
     3
 72
     8
 73
     4
 74
     0
 42
0.0000000001
 43
0.0000000001
 40
0.0
 40
0.0
 40
0.0
 40
0.0
 40
1.0
 40
1.0
 40
1.0
 40
1.0
 10
62.9232
 20
-0.0605
 30
0.0
 10
62.9232
 20
-0.0605
 30
0.0
 10
62.9232
 20
-0.0403
 30
0.0
 10
62.9232
 20
-0.0403
 30
0.0
  0
SPLINE
  5
71
330
1F
100
AcDbEntity
  8
Ilustrace
 62
   250
370
    30
100
AcDbSpline
210
0.0
220
0.0
230
1.0
 70
    24
 71
     3
 72
     8
 73
     4
 74
     0
 42
0.0000000001
 43
0.0000000001
 40
0.0
 40
0.0
 40
0.0
 40
0.0
 40
1.0
 40
1.0
 40
1.0
 40
1.0
 10
62.9232
 20
-11.3548
 30
0.0
 10
62.9232
 20
-11.3548
 30
0.0
 10
62.9232
 20
-11.3345
 30
0.0
 10
62.9232
 20
-11.3345
 30
0.0
  0
SPLINE
  5
72
330
1F
100
AcDbEntity
  8
Ilustrace
 62
   250
370
    30
100
AcDbSpline
210
0.0
220
0.0
230
1.0
 70
    24
 71
     3
 72
     8
 73
     4
 74
     0
 42
0.0000000001
 43
0.0000000001
 40
0.0
 40
0.0
 40
0.0
 40
0.0
 40
1.0
 40
1.0
 40
1.0
 40
1.0
 10
62.5633
 20
-11.3476
 30
0.0
 10
62.5633
 20
-11.3476
 30
0.0
 10
62.5633
 20
-11.3354
 30
0.0
 10
62.5633
 20
-11.3354
 30
0.0
  0
SPLINE
  5
73
330
1F
100
AcDbEntity
  8
Ilustrace
 62
   250
370
    30
100
AcDbSpline
210
0.0
220
0.0
230
1.0
 70
    24
 71
     3
 72
    16
 73
    12
 74
     0
 42
0.0000000001
 43
0.0000000001
 40
0.0
 40
0.0
 40
0.0
 40
0.0
 40
0.25
 40
0.25
 40
0.25
 40
0.25
 40
0.5
 40
0.5
 40
0.5
 40
0.5
 40
1.0
 40
1.0
 40
1.0
 40
1.0
 10
67.3609
 20
-0.6601
 30
0.0
 10
67.3609
 20
-0.6601
 30
0.0
 10
67.3609
 20
-0.1803
 30
0.0
 10
67.3609
 20
-0.1803
 30
0.0
 10
67.3609
 20
-0.1803
 30
0.0
 10
67.3609
 20
-0.1803
 30
0.0
 10
67.3609
 20
1.8346
 30
0.0
 10
67.3609
 20
1.8346
 30
0.0
 10
67.3609
 20
1.8346
 30
0.0
 10
67.3609
 20
1.8346
 30
0.0
 10
67.3609
 20
2.3144
 30
0.0
 10
67.3609
 20
2.3144
 30
0.0
  0
SPLINE
  5
74
330
1F
100
AcDbEntity
  8
Ilustrace
 62
   250
370
    30
100
AcDbSpline
210
0.0
220
0.0
230
1.0
 70
     8
 71
     3
 72
    12
 73
     8
 74
     0
 42
0.0000000001
 43
0.0000000001
 40
0.0
 40
0.0
 40
0.0
 40
0.0
 40
0.3333333333333333
 40
0.3333333333333333
 40
0.3333333333333333
 40
0.3333333333333333
 40
1.0
 40
1.0
 40
1.0
 40
1.0
 10
67.3609
 20
2.3144
 30
0.0
 10
67.3481
 20
2.7557
 30
0.0
 10
67.0689
 20
3.1473
 30
0.0
 10
66.632
 20
3.2643
 30
0.0
 10
66.632
 20
3.2643
 30
0.0
 10
66.4289
 20
3.3187
 30
0.0
 10
66.0702
 20
3.2979
 30
0.0
 10
65.8975
 20
3.2979
 30
0.0
  0
SPLINE
  5
75
330
1F
100
AcDbEntity
  8
Ilustrace
 62
   250
370
    30
100
AcDbSpline
210
0.0
220
0.0
230
1.0
 70
    24
 71
     3
 72
     8
 73
     4
 74
     0
 42
0.0000000001
 43
0.0000000001
 40
0.0
 40
0.0
 40
0.0
 40
0.0
 40
1.0
 40
1.0
 40
1.0
 40
1.0
 10
65.8975
 20
3.2979
 30
0.0
 10
65.8975
 20
3.2979
 30
0.0
 10
64.0266
 20
3.2979
 30
0.0
 10
64.0266
 20
3.2979
 30
0.0
  0
SPLINE
  5
76
330
1F
100
AcDbEntity
  8
Ilustrace
 62
   250
370
    30
100
AcDbSpline
210
0.0
220
0.0
230
1.0
 70
     8
 71
     3
 72
    16
 73
    12
 74
     0
 42
0.0000000001
 43
0.0000000001
 40
0.0
 40
0.0
 40
0.0
 40
0.0
 40
0.25
 40
0.25
 40
0.25
 40
0.25
 40
0.5
 40
0.5
 40
0.5
 40
0.5
 40
1.0
 40
1.0
 40
1.0
 40
1.0
 10
64.0266
 20
3.2979
 30
0.0
 10
63.6671
 20
3.2979
 30
0.0
 10
63.3176
 20
3.3408
 30
0.0
 10
63.0064
 20
3.1361
 30
0.0
 10
63.0064
 20
3.1361
 30
0.0
 10
62.7655
 20
2.9776
 30
0.0
 10
62.6035
 20
2.715
 30
0.0
 10
62.57
 20
2.4285
 30
0.0
 10
62.57
 20
2.4285
 30
0.0
 10
62.5477
 20
2.2388
 30
0.0
 10
62.5633
 20
1.9971
 30
0.0
 10
62.5633
 20
1.8346
 30
0.0
  0
SPLINE
  5
77
330
1F
100
AcDbEntity
  8
Ilustrace
 62
   250
370
    30
100
AcDbSpline
210
0.0
220
0.0
230
1.0
 70
    24
 71
     3
 72
    12
 73
     8
 74
     0
 42
0.0000000001
 43
0.0000000001
 40
0.0
 40
0.0
 40
0.0
 40
0.0
 40
0.3333333333333333
 40
0.3333333333333333
 40
0.3333333333333333
 40
0.3333333333333333
 40
1.0
 40
1.0
 40
1.0
 40
1.0
 10
62.5633
 20
1.8346
 30
0.0
 10
62.5633
 20
1.8346
 30
0.0
 10
62.5633
 20
0.4202
 30
0.0
 10
62.5633
 20
0.4202
 30
0.0
 10
62.5633
 20
0.4202
 30
0.0
 10
62.5633
 20
0.4202
 30
0.0
 10
62.5633
 20
-0.0596
 30
0.0
 10
62.5633
 20
-0.0596
 30
0.0
  0
SPLINE
  5
78
330
1F
100
AcDbEntity
  8
Ilustrace
 62
   250
370
    30
100
AcDbSpline
210
0.0
220
0.0
230
1.0
 70
    24
 71
     3
 72
     8
 73
     4
 74
     0
 42
0.0000000001
 43
0.0000000001
 40
0.0
 40
0.0
 40
0.0
 40
0.0
 40
1.0
 40
1.0
 40
1.0
 40
1.0
 10
66.8168
 20
2.7565
 30
0.0
 10
66.8168
 20
2.7565
 30
0.0
 10
66.6892
 20
2.8545
 30
0.0
 10
66.6892
 20
2.8545
 30
0.0
  0
SPLINE
  5
79
330
1F
100
AcDbEntity
  8
Ilustrace
 62
   250
370
    30
100
AcDbSpline
210
0.0
220
0.0
230
1.0
 70
     8
 71
     3
 72
     8
 73
     4
 74
     0
 42
0.0000000001
 43
0.0000000001
 40
0.0
 40
0.0
 40
0.0
 40
0.0
 40
1.0
 40
1.0
 40
1.0
 40
1.0
 10
66.6892
 20
2.8545
 30
0.0
 10
66.4917
 20
2.9969
 30
0.0
 10
66.0702
 20
2.938
 30
0.0
 10
65.8975
 20
2.938
 30
0.0
  0
SPLINE
  5
7A
330
1F
100
AcDbEntity
  8
Ilustrace
 62
   250
370
    30
100
AcDbSpline
210
0.0
220
0.0
230
1.0
 70
    24
 71
     3
 72
     8
 73
     4
 74
     0
 42
0.0000000001
 43
0.0000000001
 40
0.0
 40
0.0
 40
0.0
 40
0.0
 40
1.0
 40
1.0
 40
1.0
 40
1.0
 10
65.8975
 20
2.938
 30
0.0
 10
65.8975
 20
2.938
 30
0.0
 10
64.0266
 20
2.938
 30
0.0
 10
64.0266
 20
2.938
 30
0.0
  0
SPLINE
  5
7B
330
1F
100
AcDbEntity
  8
Ilustrace
 62
   250
370
    30
100
AcDbSpline
210
0.0
220
0.0
230
1.0
 70
     8
 71
     3
 72
     8
 73
     4
 74
     0
 42
0.0000000001
 43
0.0000000001
 40
0.0
 40
0.0
 40
0.0
 40
0.0
 40
1.0
 40
1.0
 40
1.0
 40
1.0
 10
64.0266
 20
2.938
 30
0.0
 10
63.854
 20
2.938
 30
0.0
 10
63.4323
 20
2.9969
 30
0.0
 10
63.235
 20
2.8545
 30
0.0
  0
SPLINE
  5
7C
330
1F
100
AcDbEntity
  8
Ilustrace
 62
   250
370
    30
100
AcDbSpline
210
0.0
220
0.0
230
1.0
 70
    24
 71
     3
 72
     8
 73
     4
 74
     0
 42
0.0000000001
 43
0.0000000001
 40
0.0
 40
0.0
 40
0.0
 40
0.0
 40
1.0
 40
1.0
 40
1.0
 40
1.0
 10
63.235
 20
2.8545
 30
0.0
 10
63.235
 20
2.8545
 30
0.0
 10
63.1074
 20
2.7565
 30
0.0
 10
63.1074
 20
2.7565
 30
0.0
  0
SPLINE
  5
7D
330
1F
100
AcDbEntity
  8
Ilustrace
 62
   250
370
    30
100
AcDbSpline
210
0.0
220
0.0
230
1.0
 70
    24
 71
     3
 72
    12
 73
     8
 74
     0
 42
0.0000000001
 43
0.0000000001
 40
0.0
 40
0.0
 40
0.0
 40
0.0
 40
0.3333333333333333
 40
0.3333333333333333
 40
0.3333333333333333
 40
0.3333333333333333
 40
1.0
 40
1.0
 40
1.0
 40
1.0
 10
62.9232
 20
-0.0605
 30
0.0
 10
62.9232
 20
-0.0605
 30
0.0
 10
62.9232
 20
0.4194
 30
0.0
 10
62.9232
 20
0.4194
 30
0.0
 10
62.9232
 20
0.4194
 30
0.0
 10
62.9232
 20
0.4194
 30
0.0
 10
62.9232
 20
1.8346
 30
0.0
 10
62.9232
 20
1.8346
 30
0.0
  0
SPLINE
  5
7E
330
1F
100
AcDbEntity
  8
Ilustrace
 62
   250
370
    30
100
AcDbSpline
210
0.0
220
0.0
230
1.0
 70
     8
 71
     3
 72
    12
 73
     8
 74
     0
 42
0.0000000001
 43
0.0000000001
 40
0.0
 40
0.0
 40
0.0
 40
0.0
 40
0.3333333333333333
 40
0.3333333333333333
 40
0.3333333333333333
 40
0.3333333333333333
 40
1.0
 40
1.0
 40
1.0
 40
1.0
 10
62.9232
 20
1.8346
 30
0.0
 10
62.9232
 20
2.1867
 30
0.0
 10
62.8567
 20
2.578
 30
0.0
 10
63.1744
 20
2.8147
 30
0.0
 10
63.1744
 20
2.8147
 30
0.0
 10
63.241
 20
2.8642
 30
0.0
 10
63.3
 20
2.8814
 30
0.0
 10
63.3835
 20
2.916
 30
0.0
  0
SPLINE
  5
7F
330
1F
100
AcDbEntity
  8
Ilustrace
 62
   250
370
    30
100
AcDbSpline
210
0.0
220
0.0
230
1.0
 70
    24
 71
     3
 72
     8
 73
     4
 74
     0
 42
0.0000000001
 43
0.0000000001
 40
0.0
 40
0.0
 40
0.0
 40
0.0
 40
1.0
 40
1.0
 40
1.0
 40
1.0
 10
66.8196
 20
2.7538
 30
0.0
 10
66.8196
 20
2.7538
 30
0.0
 10
66.9175
 20
2.6261
 30
0.0
 10
66.9175
 20
2.6261
 30
0.0
  0
SPLINE
  5
80
330
1F
100
AcDbEntity
  8
Ilustrace
 62
   250
370
    30
100
AcDbSpline
210
0.0
220
0.0
230
1.0
 70
     8
 71
     3
 72
     8
 73
     4
 74
     0
 42
0.0000000001
 43
0.0000000001
 40
0.0
 40
0.0
 40
0.0
 40
0.0
 40
1.0
 40
1.0
 40
1.0
 40
1.0
 10
66.9175
 20
2.6261
 30
0.0
 10
67.0599
 20
2.4289
 30
0.0
 10
67.001
 20
2.0072
 30
0.0
 10
67.001
 20
1.8346
 30
0.0
  0
SPLINE
  5
81
330
1F
100
AcDbEntity
  8
Ilustrace
 62
   250
370
    30
100
AcDbSpline
210
0.0
220
0.0
230
1.0
 70
     8
 71
     3
 72
    16
 73
    12
 74
     0
 42
0.0000000001
 43
0.0000000001
 40
0.0
 40
0.0
 40
0.0
 40
0.0
 40
0.25
 40
0.25
 40
0.25
 40
0.25
 40
0.5
 40
0.5
 40
0.5
 40
0.5
 40
1.0
 40
1.0
 40
1.0
 40
1.0
 10
67.001
 20
1.8346
 30
0.0
 10
67.001
 20
1.8346
 30
0.0
 10
67.001
 20
-13.2296
 30
0.0
 10
67.001
 20
-13.2296
 30
0.0
 10
67.001
 20
-13.2296
 30
0.0
 10
67.001
 20
-13.2296
 30
0.0
 10
67.001
 20
-13.7094
 30
0.0
 10
67.001
 20
-13.7094
 30
0.0
 10
67.001
 20
-13.7094
 30
0.0
 10
67.001
 20
-13.7094
 30
0.0
 10
66.9801
 20
-13.8688
 30
0.0
 10
66.9801
 20
-13.8688
 30
0.0
  0
SPLINE
  5
82
330
1F
100
AcDbEntity
  8
Ilustrace
 62
   250
370
    30
100
AcDbSpline
210
0.0
220
0.0
230
1.0
 70
    24
 71
     3
 72
     8
 73
     4
 74
     0
 42
0.0000000001
 43
0.0000000001
 40
0.0
 40
0.0
 40
0.0
 40
0.0
 40
1.0
 40
1.0
 40
1.0
 40
1.0
 10
66.8168
 20
-14.1515
 30
0.0
 10
66.8168
 20
-14.1515
 30
0.0
 10
66.6892
 20
-14.2495
 30
0.0
 10
66.6892
 20
-14.2495
 30
0.0
  0
SPLINE
  5
83
330
1F
100
AcDbEntity
  8
Ilustrace
 62
   250
370
    30
100
AcDbSpline
210
0.0
220
0.0
230
1.0
 70
     8
 71
     3
 72
     8
 73
     4
 74
     0
 42
0.0000000001
 43
0.0000000001
 40
0.0
 40
0.0
 40
0.0
 40
0.0
 40
1.0
 40
1.0
 40
1.0
 40
1.0
 10
66.6892
 20
-14.2495
 30
0.0
 10
66.4917
 20
-14.392
 30
0.0
 10
66.0702
 20
-14.333
 30
0.0
 10
65.8975
 20
-14.333
 30
0.0
  0
SPLINE
  5
84
330
1F
100
AcDbEntity
  8
Ilustrace
 62
   250
370
    30
100
AcDbSpline
210
0.0
220
0.0
230
1.0
 70
    24
 71
     3
 72
     8
 73
     4
 74
     0
 42
0.0000000001
 43
0.0000000001
 40
0.0
 40
0.0
 40
0.0
 40
0.0
 40
1.0
 40
1.0
 40
1.0
 40
1.0
 10
65.8975
 20
-14.333
 30
0.0
 10
65.8975
 20
-14.333
 30
0.0
 10
64.0266
 20
-14.333
 30
0.0
 10
64.0266
 20
-14.333
 30
0.0
  0
SPLINE
  5
85
330
1F
100
AcDbEntity
  8
Ilustrace
 62
   250
370
    30
100
AcDbSpline
210
0.0
220
0.0
230
1.0
 70
     8
 71
     3
 72
     8
 73
     4
 74
     0
 42
0.0000000001
 43
0.0000000001
 40
0.0
 40
0.0
 40
0.0
 40
0.0
 40
1.0
 40
1.0
 40
1.0
 40
1.0
 10
64.0266
 20
-14.333
 30
0.0
 10
63.854
 20
-14.333
 30
0.0
 10
63.4323
 20
-14.392
 30
0.0
 10
63.235
 20
-14.2495
 30
0.0
  0
SPLINE
  5
86
330
1F
100
AcDbEntity
  8
Ilustrace
 62
   250
370
    30
100
AcDbSpline
210
0.0
220
0.0
230
1.0
 70
    24
 71
     3
 72
     8
 73
     4
 74
     0
 42
0.0000000001
 43
0.0000000001
 40
0.0
 40
0.0
 40
0.0
 40
0.0
 40
1.0
 40
1.0
 40
1.0
 40
1.0
 10
63.235
 20
-14.2495
 30
0.0
 10
63.235
 20
-14.2495
 30
0.0
 10
63.1074
 20
-14.1515
 30
0.0
 10
63.1074
 20
-14.1515
 30
0.0
  0
SPLINE
  5
87
330
1F
100
AcDbEntity
  8
Ilustrace
 62
   250
370
    30
100
AcDbSpline
210
0.0
220
0.0
230
1.0
 70
    24
 71
     3
 72
     8
 73
     4
 74
     0
 42
0.0000000001
 43
0.0000000001
 40
0.0
 40
0.0
 40
0.0
 40
0.0
 40
1.0
 40
1.0
 40
1.0
 40
1.0
 10
62.9452
 20
-13.8727
 30
0.0
 10
62.9452
 20
-13.8727
 30
0.0
 10
63.0066
 20
-14.0212
 30
0.0
 10
63.0066
 20
-14.0212
 30
0.0
  0
SPLINE
  5
88
330
1F
100
AcDbEntity
  8
Ilustrace
 62
   250
370
    30
100
AcDbSpline
210
0.0
220
0.0
230
1.0
 70
     8
 71
     3
 72
     8
 73
     4
 74
     0
 42
0.0000000001
 43
0.0000000001
 40
0.0
 40
0.0
 40
0.0
 40
0.0
 40
1.0
 40
1.0
 40
1.0
 40
1.0
 10
62.9232
 20
-13.7094
 30
0.0
 10
62.9284
 20
-13.8907
 30
0.0
 10
62.9948
 20
-14.0057
 30
0.0
 10
63.1046
 20
-14.1488
 30
0.0
  0
SPLINE
  5
89
330
1F
100
AcDbEntity
  8
Ilustrace
 62
   250
370
    30
100
AcDbSpline
210
0.0
220
0.0
230
1.0
 70
    24
 71
     3
 72
     8
 73
     4
 74
     0
 42
0.0000000001
 43
0.0000000001
 40
0.0
 40
0.0
 40
0.0
 40
0.0
 40
1.0
 40
1.0
 40
1.0
 40
1.0
 10
67.0702
 20
3.0117
 30
0.0
 10
67.0702
 20
3.0117
 30
0.0
 10
67.2292
 20
2.806
 30
0.0
 10
67.2292
 20
2.806
 30
0.0
  0
SPLINE
  5
8A
330
1F
100
AcDbEntity
  8
Ilustrace
 62
   250
370
    30
100
AcDbSpline
210
0.0
220
0.0
230
1.0
 70
     8
 71
     3
 72
     8
 73
     4
 74
     0
 42
0.0000000001
 43
0.0000000001
 40
0.0
 40
0.0
 40
0.0
 40
0.0
 40
1.0
 40
1.0
 40
1.0
 40
1.0
 10
67.2292
 20
2.806
 30
0.0
 10
67.4018
 20
2.5071
 30
0.0
 10
67.3609
 20
2.1648
 30
0.0
 10
67.3609
 20
1.8346
 30
0.0
  0
SPLINE
  5
8B
330
1F
100
AcDbEntity
  8
Ilustrace
 62
   250
370
    30
100
AcDbSpline
210
0.0
220
0.0
230
1.0
 70
    24
 71
     3
 72
     8
 73
     4
 74
     0
 42
0.0000000001
 43
0.0000000001
 40
0.0
 40
0.0
 40
0.0
 40
0.0
 40
1.0
 40
1.0
 40
1.0
 40
1.0
 10
67.3609
 20
1.8346
 30
0.0
 10
67.3609
 20
1.8346
 30
0.0
 10
67.3609
 20
-13.2296
 30
0.0
 10
67.3609
 20
-13.2296
 30
0.0
  0
SPLINE
  5
8C
330
1F
100
AcDbEntity
  8
Ilustrace
 62
   250
370
    30
100
AcDbSpline
210
0.0
220
0.0
230
1.0
 70
     8
 71
     3
 72
     8
 73
     4
 74
     0
 42
0.0000000001
 43
0.0000000001
 40
0.0
 40
0.0
 40
0.0
 40
0.0
 40
1.0
 40
1.0
 40
1.0
 40
1.0
 10
67.3609
 20
-13.2296
 30
0.0
 10
67.3609
 20
-13.4023
 30
0.0
 10
67.3816
 20
-13.7609
 30
0.0
 10
67.3273
 20
-13.9639
 30
0.0
  0
SPLINE
  5
8D
330
1F
100
AcDbEntity
  8
Ilustrace
 62
   250
370
    30
100
AcDbSpline
210
0.0
220
0.0
230
1.0
 70
     8
 71
     3
 72
    12
 73
     8
 74
     0
 42
0.0000000001
 43
0.0000000001
 40
0.0
 40
0.0
 40
0.0
 40
0.0
 40
0.3333333333333333
 40
0.3333333333333333
 40
0.3333333333333333
 40
0.3333333333333333
 40
1.0
 40
1.0
 40
1.0
 40
1.0
 10
67.3273
 20
-13.9639
 30
0.0
 10
67.3273
 20
-13.9639
 30
0.0
 10
67.2292
 20
-14.2011
 30
0.0
 10
67.2292
 20
-14.2011
 30
0.0
 10
67.2292
 20
-14.2011
 30
0.0
 10
67.2292
 20
-14.2011
 30
0.0
 10
67.1991
 20
-14.2498
 30
0.0
 10
67.1991
 20
-14.2498
 30
0.0
  0
SPLINE
  5
8E
330
1F
100
AcDbEntity
  8
Ilustrace
 62
   250
370
    30
100
AcDbSpline
210
0.0
220
0.0
230
1.0
 70
     8
 71
     3
 72
    12
 73
     8
 74
     0
 42
0.0000000001
 43
0.0000000001
 40
0.0
 40
0.0
 40
0.0
 40
0.0
 40
0.3333333333333333
 40
0.3333333333333333
 40
0.3333333333333333
 40
0.3333333333333333
 40
1.0
 40
1.0
 40
1.0
 40
1.0
 10
67.1991
 20
-14.2498
 30
0.0
 10
67.0405
 20
-14.4907
 30
0.0
 10
66.778
 20
-14.6527
 30
0.0
 10
66.4915
 20
-14.6863
 30
0.0
 10
66.4915
 20
-14.6863
 30
0.0
 10
66.3019
 20
-14.7084
 30
0.0
 10
66.0602
 20
-14.6929
 30
0.0
 10
65.8975
 20
-14.6929
 30
0.0
  0
SPLINE
  5
8F
330
1F
100
AcDbEntity
  8
Ilustrace
 62
   250
370
    30
100
AcDbSpline
210
0.0
220
0.0
230
1.0
 70
    24
 71
     3
 72
     8
 73
     4
 74
     0
 42
0.0000000001
 43
0.0000000001
 40
0.0
 40
0.0
 40
0.0
 40
0.0
 40
1.0
 40
1.0
 40
1.0
 40
1.0
 10
65.8975
 20
-14.6929
 30
0.0
 10
65.8975
 20
-14.6929
 30
0.0
 10
64.0266
 20
-14.6929
 30
0.0
 10
64.0266
 20
-14.6929
 30
0.0
  0
SPLINE
  5
90
330
1F
100
AcDbEntity
  8
Ilustrace
 62
   250
370
    30
100
AcDbSpline
210
0.0
220
0.0
230
1.0
 70
     8
 71
     3
 72
    16
 73
    12
 74
     0
 42
0.0000000001
 43
0.0000000001
 40
0.0
 40
0.0
 40
0.0
 40
0.0
 40
0.25
 40
0.25
 40
0.25
 40
0.25
 40
0.5
 40
0.5
 40
0.5
 40
0.5
 40
1.0
 40
1.0
 40
1.0
 40
1.0
 10
64.0266
 20
-14.6929
 30
0.0
 10
63.8639
 20
-14.6929
 30
0.0
 10
63.6223
 20
-14.7084
 30
0.0
 10
63.4327
 20
-14.6863
 30
0.0
 10
63.4327
 20
-14.6863
 30
0.0
 10
63.1462
 20
-14.6527
 30
0.0
 10
62.8836
 20
-14.4907
 30
0.0
 10
62.7251
 20
-14.2498
 30
0.0
 10
62.7251
 20
-14.2498
 30
0.0
 10
62.6695
 20
-14.1651
 30
0.0
 10
62.6081
 20
-14.05
 30
0.0
 10
62.5964
 20
-13.9607
 30
0.0
  0
SPLINE
  5
91
330
1F
100
AcDbEntity
  8
Ilustrace
 62
   250
370
    30
100
AcDbSpline
210
0.0
220
0.0
230
1.0
 70
     8
 71
     3
 72
    12
 73
     8
 74
     0
 42
0.0000000001
 43
0.0000000001
 40
0.0
 40
0.0
 40
0.0
 40
0.0
 40
0.3333333333333333
 40
0.3333333333333333
 40
0.3333333333333333
 40
0.3333333333333333
 40
1.0
 40
1.0
 40
1.0
 40
1.0
 10
62.9441
 20
-13.8688
 30
0.0
 10
62.9441
 20
-13.8688
 30
0.0
 10
62.9232
 20
-13.7094
 30
0.0
 10
62.9232
 20
-13.7094
 30
0.0
 10
62.9232
 20
-13.7094
 30
0.0
 10
62.9232
 20
-13.7094
 30
0.0
 10
62.9232
 20
-11.3345
 30
0.0
 10
62.9232
 20
-11.3345
 30
0.0
  0
SPLINE
  5
92
330
1F
100
AcDbEntity
  8
Ilustrace
 62
   250
370
    30
100
AcDbSpline
210
0.0
220
0.0
230
1.0
 70
    24
 71
     3
 72
    12
 73
     8
 74
     0
 42
0.0000000001
 43
0.0000000001
 40
0.0
 40
0.0
 40
0.0
 40
0.0
 40
0.3333333333333333
 40
0.3333333333333333
 40
0.3333333333333333
 40
0.3333333333333333
 40
1.0
 40
1.0
 40
1.0
 40
1.0
 10
62.5633
 20
-11.3354
 30
0.0
 10
62.5633
 20
-11.3354
 30
0.0
 10
62.5633
 20
-11.8151
 30
0.0
 10
62.5633
 20
-11.8151
 30
0.0
 10
62.5633
 20
-11.8151
 30
0.0
 10
62.5633
 20
-11.8151
 30
0.0
 10
62.5633
 20
-13.2296
 30
0.0
 10
62.5633
 20
-13.2296
 30
0.0
  0
SPLINE
  5
93
330
1F
100
AcDbEntity
  8
Ilustrace
 62
   250
370
    30
100
AcDbSpline
210
0.0
220
0.0
230
1.0
 70
     8
 71
     3
 72
     8
 73
     4
 74
     0
 42
0.0000000001
 43
0.0000000001
 40
0.0
 40
0.0
 40
0.0
 40
0.0
 40
1.0
 40
1.0
 40
1.0
 40
1.0
 10
62.5633
 20
-13.2296
 30
0.0
 10
62.5633
 20
-13.5055
 30
0.0
 10
62.508
 20
-13.942
 30
0.0
 10
62.6951
 20
-14.2011
 30
0.0
  0
SPLINE
  5
94
330
1F
100
AcDbEntity
  8
Ilustrace
 62
   250
370
    30
100
AcDbSpline
210
0.0
220
0.0
230
1.0
 70
     8
 71
     3
 72
     8
 73
     4
 74
     0
 42
0.0000000001
 43
0.0000000001
 40
0.0
 40
0.0
 40
0.0
 40
0.0
 40
1.0
 40
1.0
 40
1.0
 40
1.0
 10
66.5406
 20
2.916
 30
0.0
 10
66.6852
 20
2.8561
 30
0.0
 10
66.8481
 20
2.7806
 30
0.0
 10
66.9175
 20
2.6261
 30
0.0
  0
SPLINE
  5
95
330
1F
100
AcDbEntity
  8
Ilustrace
 62
   250
370
    30
100
AcDbSpline
210
0.0
220
0.0
230
1.0
 70
    24
 71
     3
 72
     8
 73
     4
 74
     0
 42
0.0000000001
 43
0.0000000001
 40
0.0
 40
0.0
 40
0.0
 40
0.0
 40
1.0
 40
1.0
 40
1.0
 40
1.0
 10
66.9175
 20
2.6261
 30
0.0
 10
66.9175
 20
2.6261
 30
0.0
 10
66.979
 20
2.4775
 30
0.0
 10
66.979
 20
2.4775
 30
0.0
  0
SPLINE
  5
96
330
1F
100
AcDbEntity
  8
Ilustrace
 62
   250
370
    30
100
AcDbSpline
210
0.0
220
0.0
230
1.0
 70
    24
 71
     3
 72
     8
 73
     4
 74
     0
 42
0.0000000001
 43
0.0000000001
 40
0.0
 40
0.0
 40
0.0
 40
0.0
 40
1.0
 40
1.0
 40
1.0
 40
1.0
 10
66.979
 20
-13.8726
 30
0.0
 10
66.979
 20
-13.8726
 30
0.0
 10
66.9175
 20
-14.0212
 30
0.0
 10
66.9175
 20
-14.0212
 30
0.0
  0
SPLINE
  5
97
330
1F
100
AcDbEntity
  8
Ilustrace
 62
   250
370
    30
100
AcDbSpline
210
0.0
220
0.0
230
1.0
 70
     8
 71
     3
 72
     8
 73
     4
 74
     0
 42
0.0000000001
 43
0.0000000001
 40
0.0
 40
0.0
 40
0.0
 40
0.0
 40
1.0
 40
1.0
 40
1.0
 40
1.0
 10
66.9175
 20
-14.0212
 30
0.0
 10
66.8481
 20
-14.1757
 30
0.0
 10
66.6852
 20
-14.2511
 30
0.0
 10
66.5406
 20
-14.311
 30
0.0
  0
SPLINE
  5
98
330
1F
100
AcDbEntity
  8
Ilustrace
 62
   250
370
    30
100
AcDbSpline
210
0.0
220
0.0
230
1.0
 70
     8
 71
     3
 72
     8
 73
     4
 74
     0
 42
0.0000000001
 43
0.0000000001
 40
0.0
 40
0.0
 40
0.0
 40
0.0
 40
1.0
 40
1.0
 40
1.0
 40
1.0
 10
67.001
 20
-13.7094
 30
0.0
 10
66.9958
 20
-13.8907
 30
0.0
 10
66.9293
 20
-14.0057
 30
0.0
 10
66.8196
 20
-14.1488
 30
0.0
  0
SPLINE
  5
99
330
1F
100
AcDbEntity
  8
Ilustrace
 62
   254
100
AcDbSpline
210
0.0
220
0.0
230
1.0
 70
    11
 71
     3
 72
    60
 73
    56
 74
     0
 42
0.0000000001
 43
0.0000000001
 40
0.0
 40
0.0
 40
0.0
 40
0.0
 40
0.0666666666666667
 40
0.0666666666666667
 40
0.0666666666666667
 40
0.0666666666666667
 40
0.1333333333333333
 40
0.1333333333333333
 40
0.1333333333333333
 40
0.1333333333333333
 40
0.2
 40
0.2
 40
0.2
 40
0.2
 40
0.2666666666666667
 40
0.2666666666666667
 40
0.2666666666666667
 40
0.2666666666666667
 40
0.3333333333333333
 40
0.3333333333333333
 40
0.3333333333333333
 40
0.3333333333333333
 40
0.4
 40
0.4
 40
0.4
 40
0.4
 40
0.4666666666666667
 40
0.4666666666666667
 40
0.4666666666666667
 40
0.4666666666666667
 40
0.5333333333333333
 40
0.5333333333333333
 40
0.5333333333333333
 40
0.5333333333333333
 40
0.6
 40
0.6
 40
0.6
 40
0.6
 40
0.6666666666666666
 40
0.6666666666666666
 40
0.6666666666666666
 40
0.6666666666666666
 40
0.7333333333333333
 40
0.7333333333333333
 40
0.7333333333333333
 40
0.7333333333333333
 40
0.8
 40
0.8
 40
0.8
 40
0.8
 40
0.8666666666666667
 40
0.8666666666666667
 40
0.8666666666666667
 40
0.8666666666666667
 40
1.0
 40
1.0
 40
1.0
 40
1.0
 10
-34.228
 20
3.3162
 30
0.0
 10
-34.228
 20
3.3162
 30
0.0
 10
-34.228
 20
3.1855
 30
0.0
 10
-34.228
 20
3.1855
 30
0.0
 10
-34.228
 20
3.1855
 30
0.0
 10
-34.228
 20
2.4193
 30
0.0
 10
-34.4639
 20
1.8987
 30
0.0
 10
-34.4639
 20
1.181
 30
0.0
 10
-34.4639
 20
1.181
 30
0.0
 10
-34.4639
 20
1.181
 30
0.0
 10
-34.4639
 20
0.7667
 30
0.0
 10
-34.4639
 20
0.7667
 30
0.0
 10
-34.4639
 20
0.7667
 30
0.0
 10
-34.464
 20
-1.038
 30
0.0
 10
-34.4869
 20
-3.6017
 30
0.0
 10
-34.6642
 20
-5.3264
 30
0.0
 10
-34.6642
 20
-5.3264
 30
0.0
 10
-34.6642
 20
-5.3264
 30
0.0
 10
-34.6823
 20
-5.5028
 30
0.0
 10
-34.6823
 20
-5.5028
 30
0.0
 10
-34.6823
 20
-5.5028
 30
0.0
 10
-34.8102
 20
-6.7462
 30
0.0
 10
-34.7624
 20
-7.4345
 30
0.0
 10
-34.8827
 20
-8.676
 30
0.0
 10
-34.8827
 20
-8.676
 30
0.0
 10
-34.9483
 20
-9.3535
 30
0.0
 10
-34.9607
 20
-10.0721
 30
0.0
 10
-35.114
 20
-10.7294
 30
0.0
 10
-35.114
 20
-10.7294
 30
0.0
 10
-35.2592
 20
-11.3522
 30
0.0
 10
-35.4631
 20
-13.2706
 30
0.0
 10
-35.6855
 20
-13.6562
 30
0.0
 10
-35.6855
 20
-13.6562
 30
0.0
 10
-35.7253
 20
-13.7252
 30
0.0
 10
-35.9214
 20
-14.5257
 30
0.0
 10
-35.9214
 20
-14.6848
 30
0.0
 10
-35.9214
 20
-14.6848
 30
0.0
 10
-35.9214
 20
-14.6959
 30
0.0
 10
-35.9142
 20
-14.7178
 30
0.0
 10
-35.9253
 20
-14.7178
 30
0.0
 10
-35.9253
 20
-14.7178
 30
0.0
 10
-35.9253
 20
-14.7178
 30
0.0
 10
-72.8733
 20
-14.7178
 30
0.0
 10
-72.8733
 20
-14.7178
 30
0.0
 10
-72.8733
 20
-14.7178
 30
0.0
 10
-72.8733
 20
-14.7178
 30
0.0
 10
-72.8733
 20
3.318
 30
0.0
 10
-72.8733
 20
3.318
 30
0.0
 10
-72.8733
 20
3.318
 30
0.0
 10
-72.8733
 20
3.318
 30
0.0
 10
-34.2717
 20
3.318
 30
0.0
 10
-34.2717
 20
3.318
 30
0.0
 10
-34.2717
 20
3.318
 30
0.0
 10
-34.2571
 20
3.318
 30
0.0
 10
-34.228
 20
3.3308
 30
0.0
 10
-34.228
 20
3.3162
 30
0.0
  0
SPLINE
  5
9A
330
1F
100
AcDbEntity
  8
Ilustrace
 62
   254
100
AcDbSpline
210
0.0
220
0.0
230
1.0
 70
    11
 71
     3
 72
    20
 73
    16
 74
     0
 42
0.0000000001
 43
0.0000000001
 40
0.0
 40
0.0
 40
0.0
 40
0.0
 40
0.2
 40
0.2
 40
0.2
 40
0.2
 40
0.4
 40
0.4
 40
0.4
 40
0.4
 40
0.6
 40
0.6
 40
0.6
 40
0.6
 40
1.0
 40
1.0
 40
1.0
 40
1.0
 10
-50.9019
 20
-9.2621
 30
0.0
 10
-50.9019
 20
-9.2621
 30
0.0
 10
-37.9152
 20
-9.2621
 30
0.0
 10
-37.9152
 20
-9.2621
 30
0.0
 10
-37.9152
 20
-9.2621
 30
0.0
 10
-37.9152
 20
-9.2621
 30
0.0
 10
-37.9152
 20
-10.6952
 30
0.0
 10
-37.9152
 20
-10.6952
 30
0.0
 10
-37.9152
 20
-10.6952
 30
0.0
 10
-37.9152
 20
-10.6952
 30
0.0
 10
-50.9019
 20
-10.6952
 30
0.0
 10
-50.9019
 20
-10.6952
 30
0.0
 10
-50.9019
 20
-10.6952
 30
0.0
 10
-50.9019
 20
-10.6952
 30
0.0
 10
-50.9019
 20
-9.2621
 30
0.0
 10
-50.9019
 20
-9.2621
 30
0.0
  0
SPLINE
  5
9B
330
1F
100
AcDbEntity
  8
Ilustrace
 62
   254
100
AcDbSpline
210
0.0
220
0.0
230
1.0
 70
    11
 71
     3
 72
    20
 73
    16
 74
     0
 42
0.0000000001
 43
0.0000000001
 40
0.0
 40
0.0
 40
0.0
 40
0.0
 40
0.2
 40
0.2
 40
0.2
 40
0.2
 40
0.4
 40
0.4
 40
0.4
 40
0.4
 40
0.6
 40
0.6
 40
0.6
 40
0.6
 40
1.0
 40
1.0
 40
1.0
 40
1.0
 10
-67.4384
 20
-9.3062
 30
0.0
 10
-67.4384
 20
-9.3062
 30
0.0
 10
-54.4517
 20
-9.3062
 30
0.0
 10
-54.4517
 20
-9.3062
 30
0.0
 10
-54.4517
 20
-9.3062
 30
0.0
 10
-54.4517
 20
-9.3062
 30
0.0
 10
-54.4517
 20
-10.7393
 30
0.0
 10
-54.4517
 20
-10.7393
 30
0.0
 10
-54.4517
 20
-10.7393
 30
0.0
 10
-54.4517
 20
-10.7393
 30
0.0
 10
-67.4384
 20
-10.7393
 30
0.0
 10
-67.4384
 20
-10.7393
 30
0.0
 10
-67.4384
 20
-10.7393
 30
0.0
 10
-67.4384
 20
-10.7393
 30
0.0
 10
-67.4384
 20
-9.3062
 30
0.0
 10
-67.4384
 20
-9.3062
 30
0.0
  0
SPLINE
  5
9C
330
1F
100
AcDbEntity
  8
Ilustrace
 62
   254
100
AcDbSpline
210
0.0
220
0.0
230
1.0
 70
    11
 71
     3
 72
    20
 73
    16
 74
     0
 42
0.0000000001
 43
0.0000000001
 40
0.0
 40
0.0
 40
0.0
 40
0.0
 40
0.2
 40
0.2
 40
0.2
 40
0.2
 40
0.4
 40
0.4
 40
0.4
 40
0.4
 40
0.6
 40
0.6
 40
0.6
 40
0.6
 40
1.0
 40
1.0
 40
1.0
 40
1.0
 10
-50.7916
 20
-4.8303
 30
0.0
 10
-50.7916
 20
-4.8303
 30
0.0
 10
-37.8049
 20
-4.8303
 30
0.0
 10
-37.8049
 20
-4.8303
 30
0.0
 10
-37.8049
 20
-4.8303
 30
0.0
 10
-37.8049
 20
-4.8303
 30
0.0
 10
-37.8049
 20
-6.2634
 30
0.0
 10
-37.8049
 20
-6.2634
 30
0.0
 10
-37.8049
 20
-6.2634
 30
0.0
 10
-37.8049
 20
-6.2634
 30
0.0
 10
-50.7916
 20
-6.2634
 30
0.0
 10
-50.7916
 20
-6.2634
 30
0.0
 10
-50.7916
 20
-6.2634
 30
0.0
 10
-50.7916
 20
-6.2634
 30
0.0
 10
-50.7916
 20
-4.8303
 30
0.0
 10
-50.7916
 20
-4.8303
 30
0.0
  0
SPLINE
  5
9D
330
1F
100
AcDbEntity
  8
Ilustrace
 62
   254
100
AcDbSpline
210
0.0
220
0.0
230
1.0
 70
    11
 71
     3
 72
    20
 73
    16
 74
     0
 42
0.0000000001
 43
0.0000000001
 40
0.0
 40
0.0
 40
0.0
 40
0.0
 40
0.2
 40
0.2
 40
0.2
 40
0.2
 40
0.4
 40
0.4
 40
0.4
 40
0.4
 40
0.6
 40
0.6
 40
0.6
 40
0.6
 40
1.0
 40
1.0
 40
1.0
 40
1.0
 10
-67.3281
 20
-4.8744
 30
0.0
 10
-67.3281
 20
-4.8744
 30
0.0
 10
-54.3414
 20
-4.8744
 30
0.0
 10
-54.3414
 20
-4.8744
 30
0.0
 10
-54.3414
 20
-4.8744
 30
0.0
 10
-54.3414
 20
-4.8744
 30
0.0
 10
-54.3414
 20
-6.3075
 30
0.0
 10
-54.3414
 20
-6.3075
 30
0.0
 10
-54.3414
 20
-6.3075
 30
0.0
 10
-54.3414
 20
-6.3075
 30
0.0
 10
-67.3281
 20
-6.3075
 30
0.0
 10
-67.3281
 20
-6.3075
 30
0.0
 10
-67.3281
 20
-6.3075
 30
0.0
 10
-67.3281
 20
-6.3075
 30
0.0
 10
-67.3281
 20
-4.8744
 30
0.0
 10
-67.3281
 20
-4.8744
 30
0.0
  0
SPLINE
  5
9E
330
1F
100
AcDbEntity
  8
Ilustrace
 62
   254
100
AcDbSpline
210
0.0
220
0.0
230
1.0
 70
    11
 71
     3
 72
    20
 73
    16
 74
     0
 42
0.0000000001
 43
0.0000000001
 40
0.0
 40
0.0
 40
0.0
 40
0.0
 40
0.2
 40
0.2
 40
0.2
 40
0.2
 40
0.4
 40
0.4
 40
0.4
 40
0.4
 40
0.6
 40
0.6
 40
0.6
 40
0.6
 40
1.0
 40
1.0
 40
1.0
 40
1.0
 10
-50.8577
 20
-0.619
 30
0.0
 10
-50.8577
 20
-0.619
 30
0.0
 10
-37.871
 20
-0.619
 30
0.0
 10
-37.871
 20
-0.619
 30
0.0
 10
-37.871
 20
-0.619
 30
0.0
 10
-37.871
 20
-0.619
 30
0.0
 10
-37.871
 20
-2.0521
 30
0.0
 10
-37.871
 20
-2.0521
 30
0.0
 10
-37.871
 20
-2.0521
 30
0.0
 10
-37.871
 20
-2.0521
 30
0.0
 10
-50.8577
 20
-2.0521
 30
0.0
 10
-50.8577
 20
-2.0521
 30
0.0
 10
-50.8577
 20
-2.0521
 30
0.0
 10
-50.8577
 20
-2.0521
 30
0.0
 10
-50.8577
 20
-0.619
 30
0.0
 10
-50.8577
 20
-0.619
 30
0.0
  0
SPLINE
  5
9F
330
1F
100
AcDbEntity
  8
Ilustrace
 62
   254
100
AcDbSpline
210
0.0
220
0.0
230
1.0
 70
    11
 71
     3
 72
    20
 73
    16
 74
     0
 42
0.0000000001
 43
0.0000000001
 40
0.0
 40
0.0
 40
0.0
 40
0.0
 40
0.2
 40
0.2
 40
0.2
 40
0.2
 40
0.4
 40
0.4
 40
0.4
 40
0.4
 40
0.6
 40
0.6
 40
0.6
 40
0.6
 40
1.0
 40
1.0
 40
1.0
 40
1.0
 10
-67.3942
 20
-0.6631
 30
0.0
 10
-67.3942
 20
-0.6631
 30
0.0
 10
-54.4075
 20
-0.6631
 30
0.0
 10
-54.4075
 20
-0.6631
 30
0.0
 10
-54.4075
 20
-0.6631
 30
0.0
 10
-54.4075
 20
-0.6631
 30
0.0
 10
-54.4075
 20
-2.0962
 30
0.0
 10
-54.4075
 20
-2.0962
 30
0.0
 10
-54.4075
 20
-2.0962
 30
0.0
 10
-54.4075
 20
-2.0962
 30
0.0
 10
-67.3942
 20
-2.0962
 30
0.0
 10
-67.3942
 20
-2.0962
 30
0.0
 10
-67.3942
 20
-2.0962
 30
0.0
 10
-67.3942
 20
-2.0962
 30
0.0
 10
-67.3942
 20
-0.6631
 30
0.0
 10
-67.3942
 20
-0.6631
 30
0.0
  0
SPLINE
  5
A0
330
1F
100
AcDbEntity
  8
Ilustrace
 62
   254
100
AcDbSpline
210
0.0
220
0.0
230
1.0
 70
    11
 71
     3
 72
    60
 73
    56
 74
     0
 42
0.0000000001
 43
0.0000000001
 40
0.0
 40
0.0
 40
0.0
 40
0.0
 40
0.0666666666666667
 40
0.0666666666666667
 40
0.0666666666666667
 40
0.0666666666666667
 40
0.1333333333333333
 40
0.1333333333333333
 40
0.1333333333333333
 40
0.1333333333333333
 40
0.2
 40
0.2
 40
0.2
 40
0.2
 40
0.2666666666666667
 40
0.2666666666666667
 40
0.2666666666666667
 40
0.2666666666666667
 40
0.3333333333333333
 40
0.3333333333333333
 40
0.3333333333333333
 40
0.3333333333333333
 40
0.4
 40
0.4
 40
0.4
 40
0.4
 40
0.4666666666666667
 40
0.4666666666666667
 40
0.4666666666666667
 40
0.4666666666666667
 40
0.5333333333333333
 40
0.5333333333333333
 40
0.5333333333333333
 40
0.5333333333333333
 40
0.6
 40
0.6
 40
0.6
 40
0.6
 40
0.6666666666666666
 40
0.6666666666666666
 40
0.6666666666666666
 40
0.6666666666666666
 40
0.7333333333333333
 40
0.7333333333333333
 40
0.7333333333333333
 40
0.7333333333333333
 40
0.8
 40
0.8
 40
0.8
 40
0.8
 40
0.8666666666666667
 40
0.8666666666666667
 40
0.8666666666666667
 40
0.8666666666666667
 40
1.0
 40
1.0
 40
1.0
 40
1.0
 10
-32.228
 20
3.3162
 30
0.0
 10
-32.228
 20
3.3162
 30
0.0
 10
-32.228
 20
3.1855
 30
0.0
 10
-32.228
 20
3.1855
 30
0.0
 10
-32.228
 20
3.1855
 30
0.0
 10
-32.228
 20
2.4193
 30
0.0
 10
-32.4639
 20
1.8987
 30
0.0
 10
-32.4639
 20
1.181
 30
0.0
 10
-32.4639
 20
1.181
 30
0.0
 10
-32.4639
 20
1.181
 30
0.0
 10
-32.4639
 20
0.7667
 30
0.0
 10
-32.4639
 20
0.7667
 30
0.0
 10
-32.4639
 20
0.7667
 30
0.0
 10
-32.464
 20
-1.038
 30
0.0
 10
-32.4869
 20
-3.6017
 30
0.0
 10
-32.6642
 20
-5.3264
 30
0.0
 10
-32.6642
 20
-5.3264
 30
0.0
 10
-32.6642
 20
-5.3264
 30
0.0
 10
-32.6823
 20
-5.5028
 30
0.0
 10
-32.6823
 20
-5.5028
 30
0.0
 10
-32.6823
 20
-5.5028
 30
0.0
 10
-32.8102
 20
-6.7462
 30
0.0
 10
-32.7624
 20
-7.4345
 30
0.0
 10
-32.8827
 20
-8.676
 30
0.0
 10
-32.8827
 20
-8.676
 30
0.0
 10
-32.9483
 20
-9.3535
 30
0.0
 10
-32.9607
 20
-10.0721
 30
0.0
 10
-33.114
 20
-10.7294
 30
0.0
 10
-33.114
 20
-10.7294
 30
0.0
 10
-33.2592
 20
-11.3522
 30
0.0
 10
-33.4631
 20
-13.2706
 30
0.0
 10
-33.6855
 20
-13.6562
 30
0.0
 10
-33.6855
 20
-13.6562
 30
0.0
 10
-33.7253
 20
-13.7252
 30
0.0
 10
-33.9214
 20
-14.5257
 30
0.0
 10
-33.9214
 20
-14.6848
 30
0.0
 10
-33.9214
 20
-14.6848
 30
0.0
 10
-33.9214
 20
-14.6959
 30
0.0
 10
-33.9271
 20
-14.7178
 30
0.0
 10
-33.916
 20
-14.7178
 30
0.0
 10
-33.916
 20
-14.7178
 30
0.0
 10
-33.916
 20
-14.7178
 30
0.0
 10
55.3176
 20
-14.7178
 30
0.0
 10
55.3176
 20
-14.7178
 30
0.0
 10
55.3176
 20
-14.7178
 30
0.0
 10
55.3176
 20
-14.7178
 30
0.0
 10
55.3176
 20
3.318
 30
0.0
 10
55.3176
 20
3.318
 30
0.0
 10
55.3176
 20
3.318
 30
0.0
 10
55.3176
 20
3.318
 30
0.0
 10
-32.2763
 20
3.318
 30
0.0
 10
-32.2763
 20
3.318
 30
0.0
 10
-32.2763
 20
3.318
 30
0.0
 10
-32.2924
 20
3.318
 30
0.0
 10
-32.228
 20
3.3323
 30
0.0
 10
-32.228
 20
3.3162
 30
0.0
  0
SPLINE
  5
A1
330
1F
100
AcDbEntity
  8
Ilustrace
 62
   254
100
AcDbSpline
210
0.0
220
0.0
230
1.0
 70
    11
 71
     3
 72
    20
 73
    16
 74
     0
 42
0.0000000001
 43
0.0000000001
 40
0.0
 40
0.0
 40
0.0
 40
0.0
 40
0.2
 40
0.2
 40
0.2
 40
0.2
 40
0.4
 40
0.4
 40
0.4
 40
0.4
 40
0.6
 40
0.6
 40
0.6
 40
0.6
 40
1.0
 40
1.0
 40
1.0
 40
1.0
 10
36.5873
 20
-9.2292
 30
0.0
 10
36.5873
 20
-9.2292
 30
0.0
 10
49.574
 20
-9.2292
 30
0.0
 10
49.574
 20
-9.2292
 30
0.0
 10
49.574
 20
-9.2292
 30
0.0
 10
49.574
 20
-9.2292
 30
0.0
 10
49.574
 20
-10.6623
 30
0.0
 10
49.574
 20
-10.6623
 30
0.0
 10
49.574
 20
-10.6623
 30
0.0
 10
49.574
 20
-10.6623
 30
0.0
 10
36.5873
 20
-10.6623
 30
0.0
 10
36.5873
 20
-10.6623
 30
0.0
 10
36.5873
 20
-10.6623
 30
0.0
 10
36.5873
 20
-10.6623
 30
0.0
 10
36.5873
 20
-9.2292
 30
0.0
 10
36.5873
 20
-9.2292
 30
0.0
  0
SPLINE
  5
A2
330
1F
100
AcDbEntity
  8
Ilustrace
 62
   254
100
AcDbSpline
210
0.0
220
0.0
230
1.0
 70
    11
 71
     3
 72
    20
 73
    16
 74
     0
 42
0.0000000001
 43
0.0000000001
 40
0.0
 40
0.0
 40
0.0
 40
0.0
 40
0.2
 40
0.2
 40
0.2
 40
0.2
 40
0.4
 40
0.4
 40
0.4
 40
0.4
 40
0.6
 40
0.6
 40
0.6
 40
0.6
 40
1.0
 40
1.0
 40
1.0
 40
1.0
 10
20.0288
 20
-9.2512
 30
0.0
 10
20.0288
 20
-9.2512
 30
0.0
 10
33.0155
 20
-9.2512
 30
0.0
 10
33.0155
 20
-9.2512
 30
0.0
 10
33.0155
 20
-9.2512
 30
0.0
 10
33.0155
 20
-9.2512
 30
0.0
 10
33.0155
 20
-10.6843
 30
0.0
 10
33.0155
 20
-10.6843
 30
0.0
 10
33.0155
 20
-10.6843
 30
0.0
 10
33.0155
 20
-10.6843
 30
0.0
 10
20.0288
 20
-10.6843
 30
0.0
 10
20.0288
 20
-10.6843
 30
0.0
 10
20.0288
 20
-10.6843
 30
0.0
 10
20.0288
 20
-10.6843
 30
0.0
 10
20.0288
 20
-9.2512
 30
0.0
 10
20.0288
 20
-9.2512
 30
0.0
  0
SPLINE
  5
A3
330
1F
100
AcDbEntity
  8
Ilustrace
 62
   254
100
AcDbSpline
210
0.0
220
0.0
230
1.0
 70
    11
 71
     3
 72
    20
 73
    16
 74
     0
 42
0.0000000001
 43
0.0000000001
 40
0.0
 40
0.0
 40
0.0
 40
0.0
 40
0.2
 40
0.2
 40
0.2
 40
0.2
 40
0.4
 40
0.4
 40
0.4
 40
0.4
 40
0.6
 40
0.6
 40
0.6
 40
0.6
 40
1.0
 40
1.0
 40
1.0
 40
1.0
 10
3.4703
 20
-9.2732
 30
0.0
 10
3.4703
 20
-9.2732
 30
0.0
 10
16.457
 20
-9.2732
 30
0.0
 10
16.457
 20
-9.2732
 30
0.0
 10
16.457
 20
-9.2732
 30
0.0
 10
16.457
 20
-9.2732
 30
0.0
 10
16.457
 20
-10.7063
 30
0.0
 10
16.457
 20
-10.7063
 30
0.0
 10
16.457
 20
-10.7063
 30
0.0
 10
16.457
 20
-10.7063
 30
0.0
 10
3.4703
 20
-10.7063
 30
0.0
 10
3.4703
 20
-10.7063
 30
0.0
 10
3.4703
 20
-10.7063
 30
0.0
 10
3.4703
 20
-10.7063
 30
0.0
 10
3.4703
 20
-9.2732
 30
0.0
 10
3.4703
 20
-9.2732
 30
0.0
  0
SPLINE
  5
A4
330
1F
100
AcDbEntity
  8
Ilustrace
 62
   254
100
AcDbSpline
210
0.0
220
0.0
230
1.0
 70
    11
 71
     3
 72
    20
 73
    16
 74
     0
 42
0.0000000001
 43
0.0000000001
 40
0.0
 40
0.0
 40
0.0
 40
0.0
 40
0.2
 40
0.2
 40
0.2
 40
0.2
 40
0.4
 40
0.4
 40
0.4
 40
0.4
 40
0.6
 40
0.6
 40
0.6
 40
0.6
 40
1.0
 40
1.0
 40
1.0
 40
1.0
 10
-13.0442
 20
-9.3283
 30
0.0
 10
-13.0442
 20
-9.3283
 30
0.0
 10
-0.0575
 20
-9.3283
 30
0.0
 10
-0.0575
 20
-9.3283
 30
0.0
 10
-0.0575
 20
-9.3283
 30
0.0
 10
-0.0575
 20
-9.3283
 30
0.0
 10
-0.0575
 20
-10.7614
 30
0.0
 10
-0.0575
 20
-10.7614
 30
0.0
 10
-0.0575
 20
-10.7614
 30
0.0
 10
-0.0575
 20
-10.7614
 30
0.0
 10
-13.0442
 20
-10.7614
 30
0.0
 10
-13.0442
 20
-10.7614
 30
0.0
 10
-13.0442
 20
-10.7614
 30
0.0
 10
-13.0442
 20
-10.7614
 30
0.0
 10
-13.0442
 20
-9.3283
 30
0.0
 10
-13.0442
 20
-9.3283
 30
0.0
  0
SPLINE
  5
A5
330
1F
100
AcDbEntity
  8
Ilustrace
 62
   254
100
AcDbSpline
210
0.0
220
0.0
230
1.0
 70
    11
 71
     3
 72
    20
 73
    16
 74
     0
 42
0.0000000001
 43
0.0000000001
 40
0.0
 40
0.0
 40
0.0
 40
0.0
 40
0.2
 40
0.2
 40
0.2
 40
0.2
 40
0.4
 40
0.4
 40
0.4
 40
0.4
 40
0.6
 40
0.6
 40
0.6
 40
0.6
 40
1.0
 40
1.0
 40
1.0
 40
1.0
 10
-29.691
 20
-9.3283
 30
0.0
 10
-29.691
 20
-9.3283
 30
0.0
 10
-16.7043
 20
-9.3283
 30
0.0
 10
-16.7043
 20
-9.3283
 30
0.0
 10
-16.7043
 20
-9.3283
 30
0.0
 10
-16.7043
 20
-9.3283
 30
0.0
 10
-16.7043
 20
-10.7614
 30
0.0
 10
-16.7043
 20
-10.7614
 30
0.0
 10
-16.7043
 20
-10.7614
 30
0.0
 10
-16.7043
 20
-10.7614
 30
0.0
 10
-29.691
 20
-10.7614
 30
0.0
 10
-29.691
 20
-10.7614
 30
0.0
 10
-29.691
 20
-10.7614
 30
0.0
 10
-29.691
 20
-10.7614
 30
0.0
 10
-29.691
 20
-9.3283
 30
0.0
 10
-29.691
 20
-9.3283
 30
0.0
  0
SPLINE
  5
A6
330
1F
100
AcDbEntity
  8
Ilustrace
 62
   254
100
AcDbSpline
210
0.0
220
0.0
230
1.0
 70
    11
 71
     3
 72
    20
 73
    16
 74
     0
 42
0.0000000001
 43
0.0000000001
 40
0.0
 40
0.0
 40
0.0
 40
0.0
 40
0.2
 40
0.2
 40
0.2
 40
0.2
 40
0.4
 40
0.4
 40
0.4
 40
0.4
 40
0.6
 40
0.6
 40
0.6
 40
0.6
 40
1.0
 40
1.0
 40
1.0
 40
1.0
 10
36.6976
 20
-4.7974
 30
0.0
 10
36.6976
 20
-4.7974
 30
0.0
 10
49.6843
 20
-4.7974
 30
0.0
 10
49.6843
 20
-4.7974
 30
0.0
 10
49.6843
 20
-4.7974
 30
0.0
 10
49.6843
 20
-4.7974
 30
0.0
 10
49.6843
 20
-6.2305
 30
0.0
 10
49.6843
 20
-6.2305
 30
0.0
 10
49.6843
 20
-6.2305
 30
0.0
 10
49.6843
 20
-6.2305
 30
0.0
 10
36.6976
 20
-6.2305
 30
0.0
 10
36.6976
 20
-6.2305
 30
0.0
 10
36.6976
 20
-6.2305
 30
0.0
 10
36.6976
 20
-6.2305
 30
0.0
 10
36.6976
 20
-4.7974
 30
0.0
 10
36.6976
 20
-4.7974
 30
0.0
  0
SPLINE
  5
A7
330
1F
100
AcDbEntity
  8
Ilustrace
 62
   254
100
AcDbSpline
210
0.0
220
0.0
230
1.0
 70
    11
 71
     3
 72
    20
 73
    16
 74
     0
 42
0.0000000001
 43
0.0000000001
 40
0.0
 40
0.0
 40
0.0
 40
0.0
 40
0.2
 40
0.2
 40
0.2
 40
0.2
 40
0.4
 40
0.4
 40
0.4
 40
0.4
 40
0.6
 40
0.6
 40
0.6
 40
0.6
 40
1.0
 40
1.0
 40
1.0
 40
1.0
 10
20.1391
 20
-4.8194
 30
0.0
 10
20.1391
 20
-4.8194
 30
0.0
 10
33.1258
 20
-4.8194
 30
0.0
 10
33.1258
 20
-4.8194
 30
0.0
 10
33.1258
 20
-4.8194
 30
0.0
 10
33.1258
 20
-4.8194
 30
0.0
 10
33.1258
 20
-6.2525
 30
0.0
 10
33.1258
 20
-6.2525
 30
0.0
 10
33.1258
 20
-6.2525
 30
0.0
 10
33.1258
 20
-6.2525
 30
0.0
 10
20.1391
 20
-6.2525
 30
0.0
 10
20.1391
 20
-6.2525
 30
0.0
 10
20.1391
 20
-6.2525
 30
0.0
 10
20.1391
 20
-6.2525
 30
0.0
 10
20.1391
 20
-4.8194
 30
0.0
 10
20.1391
 20
-4.8194
 30
0.0
  0
SPLINE
  5
A8
330
1F
100
AcDbEntity
  8
Ilustrace
 62
   254
100
AcDbSpline
210
0.0
220
0.0
230
1.0
 70
    11
 71
     3
 72
    20
 73
    16
 74
     0
 42
0.0000000001
 43
0.0000000001
 40
0.0
 40
0.0
 40
0.0
 40
0.0
 40
0.2
 40
0.2
 40
0.2
 40
0.2
 40
0.4
 40
0.4
 40
0.4
 40
0.4
 40
0.6
 40
0.6
 40
0.6
 40
0.6
 40
1.0
 40
1.0
 40
1.0
 40
1.0
 10
3.5806
 20
-4.8414
 30
0.0
 10
3.5806
 20
-4.8414
 30
0.0
 10
16.5673
 20
-4.8414
 30
0.0
 10
16.5673
 20
-4.8414
 30
0.0
 10
16.5673
 20
-4.8414
 30
0.0
 10
16.5673
 20
-4.8414
 30
0.0
 10
16.5673
 20
-6.2745
 30
0.0
 10
16.5673
 20
-6.2745
 30
0.0
 10
16.5673
 20
-6.2745
 30
0.0
 10
16.5673
 20
-6.2745
 30
0.0
 10
3.5806
 20
-6.2745
 30
0.0
 10
3.5806
 20
-6.2745
 30
0.0
 10
3.5806
 20
-6.2745
 30
0.0
 10
3.5806
 20
-6.2745
 30
0.0
 10
3.5806
 20
-4.8414
 30
0.0
 10
3.5806
 20
-4.8414
 30
0.0
  0
SPLINE
  5
A9
330
1F
100
AcDbEntity
  8
Ilustrace
 62
   254
100
AcDbSpline
210
0.0
220
0.0
230
1.0
 70
    11
 71
     3
 72
    20
 73
    16
 74
     0
 42
0.0000000001
 43
0.0000000001
 40
0.0
 40
0.0
 40
0.0
 40
0.0
 40
0.2
 40
0.2
 40
0.2
 40
0.2
 40
0.4
 40
0.4
 40
0.4
 40
0.4
 40
0.6
 40
0.6
 40
0.6
 40
0.6
 40
1.0
 40
1.0
 40
1.0
 40
1.0
 10
-12.9339
 20
-4.8965
 30
0.0
 10
-12.9339
 20
-4.8965
 30
0.0
 10
0.0528
 20
-4.8965
 30
0.0
 10
0.0528
 20
-4.8965
 30
0.0
 10
0.0528
 20
-4.8965
 30
0.0
 10
0.0528
 20
-4.8965
 30
0.0
 10
0.0528
 20
-6.3296
 30
0.0
 10
0.0528
 20
-6.3296
 30
0.0
 10
0.0528
 20
-6.3296
 30
0.0
 10
0.0528
 20
-6.3296
 30
0.0
 10
-12.9339
 20
-6.3296
 30
0.0
 10
-12.9339
 20
-6.3296
 30
0.0
 10
-12.9339
 20
-6.3296
 30
0.0
 10
-12.9339
 20
-6.3296
 30
0.0
 10
-12.9339
 20
-4.8965
 30
0.0
 10
-12.9339
 20
-4.8965
 30
0.0
  0
SPLINE
  5
AA
330
1F
100
AcDbEntity
  8
Ilustrace
 62
   254
100
AcDbSpline
210
0.0
220
0.0
230
1.0
 70
    11
 71
     3
 72
    20
 73
    16
 74
     0
 42
0.0000000001
 43
0.0000000001
 40
0.0
 40
0.0
 40
0.0
 40
0.0
 40
0.2
 40
0.2
 40
0.2
 40
0.2
 40
0.4
 40
0.4
 40
0.4
 40
0.4
 40
0.6
 40
0.6
 40
0.6
 40
0.6
 40
1.0
 40
1.0
 40
1.0
 40
1.0
 10
-29.5807
 20
-4.8965
 30
0.0
 10
-29.5807
 20
-4.8965
 30
0.0
 10
-16.594
 20
-4.8965
 30
0.0
 10
-16.594
 20
-4.8965
 30
0.0
 10
-16.594
 20
-4.8965
 30
0.0
 10
-16.594
 20
-4.8965
 30
0.0
 10
-16.594
 20
-6.3296
 30
0.0
 10
-16.594
 20
-6.3296
 30
0.0
 10
-16.594
 20
-6.3296
 30
0.0
 10
-16.594
 20
-6.3296
 30
0.0
 10
-29.5807
 20
-6.3296
 30
0.0
 10
-29.5807
 20
-6.3296
 30
0.0
 10
-29.5807
 20
-6.3296
 30
0.0
 10
-29.5807
 20
-6.3296
 30
0.0
 10
-29.5807
 20
-4.8965
 30
0.0
 10
-29.5807
 20
-4.8965
 30
0.0
  0
SPLINE
  5
AB
330
1F
100
AcDbEntity
  8
Ilustrace
 62
   254
100
AcDbSpline
210
0.0
220
0.0
230
1.0
 70
    11
 71
     3
 72
    20
 73
    16
 74
     0
 42
0.0000000001
 43
0.0000000001
 40
0.0
 40
0.0
 40
0.0
 40
0.0
 40
0.2
 40
0.2
 40
0.2
 40
0.2
 40
0.4
 40
0.4
 40
0.4
 40
0.4
 40
0.6
 40
0.6
 40
0.6
 40
0.6
 40
1.0
 40
1.0
 40
1.0
 40
1.0
 10
36.6315
 20
-0.5861
 30
0.0
 10
36.6315
 20
-0.5861
 30
0.0
 10
49.6182
 20
-0.5861
 30
0.0
 10
49.6182
 20
-0.5861
 30
0.0
 10
49.6182
 20
-0.5861
 30
0.0
 10
49.6182
 20
-0.5861
 30
0.0
 10
49.6182
 20
-2.0192
 30
0.0
 10
49.6182
 20
-2.0192
 30
0.0
 10
49.6182
 20
-2.0192
 30
0.0
 10
49.6182
 20
-2.0192
 30
0.0
 10
36.6315
 20
-2.0192
 30
0.0
 10
36.6315
 20
-2.0192
 30
0.0
 10
36.6315
 20
-2.0192
 30
0.0
 10
36.6315
 20
-2.0192
 30
0.0
 10
36.6315
 20
-0.5861
 30
0.0
 10
36.6315
 20
-0.5861
 30
0.0
  0
SPLINE
  5
AC
330
1F
100
AcDbEntity
  8
Ilustrace
 62
   254
100
AcDbSpline
210
0.0
220
0.0
230
1.0
 70
    11
 71
     3
 72
    20
 73
    16
 74
     0
 42
0.0000000001
 43
0.0000000001
 40
0.0
 40
0.0
 40
0.0
 40
0.0
 40
0.2
 40
0.2
 40
0.2
 40
0.2
 40
0.4
 40
0.4
 40
0.4
 40
0.4
 40
0.6
 40
0.6
 40
0.6
 40
0.6
 40
1.0
 40
1.0
 40
1.0
 40
1.0
 10
20.073
 20
-0.6081
 30
0.0
 10
20.073
 20
-0.6081
 30
0.0
 10
33.0597
 20
-0.6081
 30
0.0
 10
33.0597
 20
-0.6081
 30
0.0
 10
33.0597
 20
-0.6081
 30
0.0
 10
33.0597
 20
-0.6081
 30
0.0
 10
33.0597
 20
-2.0412
 30
0.0
 10
33.0597
 20
-2.0412
 30
0.0
 10
33.0597
 20
-2.0412
 30
0.0
 10
33.0597
 20
-2.0412
 30
0.0
 10
20.073
 20
-2.0412
 30
0.0
 10
20.073
 20
-2.0412
 30
0.0
 10
20.073
 20
-2.0412
 30
0.0
 10
20.073
 20
-2.0412
 30
0.0
 10
20.073
 20
-0.6081
 30
0.0
 10
20.073
 20
-0.6081
 30
0.0
  0
SPLINE
  5
AD
330
1F
100
AcDbEntity
  8
Ilustrace
 62
   254
100
AcDbSpline
210
0.0
220
0.0
230
1.0
 70
    11
 71
     3
 72
    20
 73
    16
 74
     0
 42
0.0000000001
 43
0.0000000001
 40
0.0
 40
0.0
 40
0.0
 40
0.0
 40
0.2
 40
0.2
 40
0.2
 40
0.2
 40
0.4
 40
0.4
 40
0.4
 40
0.4
 40
0.6
 40
0.6
 40
0.6
 40
0.6
 40
1.0
 40
1.0
 40
1.0
 40
1.0
 10
3.5145
 20
-0.6301
 30
0.0
 10
3.5145
 20
-0.6301
 30
0.0
 10
16.5012
 20
-0.6301
 30
0.0
 10
16.5012
 20
-0.6301
 30
0.0
 10
16.5012
 20
-0.6301
 30
0.0
 10
16.5012
 20
-0.6301
 30
0.0
 10
16.5012
 20
-2.0632
 30
0.0
 10
16.5012
 20
-2.0632
 30
0.0
 10
16.5012
 20
-2.0632
 30
0.0
 10
16.5012
 20
-2.0632
 30
0.0
 10
3.5145
 20
-2.0632
 30
0.0
 10
3.5145
 20
-2.0632
 30
0.0
 10
3.5145
 20
-2.0632
 30
0.0
 10
3.5145
 20
-2.0632
 30
0.0
 10
3.5145
 20
-0.6301
 30
0.0
 10
3.5145
 20
-0.6301
 30
0.0
  0
SPLINE
  5
AE
330
1F
100
AcDbEntity
  8
Ilustrace
 62
   254
100
AcDbSpline
210
0.0
220
0.0
230
1.0
 70
    11
 71
     3
 72
    20
 73
    16
 74
     0
 42
0.0000000001
 43
0.0000000001
 40
0.0
 40
0.0
 40
0.0
 40
0.0
 40
0.2
 40
0.2
 40
0.2
 40
0.2
 40
0.4
 40
0.4
 40
0.4
 40
0.4
 40
0.6
 40
0.6
 40
0.6
 40
0.6
 40
1.0
 40
1.0
 40
1.0
 40
1.0
 10
-13.0
 20
-0.6852
 30
0.0
 10
-13.0
 20
-0.6852
 30
0.0
 10
-0.0133
 20
-0.6852
 30
0.0
 10
-0.0133
 20
-0.6852
 30
0.0
 10
-0.0133
 20
-0.6852
 30
0.0
 10
-0.0133
 20
-0.6852
 30
0.0
 10
-0.0133
 20
-2.1183
 30
0.0
 10
-0.0133
 20
-2.1183
 30
0.0
 10
-0.0133
 20
-2.1183
 30
0.0
 10
-0.0133
 20
-2.1183
 30
0.0
 10
-13.0
 20
-2.1183
 30
0.0
 10
-13.0
 20
-2.1183
 30
0.0
 10
-13.0
 20
-2.1183
 30
0.0
 10
-13.0
 20
-2.1183
 30
0.0
 10
-13.0
 20
-0.6852
 30
0.0
 10
-13.0
 20
-0.6852
 30
0.0
  0
SPLINE
  5
AF
330
1F
100
AcDbEntity
  8
Ilustrace
 62
   254
100
AcDbSpline
210
0.0
220
0.0
230
1.0
 70
    11
 71
     3
 72
    20
 73
    16
 74
     0
 42
0.0000000001
 43
0.0000000001
 40
0.0
 40
0.0
 40
0.0
 40
0.0
 40
0.2
 40
0.2
 40
0.2
 40
0.2
 40
0.4
 40
0.4
 40
0.4
 40
0.4
 40
0.6
 40
0.6
 40
0.6
 40
0.6
 40
1.0
 40
1.0
 40
1.0
 40
1.0
 10
-29.6468
 20
-0.6852
 30
0.0
 10
-29.6468
 20
-0.6852
 30
0.0
 10
-16.6601
 20
-0.6852
 30
0.0
 10
-16.6601
 20
-0.6852
 30
0.0
 10
-16.6601
 20
-0.6852
 30
0.0
 10
-16.6601
 20
-0.6852
 30
0.0
 10
-16.6601
 20
-2.1183
 30
0.0
 10
-16.6601
 20
-2.1183
 30
0.0
 10
-16.6601
 20
-2.1183
 30
0.0
 10
-16.6601
 20
-2.1183
 30
0.0
 10
-29.6468
 20
-2.1183
 30
0.0
 10
-29.6468
 20
-2.1183
 30
0.0
 10
-29.6468
 20
-2.1183
 30
0.0
 10
-29.6468
 20
-2.1183
 30
0.0
 10
-29.6468
 20
-0.6852
 30
0.0
 10
-29.6468
 20
-0.6852
 30
0.0
  0
SPLINE
  5
B0
330
1F
100
AcDbEntity
  8
Ilustrace
 62
   250
370
    15
100
AcDbSpline
210
0.0
220
0.0
230
1.0
 70
     8
 71
     3
 72
    40
 73
    36
 74
     0
 42
0.0000000001
 43
0.0000000001
 40
0.0
 40
0.0
 40
0.0
 40
0.0
 40
0.1
 40
0.1
 40
0.1
 40
0.1
 40
0.2
 40
0.2
 40
0.2
 40
0.2
 40
0.3
 40
0.3
 40
0.3
 40
0.3
 40
0.4
 40
0.4
 40
0.4
 40
0.4
 40
0.5
 40
0.5
 40
0.5
 40
0.5
 40
0.6
 40
0.6
 40
0.6
 40
0.6
 40
0.7
 40
0.7
 40
0.7
 40
0.7
 40
0.8
 40
0.8
 40
0.8
 40
0.8
 40
1.0
 40
1.0
 40
1.0
 40
1.0
 10
-34.228
 20
3.3162
 30
0.0
 10
-34.228
 20
3.3162
 30
0.0
 10
-34.228
 20
3.1855
 30
0.0
 10
-34.228
 20
3.1855
 30
0.0
 10
-34.228
 20
3.1855
 30
0.0
 10
-34.228
 20
2.4193
 30
0.0
 10
-34.4639
 20
1.8987
 30
0.0
 10
-34.4639
 20
1.181
 30
0.0
 10
-34.4639
 20
1.181
 30
0.0
 10
-34.4639
 20
1.181
 30
0.0
 10
-34.4639
 20
0.7667
 30
0.0
 10
-34.4639
 20
0.7667
 30
0.0
 10
-34.4639
 20
0.7667
 30
0.0
 10
-34.464
 20
-1.038
 30
0.0
 10
-34.4869
 20
-3.6017
 30
0.0
 10
-34.6642
 20
-5.3264
 30
0.0
 10
-34.6642
 20
-5.3264
 30
0.0
 10
-34.6642
 20
-5.3264
 30
0.0
 10
-34.6823
 20
-5.5028
 30
0.0
 10
-34.6823
 20
-5.5028
 30
0.0
 10
-34.6823
 20
-5.5028
 30
0.0
 10
-34.8102
 20
-6.7462
 30
0.0
 10
-34.7624
 20
-7.4345
 30
0.0
 10
-34.8827
 20
-8.676
 30
0.0
 10
-34.8827
 20
-8.676
 30
0.0
 10
-34.9483
 20
-9.3535
 30
0.0
 10
-34.9607
 20
-10.0721
 30
0.0
 10
-35.114
 20
-10.7294
 30
0.0
 10
-35.114
 20
-10.7294
 30
0.0
 10
-35.2592
 20
-11.3522
 30
0.0
 10
-35.4631
 20
-13.2706
 30
0.0
 10
-35.6855
 20
-13.6562
 30
0.0
 10
-35.6855
 20
-13.6562
 30
0.0
 10
-35.7253
 20
-13.7252
 30
0.0
 10
-35.9214
 20
-14.5257
 30
0.0
 10
-35.9214
 20
-14.6848
 30
0.0
  0
SPLINE
  5
B1
330
1F
100
AcDbEntity
  8
Ilustrace
 62
   250
370
    30
100
AcDbSpline
210
0.0
220
0.0
230
1.0
 70
    24
 71
     3
 72
     8
 73
     4
 74
     0
 42
0.0000000001
 43
0.0000000001
 40
0.0
 40
0.0
 40
0.0
 40
0.0
 40
1.0
 40
1.0
 40
1.0
 40
1.0
 10
-72.8749
 20
-14.6752
 30
0.0
 10
-72.8749
 20
-14.6752
 30
0.0
 10
-35.899
 20
-14.6752
 30
0.0
 10
-35.899
 20
-14.6752
 30
0.0
  0
SPLINE
  5
B2
330
1F
100
AcDbEntity
  8
Ilustrace
 62
   250
370
    30
100
AcDbSpline
210
0.0
220
0.0
230
1.0
 70
    24
 71
     3
 72
     8
 73
     4
 74
     0
 42
0.0000000001
 43
0.0000000001
 40
0.0
 40
0.0
 40
0.0
 40
0.0
 40
1.0
 40
1.0
 40
1.0
 40
1.0
 10
-72.8749
 20
3.3247
 30
0.0
 10
-72.8749
 20
3.3247
 30
0.0
 10
-34.2565
 20
3.3247
 30
0.0
 10
-34.2565
 20
3.3247
 30
0.0
  0
SPLINE
  5
B3
330
1F
100
AcDbEntity
  8
Ilustrace
 62
   250
370
    15
100
AcDbSpline
210
0.0
220
0.0
230
1.0
 70
    24
 71
     3
 72
     8
 73
     4
 74
     0
 42
0.0000000001
 43
0.0000000001
 40
0.0
 40
0.0
 40
0.0
 40
0.0
 40
1.0
 40
1.0
 40
1.0
 40
1.0
 10
-72.8749
 20
-13.946
 30
0.0
 10
-72.8749
 20
-13.946
 30
0.0
 10
-35.7666
 20
-13.946
 30
0.0
 10
-35.7666
 20
-13.946
 30
0.0
  0
SPLINE
  5
B4
330
1F
100
AcDbEntity
  8
Ilustrace
 62
   250
370
    15
100
AcDbSpline
210
0.0
220
0.0
230
1.0
 70
    24
 71
     3
 72
     8
 73
     4
 74
     0
 42
0.0000000001
 43
0.0000000001
 40
0.0
 40
0.0
 40
0.0
 40
0.0
 40
1.0
 40
1.0
 40
1.0
 40
1.0
 10
-72.8749
 20
2.5954
 30
0.0
 10
-72.8749
 20
2.5954
 30
0.0
 10
-34.3006
 20
2.5954
 30
0.0
 10
-34.3006
 20
2.5954
 30
0.0
  0
SPLINE
  5
B5
330
1F
100
AcDbEntity
  8
Ilustrace
 62
   250
370
    30
100
AcDbSpline
210
0.0
220
0.0
230
1.0
 70
    24
 71
     3
 72
     8
 73
     4
 74
     0
 42
0.0000000001
 43
0.0000000001
 40
0.0
 40
0.0
 40
0.0
 40
0.0
 40
1.0
 40
1.0
 40
1.0
 40
1.0
 10
-72.8702
 20
3.2911
 30
0.0
 10
-72.8702
 20
3.2911
 30
0.0
 10
-72.8702
 20
3.323
 30
0.0
 10
-72.8702
 20
3.323
 30
0.0
  0
SPLINE
  5
B6
330
1F
100
AcDbEntity
  8
Ilustrace
 62
   250
370
    30
100
AcDbSpline
210
0.0
220
0.0
230
1.0
 70
    24
 71
     3
 72
     8
 73
     4
 74
     0
 42
0.0000000001
 43
0.0000000001
 40
0.0
 40
0.0
 40
0.0
 40
0.0
 40
1.0
 40
1.0
 40
1.0
 40
1.0
 10
-72.8702
 20
3.2911
 30
0.0
 10
-72.8702
 20
3.2911
 30
0.0
 10
-72.8702
 20
3.3097
 30
0.0
 10
-72.8702
 20
3.3097
 30
0.0
  0
SPLINE
  5
B7
330
1F
100
AcDbEntity
  8
Ilustrace
 62
   250
370
    30
100
AcDbSpline
210
0.0
220
0.0
230
1.0
 70
    24
 71
     3
 72
     8
 73
     4
 74
     0
 42
0.0000000001
 43
0.0000000001
 40
0.0
 40
0.0
 40
0.0
 40
0.0
 40
1.0
 40
1.0
 40
1.0
 40
1.0
 10
-72.8702
 20
3.2911
 30
0.0
 10
-72.8702
 20
3.2911
 30
0.0
 10
-72.8702
 20
3.2981
 30
0.0
 10
-72.8702
 20
3.2981
 30
0.0
  0
SPLINE
  5
B8
330
1F
100
AcDbEntity
  8
Ilustrace
 62
   250
370
    30
100
AcDbSpline
210
0.0
220
0.0
230
1.0
 70
    24
 71
     3
 72
     8
 73
     4
 74
     0
 42
0.0000000001
 43
0.0000000001
 40
0.0
 40
0.0
 40
0.0
 40
0.0
 40
1.0
 40
1.0
 40
1.0
 40
1.0
 10
-72.8702
 20
3.2911
 30
0.0
 10
-72.8702
 20
3.2911
 30
0.0
 10
-72.8702
 20
3.3179
 30
0.0
 10
-72.8702
 20
3.3179
 30
0.0
  0
SPLINE
  5
B9
330
1F
100
AcDbEntity
  8
Ilustrace
 62
   250
370
    30
100
AcDbSpline
210
0.0
220
0.0
230
1.0
 70
    24
 71
     3
 72
     8
 73
     4
 74
     0
 42
0.0000000001
 43
0.0000000001
 40
0.0
 40
0.0
 40
0.0
 40
0.0
 40
1.0
 40
1.0
 40
1.0
 40
1.0
 10
-72.8702
 20
3.1928
 30
0.0
 10
-72.8702
 20
3.1928
 30
0.0
 10
-72.8702
 20
3.2201
 30
0.0
 10
-72.8702
 20
3.2201
 30
0.0
  0
SPLINE
  5
BA
330
1F
100
AcDbEntity
  8
Ilustrace
 62
   250
370
    30
100
AcDbSpline
210
0.0
220
0.0
230
1.0
 70
    24
 71
     3
 72
     8
 73
     4
 74
     0
 42
0.0000000001
 43
0.0000000001
 40
0.0
 40
0.0
 40
0.0
 40
0.0
 40
1.0
 40
1.0
 40
1.0
 40
1.0
 10
-72.8702
 20
3.1928
 30
0.0
 10
-72.8702
 20
3.1928
 30
0.0
 10
-72.8702
 20
3.2442
 30
0.0
 10
-72.8702
 20
3.2442
 30
0.0
  0
SPLINE
  5
BB
330
1F
100
AcDbEntity
  8
Ilustrace
 62
   250
370
    30
100
AcDbSpline
210
0.0
220
0.0
230
1.0
 70
    24
 71
     3
 72
     8
 73
     4
 74
     0
 42
0.0000000001
 43
0.0000000001
 40
0.0
 40
0.0
 40
0.0
 40
0.0
 40
1.0
 40
1.0
 40
1.0
 40
1.0
 10
-72.8702
 20
-14.6752
 30
0.0
 10
-72.8702
 20
-14.6752
 30
0.0
 10
-72.8702
 20
3.3247
 30
0.0
 10
-72.8702
 20
3.3247
 30
0.0
  0
SPLINE
  5
BC
330
1F
100
AcDbEntity
  8
Ilustrace
 62
   250
370
    30
100
AcDbSpline
210
0.0
220
0.0
230
1.0
 70
    24
 71
     3
 72
     8
 73
     4
 74
     0
 42
0.0000000001
 43
0.0000000001
 40
0.0
 40
0.0
 40
0.0
 40
0.0
 40
1.0
 40
1.0
 40
1.0
 40
1.0
 10
-72.8702
 20
-14.6417
 30
0.0
 10
-72.8702
 20
-14.6417
 30
0.0
 10
-72.8702
 20
-14.6736
 30
0.0
 10
-72.8702
 20
-14.6736
 30
0.0
  0
SPLINE
  5
BD
330
1F
100
AcDbEntity
  8
Ilustrace
 62
   250
370
    30
100
AcDbSpline
210
0.0
220
0.0
230
1.0
 70
    24
 71
     3
 72
     8
 73
     4
 74
     0
 42
0.0000000001
 43
0.0000000001
 40
0.0
 40
0.0
 40
0.0
 40
0.0
 40
1.0
 40
1.0
 40
1.0
 40
1.0
 10
-72.8702
 20
-14.6417
 30
0.0
 10
-72.8702
 20
-14.6417
 30
0.0
 10
-72.8702
 20
-14.6686
 30
0.0
 10
-72.8702
 20
-14.6686
 30
0.0
  0
SPLINE
  5
BE
330
1F
100
AcDbEntity
  8
Ilustrace
 62
   250
370
    30
100
AcDbSpline
210
0.0
220
0.0
230
1.0
 70
    24
 71
     3
 72
     8
 73
     4
 74
     0
 42
0.0000000001
 43
0.0000000001
 40
0.0
 40
0.0
 40
0.0
 40
0.0
 40
1.0
 40
1.0
 40
1.0
 40
1.0
 10
-72.8702
 20
-14.6417
 30
0.0
 10
-72.8702
 20
-14.6417
 30
0.0
 10
-72.8702
 20
-14.6603
 30
0.0
 10
-72.8702
 20
-14.6603
 30
0.0
  0
SPLINE
  5
BF
330
1F
100
AcDbEntity
  8
Ilustrace
 62
   250
370
    30
100
AcDbSpline
210
0.0
220
0.0
230
1.0
 70
    24
 71
     3
 72
     8
 73
     4
 74
     0
 42
0.0000000001
 43
0.0000000001
 40
0.0
 40
0.0
 40
0.0
 40
0.0
 40
1.0
 40
1.0
 40
1.0
 40
1.0
 10
-72.8702
 20
-14.5434
 30
0.0
 10
-72.8702
 20
-14.5434
 30
0.0
 10
-72.8702
 20
-14.6487
 30
0.0
 10
-72.8702
 20
-14.6487
 30
0.0
  0
SPLINE
  5
C0
330
1F
100
AcDbEntity
  8
Ilustrace
 62
   250
370
    30
100
AcDbSpline
210
0.0
220
0.0
230
1.0
 70
    24
 71
     3
 72
     8
 73
     4
 74
     0
 42
0.0000000001
 43
0.0000000001
 40
0.0
 40
0.0
 40
0.0
 40
0.0
 40
1.0
 40
1.0
 40
1.0
 40
1.0
 10
-72.8702
 20
-14.5434
 30
0.0
 10
-72.8702
 20
-14.5434
 30
0.0
 10
-72.8702
 20
-14.5948
 30
0.0
 10
-72.8702
 20
-14.5948
 30
0.0
  0
SPLINE
  5
C1
330
1F
100
AcDbEntity
  8
Ilustrace
 62
   250
370
    30
100
AcDbSpline
210
0.0
220
0.0
230
1.0
 70
    24
 71
     3
 72
     8
 73
     4
 74
     0
 42
0.0000000001
 43
0.0000000001
 40
0.0
 40
0.0
 40
0.0
 40
0.0
 40
1.0
 40
1.0
 40
1.0
 40
1.0
 10
-72.8702
 20
-13.6913
 30
0.0
 10
-72.8702
 20
-13.6913
 30
0.0
 10
-72.8702
 20
-14.5705
 30
0.0
 10
-72.8702
 20
-14.5705
 30
0.0
  0
SPLINE
  5
C2
330
1F
100
AcDbEntity
  8
Ilustrace
 62
   250
370
    30
100
AcDbSpline
210
0.0
220
0.0
230
1.0
 70
    24
 71
     3
 72
     8
 73
     4
 74
     0
 42
0.0000000001
 43
0.0000000001
 40
0.0
 40
0.0
 40
0.0
 40
0.0
 40
1.0
 40
1.0
 40
1.0
 40
1.0
 10
-67.3503
 20
-9.2752
 30
0.0
 10
-67.3503
 20
-9.2752
 30
0.0
 10
-67.3503
 20
-10.7153
 30
0.0
 10
-67.3503
 20
-10.7153
 30
0.0
  0
SPLINE
  5
C3
330
1F
100
AcDbEntity
  8
Ilustrace
 62
   250
370
    30
100
AcDbSpline
210
0.0
220
0.0
230
1.0
 70
    24
 71
     3
 72
     8
 73
     4
 74
     0
 42
0.0000000001
 43
0.0000000001
 40
0.0
 40
0.0
 40
0.0
 40
0.0
 40
1.0
 40
1.0
 40
1.0
 40
1.0
 10
-54.3903
 20
-10.7153
 30
0.0
 10
-54.3903
 20
-10.7153
 30
0.0
 10
-67.3503
 20
-10.7153
 30
0.0
 10
-67.3503
 20
-10.7153
 30
0.0
  0
SPLINE
  5
C4
330
1F
100
AcDbEntity
  8
Ilustrace
 62
   250
370
    30
100
AcDbSpline
210
0.0
220
0.0
230
1.0
 70
    24
 71
     3
 72
     8
 73
     4
 74
     0
 42
0.0000000001
 43
0.0000000001
 40
0.0
 40
0.0
 40
0.0
 40
0.0
 40
1.0
 40
1.0
 40
1.0
 40
1.0
 10
-67.3503
 20
-9.2752
 30
0.0
 10
-67.3503
 20
-9.2752
 30
0.0
 10
-54.3903
 20
-9.2752
 30
0.0
 10
-54.3903
 20
-9.2752
 30
0.0
  0
SPLINE
  5
C5
330
1F
100
AcDbEntity
  8
Ilustrace
 62
   250
370
    30
100
AcDbSpline
210
0.0
220
0.0
230
1.0
 70
    24
 71
     3
 72
     8
 73
     4
 74
     0
 42
0.0000000001
 43
0.0000000001
 40
0.0
 40
0.0
 40
0.0
 40
0.0
 40
1.0
 40
1.0
 40
1.0
 40
1.0
 10
-54.3903
 20
-10.7153
 30
0.0
 10
-54.3903
 20
-10.7153
 30
0.0
 10
-54.3903
 20
-9.2752
 30
0.0
 10
-54.3903
 20
-9.2752
 30
0.0
  0
SPLINE
  5
C6
330
1F
100
AcDbEntity
  8
Ilustrace
 62
   250
370
    30
100
AcDbSpline
210
0.0
220
0.0
230
1.0
 70
    24
 71
     3
 72
     8
 73
     4
 74
     0
 42
0.0000000001
 43
0.0000000001
 40
0.0
 40
0.0
 40
0.0
 40
0.0
 40
1.0
 40
1.0
 40
1.0
 40
1.0
 10
-50.7903
 20
-10.7153
 30
0.0
 10
-50.7903
 20
-10.7153
 30
0.0
 10
-37.8303
 20
-10.7153
 30
0.0
 10
-37.8303
 20
-10.7153
 30
0.0
  0
SPLINE
  5
C7
330
1F
100
AcDbEntity
  8
Ilustrace
 62
   250
370
    30
100
AcDbSpline
210
0.0
220
0.0
230
1.0
 70
    24
 71
     3
 72
     8
 73
     4
 74
     0
 42
0.0000000001
 43
0.0000000001
 40
0.0
 40
0.0
 40
0.0
 40
0.0
 40
1.0
 40
1.0
 40
1.0
 40
1.0
 10
-37.8303
 20
-9.2752
 30
0.0
 10
-37.8303
 20
-9.2752
 30
0.0
 10
-37.8303
 20
-10.7153
 30
0.0
 10
-37.8303
 20
-10.7153
 30
0.0
  0
SPLINE
  5
C8
330
1F
100
AcDbEntity
  8
Ilustrace
 62
   250
370
    30
100
AcDbSpline
210
0.0
220
0.0
230
1.0
 70
    24
 71
     3
 72
     8
 73
     4
 74
     0
 42
0.0000000001
 43
0.0000000001
 40
0.0
 40
0.0
 40
0.0
 40
0.0
 40
1.0
 40
1.0
 40
1.0
 40
1.0
 10
-37.8303
 20
-9.2752
 30
0.0
 10
-37.8303
 20
-9.2752
 30
0.0
 10
-50.7903
 20
-9.2752
 30
0.0
 10
-50.7903
 20
-9.2752
 30
0.0
  0
SPLINE
  5
C9
330
1F
100
AcDbEntity
  8
Ilustrace
 62
   250
370
    30
100
AcDbSpline
210
0.0
220
0.0
230
1.0
 70
    24
 71
     3
 72
     8
 73
     4
 74
     0
 42
0.0000000001
 43
0.0000000001
 40
0.0
 40
0.0
 40
0.0
 40
0.0
 40
1.0
 40
1.0
 40
1.0
 40
1.0
 10
-50.7903
 20
-10.7153
 30
0.0
 10
-50.7903
 20
-10.7153
 30
0.0
 10
-50.7903
 20
-9.2752
 30
0.0
 10
-50.7903
 20
-9.2752
 30
0.0
  0
SPLINE
  5
CA
330
1F
100
AcDbEntity
  8
Ilustrace
 62
   250
370
    30
100
AcDbSpline
210
0.0
220
0.0
230
1.0
 70
    24
 71
     3
 72
     8
 73
     4
 74
     0
 42
0.0000000001
 43
0.0000000001
 40
0.0
 40
0.0
 40
0.0
 40
0.0
 40
1.0
 40
1.0
 40
1.0
 40
1.0
 10
-67.3503
 20
-4.9554
 30
0.0
 10
-67.3503
 20
-4.9554
 30
0.0
 10
-67.3503
 20
-6.3952
 30
0.0
 10
-67.3503
 20
-6.3952
 30
0.0
  0
SPLINE
  5
CB
330
1F
100
AcDbEntity
  8
Ilustrace
 62
   250
370
    30
100
AcDbSpline
210
0.0
220
0.0
230
1.0
 70
    24
 71
     3
 72
     8
 73
     4
 74
     0
 42
0.0000000001
 43
0.0000000001
 40
0.0
 40
0.0
 40
0.0
 40
0.0
 40
1.0
 40
1.0
 40
1.0
 40
1.0
 10
-54.3903
 20
-6.3952
 30
0.0
 10
-54.3903
 20
-6.3952
 30
0.0
 10
-67.3503
 20
-6.3952
 30
0.0
 10
-67.3503
 20
-6.3952
 30
0.0
  0
SPLINE
  5
CC
330
1F
100
AcDbEntity
  8
Ilustrace
 62
   250
370
    30
100
AcDbSpline
210
0.0
220
0.0
230
1.0
 70
    24
 71
     3
 72
     8
 73
     4
 74
     0
 42
0.0000000001
 43
0.0000000001
 40
0.0
 40
0.0
 40
0.0
 40
0.0
 40
1.0
 40
1.0
 40
1.0
 40
1.0
 10
-67.3503
 20
-4.9554
 30
0.0
 10
-67.3503
 20
-4.9554
 30
0.0
 10
-54.3903
 20
-4.9554
 30
0.0
 10
-54.3903
 20
-4.9554
 30
0.0
  0
SPLINE
  5
CD
330
1F
100
AcDbEntity
  8
Ilustrace
 62
   250
370
    30
100
AcDbSpline
210
0.0
220
0.0
230
1.0
 70
    24
 71
     3
 72
     8
 73
     4
 74
     0
 42
0.0000000001
 43
0.0000000001
 40
0.0
 40
0.0
 40
0.0
 40
0.0
 40
1.0
 40
1.0
 40
1.0
 40
1.0
 10
-54.3903
 20
-6.3952
 30
0.0
 10
-54.3903
 20
-6.3952
 30
0.0
 10
-54.3903
 20
-4.9554
 30
0.0
 10
-54.3903
 20
-4.9554
 30
0.0
  0
SPLINE
  5
CE
330
1F
100
AcDbEntity
  8
Ilustrace
 62
   250
370
    30
100
AcDbSpline
210
0.0
220
0.0
230
1.0
 70
    24
 71
     3
 72
     8
 73
     4
 74
     0
 42
0.0000000001
 43
0.0000000001
 40
0.0
 40
0.0
 40
0.0
 40
0.0
 40
1.0
 40
1.0
 40
1.0
 40
1.0
 10
-50.7903
 20
-6.3952
 30
0.0
 10
-50.7903
 20
-6.3952
 30
0.0
 10
-37.8303
 20
-6.3952
 30
0.0
 10
-37.8303
 20
-6.3952
 30
0.0
  0
SPLINE
  5
CF
330
1F
100
AcDbEntity
  8
Ilustrace
 62
   250
370
    30
100
AcDbSpline
210
0.0
220
0.0
230
1.0
 70
    24
 71
     3
 72
     8
 73
     4
 74
     0
 42
0.0000000001
 43
0.0000000001
 40
0.0
 40
0.0
 40
0.0
 40
0.0
 40
1.0
 40
1.0
 40
1.0
 40
1.0
 10
-37.8303
 20
-4.9554
 30
0.0
 10
-37.8303
 20
-4.9554
 30
0.0
 10
-37.8303
 20
-6.3952
 30
0.0
 10
-37.8303
 20
-6.3952
 30
0.0
  0
SPLINE
  5
D0
330
1F
100
AcDbEntity
  8
Ilustrace
 62
   250
370
    30
100
AcDbSpline
210
0.0
220
0.0
230
1.0
 70
    24
 71
     3
 72
     8
 73
     4
 74
     0
 42
0.0000000001
 43
0.0000000001
 40
0.0
 40
0.0
 40
0.0
 40
0.0
 40
1.0
 40
1.0
 40
1.0
 40
1.0
 10
-37.8303
 20
-4.9554
 30
0.0
 10
-37.8303
 20
-4.9554
 30
0.0
 10
-50.7903
 20
-4.9554
 30
0.0
 10
-50.7903
 20
-4.9554
 30
0.0
  0
SPLINE
  5
D1
330
1F
100
AcDbEntity
  8
Ilustrace
 62
   250
370
    30
100
AcDbSpline
210
0.0
220
0.0
230
1.0
 70
    24
 71
     3
 72
     8
 73
     4
 74
     0
 42
0.0000000001
 43
0.0000000001
 40
0.0
 40
0.0
 40
0.0
 40
0.0
 40
1.0
 40
1.0
 40
1.0
 40
1.0
 10
-50.7903
 20
-6.3952
 30
0.0
 10
-50.7903
 20
-6.3952
 30
0.0
 10
-50.7903
 20
-4.9554
 30
0.0
 10
-50.7903
 20
-4.9554
 30
0.0
  0
SPLINE
  5
D2
330
1F
100
AcDbEntity
  8
Ilustrace
 62
   250
370
    30
100
AcDbSpline
210
0.0
220
0.0
230
1.0
 70
    24
 71
     3
 72
     8
 73
     4
 74
     0
 42
0.0000000001
 43
0.0000000001
 40
0.0
 40
0.0
 40
0.0
 40
0.0
 40
1.0
 40
1.0
 40
1.0
 40
1.0
 10
-67.3503
 20
-0.6353
 30
0.0
 10
-67.3503
 20
-0.6353
 30
0.0
 10
-67.3503
 20
-2.0754
 30
0.0
 10
-67.3503
 20
-2.0754
 30
0.0
  0
SPLINE
  5
D3
330
1F
100
AcDbEntity
  8
Ilustrace
 62
   250
370
    30
100
AcDbSpline
210
0.0
220
0.0
230
1.0
 70
    24
 71
     3
 72
     8
 73
     4
 74
     0
 42
0.0000000001
 43
0.0000000001
 40
0.0
 40
0.0
 40
0.0
 40
0.0
 40
1.0
 40
1.0
 40
1.0
 40
1.0
 10
-54.3903
 20
-2.0754
 30
0.0
 10
-54.3903
 20
-2.0754
 30
0.0
 10
-67.3503
 20
-2.0754
 30
0.0
 10
-67.3503
 20
-2.0754
 30
0.0
  0
SPLINE
  5
D4
330
1F
100
AcDbEntity
  8
Ilustrace
 62
   250
370
    30
100
AcDbSpline
210
0.0
220
0.0
230
1.0
 70
    24
 71
     3
 72
     8
 73
     4
 74
     0
 42
0.0000000001
 43
0.0000000001
 40
0.0
 40
0.0
 40
0.0
 40
0.0
 40
1.0
 40
1.0
 40
1.0
 40
1.0
 10
-67.3503
 20
-0.6353
 30
0.0
 10
-67.3503
 20
-0.6353
 30
0.0
 10
-54.3903
 20
-0.6353
 30
0.0
 10
-54.3903
 20
-0.6353
 30
0.0
  0
SPLINE
  5
D5
330
1F
100
AcDbEntity
  8
Ilustrace
 62
   250
370
    30
100
AcDbSpline
210
0.0
220
0.0
230
1.0
 70
    24
 71
     3
 72
     8
 73
     4
 74
     0
 42
0.0000000001
 43
0.0000000001
 40
0.0
 40
0.0
 40
0.0
 40
0.0
 40
1.0
 40
1.0
 40
1.0
 40
1.0
 10
-54.3903
 20
-2.0754
 30
0.0
 10
-54.3903
 20
-2.0754
 30
0.0
 10
-54.3903
 20
-0.6353
 30
0.0
 10
-54.3903
 20
-0.6353
 30
0.0
  0
SPLINE
  5
D6
330
1F
100
AcDbEntity
  8
Ilustrace
 62
   250
370
    30
100
AcDbSpline
210
0.0
220
0.0
230
1.0
 70
    24
 71
     3
 72
     8
 73
     4
 74
     0
 42
0.0000000001
 43
0.0000000001
 40
0.0
 40
0.0
 40
0.0
 40
0.0
 40
1.0
 40
1.0
 40
1.0
 40
1.0
 10
-50.7903
 20
-0.6353
 30
0.0
 10
-50.7903
 20
-0.6353
 30
0.0
 10
-50.7903
 20
-2.0754
 30
0.0
 10
-50.7903
 20
-2.0754
 30
0.0
  0
SPLINE
  5
D7
330
1F
100
AcDbEntity
  8
Ilustrace
 62
   250
370
    30
100
AcDbSpline
210
0.0
220
0.0
230
1.0
 70
    24
 71
     3
 72
     8
 73
     4
 74
     0
 42
0.0000000001
 43
0.0000000001
 40
0.0
 40
0.0
 40
0.0
 40
0.0
 40
1.0
 40
1.0
 40
1.0
 40
1.0
 10
-37.8303
 20
-2.0754
 30
0.0
 10
-37.8303
 20
-2.0754
 30
0.0
 10
-50.7903
 20
-2.0754
 30
0.0
 10
-50.7903
 20
-2.0754
 30
0.0
  0
SPLINE
  5
D8
330
1F
100
AcDbEntity
  8
Ilustrace
 62
   250
370
    30
100
AcDbSpline
210
0.0
220
0.0
230
1.0
 70
    24
 71
     3
 72
     8
 73
     4
 74
     0
 42
0.0000000001
 43
0.0000000001
 40
0.0
 40
0.0
 40
0.0
 40
0.0
 40
1.0
 40
1.0
 40
1.0
 40
1.0
 10
-50.7903
 20
-0.6353
 30
0.0
 10
-50.7903
 20
-0.6353
 30
0.0
 10
-37.8303
 20
-0.6353
 30
0.0
 10
-37.8303
 20
-0.6353
 30
0.0
  0
SPLINE
  5
D9
330
1F
100
AcDbEntity
  8
Ilustrace
 62
   250
370
    30
100
AcDbSpline
210
0.0
220
0.0
230
1.0
 70
    24
 71
     3
 72
     8
 73
     4
 74
     0
 42
0.0000000001
 43
0.0000000001
 40
0.0
 40
0.0
 40
0.0
 40
0.0
 40
1.0
 40
1.0
 40
1.0
 40
1.0
 10
-37.8303
 20
-2.0754
 30
0.0
 10
-37.8303
 20
-2.0754
 30
0.0
 10
-37.8303
 20
-0.6353
 30
0.0
 10
-37.8303
 20
-0.6353
 30
0.0
  0
SPLINE
  5
DA
330
1F
100
AcDbEntity
  8
Ilustrace
 62
   250
370
    15
100
AcDbSpline
210
0.0
220
0.0
230
1.0
 70
     8
 71
     3
 72
    40
 73
    36
 74
     0
 42
0.0000000001
 43
0.0000000001
 40
0.0
 40
0.0
 40
0.0
 40
0.0
 40
0.1
 40
0.1
 40
0.1
 40
0.1
 40
0.2
 40
0.2
 40
0.2
 40
0.2
 40
0.3
 40
0.3
 40
0.3
 40
0.3
 40
0.4
 40
0.4
 40
0.4
 40
0.4
 40
0.5
 40
0.5
 40
0.5
 40
0.5
 40
0.6
 40
0.6
 40
0.6
 40
0.6
 40
0.7
 40
0.7
 40
0.7
 40
0.7
 40
0.8
 40
0.8
 40
0.8
 40
0.8
 40
1.0
 40
1.0
 40
1.0
 40
1.0
 10
-32.228
 20
3.3162
 30
0.0
 10
-32.228
 20
3.3162
 30
0.0
 10
-32.228
 20
3.1855
 30
0.0
 10
-32.228
 20
3.1855
 30
0.0
 10
-32.228
 20
3.1855
 30
0.0
 10
-32.228
 20
2.4193
 30
0.0
 10
-32.4639
 20
1.8987
 30
0.0
 10
-32.4639
 20
1.181
 30
0.0
 10
-32.4639
 20
1.181
 30
0.0
 10
-32.4639
 20
1.181
 30
0.0
 10
-32.4639
 20
0.7667
 30
0.0
 10
-32.4639
 20
0.7667
 30
0.0
 10
-32.4639
 20
0.7667
 30
0.0
 10
-32.464
 20
-1.038
 30
0.0
 10
-32.4869
 20
-3.6017
 30
0.0
 10
-32.6642
 20
-5.3264
 30
0.0
 10
-32.6642
 20
-5.3264
 30
0.0
 10
-32.6642
 20
-5.3264
 30
0.0
 10
-32.6823
 20
-5.5028
 30
0.0
 10
-32.6823
 20
-5.5028
 30
0.0
 10
-32.6823
 20
-5.5028
 30
0.0
 10
-32.8102
 20
-6.7462
 30
0.0
 10
-32.7624
 20
-7.4345
 30
0.0
 10
-32.8827
 20
-8.676
 30
0.0
 10
-32.8827
 20
-8.676
 30
0.0
 10
-32.9483
 20
-9.3535
 30
0.0
 10
-32.9607
 20
-10.0721
 30
0.0
 10
-33.114
 20
-10.7294
 30
0.0
 10
-33.114
 20
-10.7294
 30
0.0
 10
-33.2592
 20
-11.3522
 30
0.0
 10
-33.4631
 20
-13.2706
 30
0.0
 10
-33.6855
 20
-13.6562
 30
0.0
 10
-33.6855
 20
-13.6562
 30
0.0
 10
-33.7253
 20
-13.7252
 30
0.0
 10
-33.9214
 20
-14.5257
 30
0.0
 10
-33.9214
 20
-14.6848
 30
0.0
  0
SPLINE
  5
DB
330
1F
100
AcDbEntity
  8
Ilustrace
 62
   250
370
    30
100
AcDbSpline
210
0.0
220
0.0
230
1.0
 70
    24
 71
     3
 72
     8
 73
     4
 74
     0
 42
0.0000000001
 43
0.0000000001
 40
0.0
 40
0.0
 40
0.0
 40
0.0
 40
1.0
 40
1.0
 40
1.0
 40
1.0
 10
55.3486
 20
-14.3869
 30
0.0
 10
55.3486
 20
-14.3869
 30
0.0
 10
55.3486
 20
-14.6752
 30
0.0
 10
55.3486
 20
-14.6752
 30
0.0
  0
SPLINE
  5
DC
330
1F
100
AcDbEntity
  8
Ilustrace
 62
   250
370
    30
100
AcDbSpline
210
0.0
220
0.0
230
1.0
 70
    24
 71
     3
 72
     8
 73
     4
 74
     0
 42
0.0000000001
 43
0.0000000001
 40
0.0
 40
0.0
 40
0.0
 40
0.0
 40
1.0
 40
1.0
 40
1.0
 40
1.0
 10
-33.9035
 20
-14.6752
 30
0.0
 10
-33.9035
 20
-14.6752
 30
0.0
 10
55.3486
 20
-14.6752
 30
0.0
 10
55.3486
 20
-14.6752
 30
0.0
  0
SPLINE
  5
DD
330
1F
100
AcDbEntity
  8
Ilustrace
 62
   250
370
    30
100
AcDbSpline
210
0.0
220
0.0
230
1.0
 70
    24
 71
     3
 72
     8
 73
     4
 74
     0
 42
0.0000000001
 43
0.0000000001
 40
0.0
 40
0.0
 40
0.0
 40
0.0
 40
1.0
 40
1.0
 40
1.0
 40
1.0
 10
55.3486
 20
-14.407
 30
0.0
 10
55.3486
 20
-14.407
 30
0.0
 10
55.3486
 20
-13.6913
 30
0.0
 10
55.3486
 20
-13.6913
 30
0.0
  0
SPLINE
  5
DE
330
1F
100
AcDbEntity
  8
Ilustrace
 62
   250
370
    30
100
AcDbSpline
210
0.0
220
0.0
230
1.0
 70
    24
 71
     3
 72
     8
 73
     4
 74
     0
 42
0.0000000001
 43
0.0000000001
 40
0.0
 40
0.0
 40
0.0
 40
0.0
 40
1.0
 40
1.0
 40
1.0
 40
1.0
 10
55.3486
 20
-14.5705
 30
0.0
 10
55.3486
 20
-14.5705
 30
0.0
 10
55.3486
 20
-14.5434
 30
0.0
 10
55.3486
 20
-14.5434
 30
0.0
  0
SPLINE
  5
DF
330
1F
100
AcDbEntity
  8
Ilustrace
 62
   250
370
    30
100
AcDbSpline
210
0.0
220
0.0
230
1.0
 70
    24
 71
     3
 72
     8
 73
     4
 74
     0
 42
0.0000000001
 43
0.0000000001
 40
0.0
 40
0.0
 40
0.0
 40
0.0
 40
1.0
 40
1.0
 40
1.0
 40
1.0
 10
55.3486
 20
-14.5948
 30
0.0
 10
55.3486
 20
-14.5948
 30
0.0
 10
55.3486
 20
-14.5434
 30
0.0
 10
55.3486
 20
-14.5434
 30
0.0
  0
SPLINE
  5
E0
330
1F
100
AcDbEntity
  8
Ilustrace
 62
   250
370
    30
100
AcDbSpline
210
0.0
220
0.0
230
1.0
 70
    24
 71
     3
 72
     8
 73
     4
 74
     0
 42
0.0000000001
 43
0.0000000001
 40
0.0
 40
0.0
 40
0.0
 40
0.0
 40
1.0
 40
1.0
 40
1.0
 40
1.0
 10
55.3486
 20
-14.6487
 30
0.0
 10
55.3486
 20
-14.6487
 30
0.0
 10
55.3486
 20
-14.6417
 30
0.0
 10
55.3486
 20
-14.6417
 30
0.0
  0
SPLINE
  5
E1
330
1F
100
AcDbEntity
  8
Ilustrace
 62
   250
370
    30
100
AcDbSpline
210
0.0
220
0.0
230
1.0
 70
    24
 71
     3
 72
     8
 73
     4
 74
     0
 42
0.0000000001
 43
0.0000000001
 40
0.0
 40
0.0
 40
0.0
 40
0.0
 40
1.0
 40
1.0
 40
1.0
 40
1.0
 10
55.3486
 20
-14.6603
 30
0.0
 10
55.3486
 20
-14.6603
 30
0.0
 10
55.3486
 20
-14.6417
 30
0.0
 10
55.3486
 20
-14.6417
 30
0.0
  0
SPLINE
  5
E2
330
1F
100
AcDbEntity
  8
Ilustrace
 62
   250
370
    30
100
AcDbSpline
210
0.0
220
0.0
230
1.0
 70
    24
 71
     3
 72
     8
 73
     4
 74
     0
 42
0.0000000001
 43
0.0000000001
 40
0.0
 40
0.0
 40
0.0
 40
0.0
 40
1.0
 40
1.0
 40
1.0
 40
1.0
 10
55.3486
 20
-14.6686
 30
0.0
 10
55.3486
 20
-14.6686
 30
0.0
 10
55.3486
 20
3.3247
 30
0.0
 10
55.3486
 20
3.3247
 30
0.0
  0
SPLINE
  5
E3
330
1F
100
AcDbEntity
  8
Ilustrace
 62
   250
370
    30
100
AcDbSpline
210
0.0
220
0.0
230
1.0
 70
    24
 71
     3
 72
     8
 73
     4
 74
     0
 42
0.0000000001
 43
0.0000000001
 40
0.0
 40
0.0
 40
0.0
 40
0.0
 40
1.0
 40
1.0
 40
1.0
 40
1.0
 10
-32.206
 20
3.3247
 30
0.0
 10
-32.206
 20
3.3247
 30
0.0
 10
55.3486
 20
3.3247
 30
0.0
 10
55.3486
 20
3.3247
 30
0.0
  0
SPLINE
  5
E4
330
1F
100
AcDbEntity
  8
Ilustrace
 62
   250
370
    30
100
AcDbSpline
210
0.0
220
0.0
230
1.0
 70
    24
 71
     3
 72
     8
 73
     4
 74
     0
 42
0.0000000001
 43
0.0000000001
 40
0.0
 40
0.0
 40
0.0
 40
0.0
 40
1.0
 40
1.0
 40
1.0
 40
1.0
 10
55.3486
 20
3.2442
 30
0.0
 10
55.3486
 20
3.2442
 30
0.0
 10
55.3486
 20
3.1928
 30
0.0
 10
55.3486
 20
3.1928
 30
0.0
  0
SPLINE
  5
E5
330
1F
100
AcDbEntity
  8
Ilustrace
 62
   250
370
    30
100
AcDbSpline
210
0.0
220
0.0
230
1.0
 70
    24
 71
     3
 72
     8
 73
     4
 74
     0
 42
0.0000000001
 43
0.0000000001
 40
0.0
 40
0.0
 40
0.0
 40
0.0
 40
1.0
 40
1.0
 40
1.0
 40
1.0
 10
55.3486
 20
3.2201
 30
0.0
 10
55.3486
 20
3.2201
 30
0.0
 10
55.3486
 20
3.1928
 30
0.0
 10
55.3486
 20
3.1928
 30
0.0
  0
SPLINE
  5
E6
330
1F
100
AcDbEntity
  8
Ilustrace
 62
   250
370
    30
100
AcDbSpline
210
0.0
220
0.0
230
1.0
 70
    24
 71
     3
 72
     8
 73
     4
 74
     0
 42
0.0000000001
 43
0.0000000001
 40
0.0
 40
0.0
 40
0.0
 40
0.0
 40
1.0
 40
1.0
 40
1.0
 40
1.0
 10
55.3486
 20
3.2981
 30
0.0
 10
55.3486
 20
3.2981
 30
0.0
 10
55.3486
 20
3.2911
 30
0.0
 10
55.3486
 20
3.2911
 30
0.0
  0
SPLINE
  5
E7
330
1F
100
AcDbEntity
  8
Ilustrace
 62
   250
370
    30
100
AcDbSpline
210
0.0
220
0.0
230
1.0
 70
    24
 71
     3
 72
     8
 73
     4
 74
     0
 42
0.0000000001
 43
0.0000000001
 40
0.0
 40
0.0
 40
0.0
 40
0.0
 40
1.0
 40
1.0
 40
1.0
 40
1.0
 10
55.3486
 20
3.3097
 30
0.0
 10
55.3486
 20
3.3097
 30
0.0
 10
55.3486
 20
3.2911
 30
0.0
 10
55.3486
 20
3.2911
 30
0.0
  0
SPLINE
  5
E8
330
1F
100
AcDbEntity
  8
Ilustrace
 62
   250
370
    30
100
AcDbSpline
210
0.0
220
0.0
230
1.0
 70
    24
 71
     3
 72
     8
 73
     4
 74
     0
 42
0.0000000001
 43
0.0000000001
 40
0.0
 40
0.0
 40
0.0
 40
0.0
 40
1.0
 40
1.0
 40
1.0
 40
1.0
 10
55.3486
 20
3.3179
 30
0.0
 10
55.3486
 20
3.3179
 30
0.0
 10
55.3486
 20
3.2911
 30
0.0
 10
55.3486
 20
3.2911
 30
0.0
  0
SPLINE
  5
E9
330
1F
100
AcDbEntity
  8
Ilustrace
 62
   250
370
    30
100
AcDbSpline
210
0.0
220
0.0
230
1.0
 70
    24
 71
     3
 72
     8
 73
     4
 74
     0
 42
0.0000000001
 43
0.0000000001
 40
0.0
 40
0.0
 40
0.0
 40
0.0
 40
1.0
 40
1.0
 40
1.0
 40
1.0
 10
55.3486
 20
3.323
 30
0.0
 10
55.3486
 20
3.323
 30
0.0
 10
55.3486
 20
3.2911
 30
0.0
 10
55.3486
 20
3.2911
 30
0.0
  0
SPLINE
  5
EA
330
1F
100
AcDbEntity
  8
Ilustrace
 62
   250
370
    30
100
AcDbSpline
210
0.0
220
0.0
230
1.0
 70
    24
 71
     3
 72
     8
 73
     4
 74
     0
 42
0.0000000001
 43
0.0000000001
 40
0.0
 40
0.0
 40
0.0
 40
0.0
 40
1.0
 40
1.0
 40
1.0
 40
1.0
 10
55.3486
 20
-14.6417
 30
0.0
 10
55.3486
 20
-14.6417
 30
0.0
 10
55.3486
 20
-14.6736
 30
0.0
 10
55.3486
 20
-14.6736
 30
0.0
  0
SPLINE
  5
EB
330
1F
100
AcDbEntity
  8
Ilustrace
 62
   250
370
    15
100
AcDbSpline
210
0.0
220
0.0
230
1.0
 70
    24
 71
     3
 72
     8
 73
     4
 74
     0
 42
0.0000000001
 43
0.0000000001
 40
0.0
 40
0.0
 40
0.0
 40
0.0
 40
1.0
 40
1.0
 40
1.0
 40
1.0
 10
-33.7712
 20
-13.946
 30
0.0
 10
-33.7712
 20
-13.946
 30
0.0
 10
55.3486
 20
-13.946
 30
0.0
 10
55.3486
 20
-13.946
 30
0.0
  0
SPLINE
  5
EC
330
1F
100
AcDbEntity
  8
Ilustrace
 62
   250
370
    30
100
AcDbSpline
210
0.0
220
0.0
230
1.0
 70
    24
 71
     3
 72
     8
 73
     4
 74
     0
 42
0.0000000001
 43
0.0000000001
 40
0.0
 40
0.0
 40
0.0
 40
0.0
 40
1.0
 40
1.0
 40
1.0
 40
1.0
 10
20.0689
 20
-10.7153
 30
0.0
 10
20.0689
 20
-10.7153
 30
0.0
 10
33.0288
 20
-10.7153
 30
0.0
 10
33.0288
 20
-10.7153
 30
0.0
  0
SPLINE
  5
ED
330
1F
100
AcDbEntity
  8
Ilustrace
 62
   250
370
    30
100
AcDbSpline
210
0.0
220
0.0
230
1.0
 70
    24
 71
     3
 72
     8
 73
     4
 74
     0
 42
0.0000000001
 43
0.0000000001
 40
0.0
 40
0.0
 40
0.0
 40
0.0
 40
1.0
 40
1.0
 40
1.0
 40
1.0
 10
33.0288
 20
-9.2752
 30
0.0
 10
33.0288
 20
-9.2752
 30
0.0
 10
33.0288
 20
-10.7153
 30
0.0
 10
33.0288
 20
-10.7153
 30
0.0
  0
SPLINE
  5
EE
330
1F
100
AcDbEntity
  8
Ilustrace
 62
   250
370
    30
100
AcDbSpline
210
0.0
220
0.0
230
1.0
 70
    24
 71
     3
 72
     8
 73
     4
 74
     0
 42
0.0000000001
 43
0.0000000001
 40
0.0
 40
0.0
 40
0.0
 40
0.0
 40
1.0
 40
1.0
 40
1.0
 40
1.0
 10
33.0288
 20
-9.2752
 30
0.0
 10
33.0288
 20
-9.2752
 30
0.0
 10
20.0689
 20
-9.2752
 30
0.0
 10
20.0689
 20
-9.2752
 30
0.0
  0
SPLINE
  5
EF
330
1F
100
AcDbEntity
  8
Ilustrace
 62
   250
370
    30
100
AcDbSpline
210
0.0
220
0.0
230
1.0
 70
    24
 71
     3
 72
     8
 73
     4
 74
     0
 42
0.0000000001
 43
0.0000000001
 40
0.0
 40
0.0
 40
0.0
 40
0.0
 40
1.0
 40
1.0
 40
1.0
 40
1.0
 10
20.0689
 20
-10.7153
 30
0.0
 10
20.0689
 20
-10.7153
 30
0.0
 10
20.0689
 20
-9.2752
 30
0.0
 10
20.0689
 20
-9.2752
 30
0.0
  0
SPLINE
  5
F0
330
1F
100
AcDbEntity
  8
Ilustrace
 62
   250
370
    30
100
AcDbSpline
210
0.0
220
0.0
230
1.0
 70
    24
 71
     3
 72
     8
 73
     4
 74
     0
 42
0.0000000001
 43
0.0000000001
 40
0.0
 40
0.0
 40
0.0
 40
0.0
 40
1.0
 40
1.0
 40
1.0
 40
1.0
 10
36.6287
 20
-10.7153
 30
0.0
 10
36.6287
 20
-10.7153
 30
0.0
 10
49.5887
 20
-10.7153
 30
0.0
 10
49.5887
 20
-10.7153
 30
0.0
  0
SPLINE
  5
F1
330
1F
100
AcDbEntity
  8
Ilustrace
 62
   250
370
    30
100
AcDbSpline
210
0.0
220
0.0
230
1.0
 70
    24
 71
     3
 72
     8
 73
     4
 74
     0
 42
0.0000000001
 43
0.0000000001
 40
0.0
 40
0.0
 40
0.0
 40
0.0
 40
1.0
 40
1.0
 40
1.0
 40
1.0
 10
49.5887
 20
-9.2752
 30
0.0
 10
49.5887
 20
-9.2752
 30
0.0
 10
49.5887
 20
-10.7153
 30
0.0
 10
49.5887
 20
-10.7153
 30
0.0
  0
SPLINE
  5
F2
330
1F
100
AcDbEntity
  8
Ilustrace
 62
   250
370
    30
100
AcDbSpline
210
0.0
220
0.0
230
1.0
 70
    24
 71
     3
 72
     8
 73
     4
 74
     0
 42
0.0000000001
 43
0.0000000001
 40
0.0
 40
0.0
 40
0.0
 40
0.0
 40
1.0
 40
1.0
 40
1.0
 40
1.0
 10
49.5887
 20
-9.2752
 30
0.0
 10
49.5887
 20
-9.2752
 30
0.0
 10
36.6287
 20
-9.2752
 30
0.0
 10
36.6287
 20
-9.2752
 30
0.0
  0
SPLINE
  5
F3
330
1F
100
AcDbEntity
  8
Ilustrace
 62
   250
370
    30
100
AcDbSpline
210
0.0
220
0.0
230
1.0
 70
    24
 71
     3
 72
     8
 73
     4
 74
     0
 42
0.0000000001
 43
0.0000000001
 40
0.0
 40
0.0
 40
0.0
 40
0.0
 40
1.0
 40
1.0
 40
1.0
 40
1.0
 10
36.6287
 20
-10.7153
 30
0.0
 10
36.6287
 20
-10.7153
 30
0.0
 10
36.6287
 20
-9.2752
 30
0.0
 10
36.6287
 20
-9.2752
 30
0.0
  0
SPLINE
  5
F4
330
1F
100
AcDbEntity
  8
Ilustrace
 62
   250
370
    30
100
AcDbSpline
210
0.0
220
0.0
230
1.0
 70
    24
 71
     3
 72
     8
 73
     4
 74
     0
 42
0.0000000001
 43
0.0000000001
 40
0.0
 40
0.0
 40
0.0
 40
0.0
 40
1.0
 40
1.0
 40
1.0
 40
1.0
 10
-13.0511
 20
-10.7153
 30
0.0
 10
-13.0511
 20
-10.7153
 30
0.0
 10
-0.091
 20
-10.7153
 30
0.0
 10
-0.091
 20
-10.7153
 30
0.0
  0
SPLINE
  5
F5
330
1F
100
AcDbEntity
  8
Ilustrace
 62
   250
370
    30
100
AcDbSpline
210
0.0
220
0.0
230
1.0
 70
    24
 71
     3
 72
     8
 73
     4
 74
     0
 42
0.0000000001
 43
0.0000000001
 40
0.0
 40
0.0
 40
0.0
 40
0.0
 40
1.0
 40
1.0
 40
1.0
 40
1.0
 10
-0.091
 20
-9.2752
 30
0.0
 10
-0.091
 20
-9.2752
 30
0.0
 10
-0.091
 20
-10.7153
 30
0.0
 10
-0.091
 20
-10.7153
 30
0.0
  0
SPLINE
  5
F6
330
1F
100
AcDbEntity
  8
Ilustrace
 62
   250
370
    30
100
AcDbSpline
210
0.0
220
0.0
230
1.0
 70
    24
 71
     3
 72
     8
 73
     4
 74
     0
 42
0.0000000001
 43
0.0000000001
 40
0.0
 40
0.0
 40
0.0
 40
0.0
 40
1.0
 40
1.0
 40
1.0
 40
1.0
 10
-0.091
 20
-9.2752
 30
0.0
 10
-0.091
 20
-9.2752
 30
0.0
 10
-13.0511
 20
-9.2752
 30
0.0
 10
-13.0511
 20
-9.2752
 30
0.0
  0
SPLINE
  5
F7
330
1F
100
AcDbEntity
  8
Ilustrace
 62
   250
370
    30
100
AcDbSpline
210
0.0
220
0.0
230
1.0
 70
    24
 71
     3
 72
     8
 73
     4
 74
     0
 42
0.0000000001
 43
0.0000000001
 40
0.0
 40
0.0
 40
0.0
 40
0.0
 40
1.0
 40
1.0
 40
1.0
 40
1.0
 10
-13.0511
 20
-10.7153
 30
0.0
 10
-13.0511
 20
-10.7153
 30
0.0
 10
-13.0511
 20
-9.2752
 30
0.0
 10
-13.0511
 20
-9.2752
 30
0.0
  0
SPLINE
  5
F8
330
1F
100
AcDbEntity
  8
Ilustrace
 62
   250
370
    30
100
AcDbSpline
210
0.0
220
0.0
230
1.0
 70
    24
 71
     3
 72
     8
 73
     4
 74
     0
 42
0.0000000001
 43
0.0000000001
 40
0.0
 40
0.0
 40
0.0
 40
0.0
 40
1.0
 40
1.0
 40
1.0
 40
1.0
 10
-29.611
 20
-9.2752
 30
0.0
 10
-29.611
 20
-9.2752
 30
0.0
 10
-29.611
 20
-10.7153
 30
0.0
 10
-29.611
 20
-10.7153
 30
0.0
  0
SPLINE
  5
F9
330
1F
100
AcDbEntity
  8
Ilustrace
 62
   250
370
    30
100
AcDbSpline
210
0.0
220
0.0
230
1.0
 70
    24
 71
     3
 72
     8
 73
     4
 74
     0
 42
0.0000000001
 43
0.0000000001
 40
0.0
 40
0.0
 40
0.0
 40
0.0
 40
1.0
 40
1.0
 40
1.0
 40
1.0
 10
-16.651
 20
-10.7153
 30
0.0
 10
-16.651
 20
-10.7153
 30
0.0
 10
-29.611
 20
-10.7153
 30
0.0
 10
-29.611
 20
-10.7153
 30
0.0
  0
SPLINE
  5
FA
330
1F
100
AcDbEntity
  8
Ilustrace
 62
   250
370
    30
100
AcDbSpline
210
0.0
220
0.0
230
1.0
 70
    24
 71
     3
 72
     8
 73
     4
 74
     0
 42
0.0000000001
 43
0.0000000001
 40
0.0
 40
0.0
 40
0.0
 40
0.0
 40
1.0
 40
1.0
 40
1.0
 40
1.0
 10
-29.611
 20
-9.2752
 30
0.0
 10
-29.611
 20
-9.2752
 30
0.0
 10
-16.651
 20
-9.2752
 30
0.0
 10
-16.651
 20
-9.2752
 30
0.0
  0
SPLINE
  5
FB
330
1F
100
AcDbEntity
  8
Ilustrace
 62
   250
370
    30
100
AcDbSpline
210
0.0
220
0.0
230
1.0
 70
    24
 71
     3
 72
     8
 73
     4
 74
     0
 42
0.0000000001
 43
0.0000000001
 40
0.0
 40
0.0
 40
0.0
 40
0.0
 40
1.0
 40
1.0
 40
1.0
 40
1.0
 10
-16.651
 20
-10.7153
 30
0.0
 10
-16.651
 20
-10.7153
 30
0.0
 10
-16.651
 20
-9.2752
 30
0.0
 10
-16.651
 20
-9.2752
 30
0.0
  0
SPLINE
  5
FC
330
1F
100
AcDbEntity
  8
Ilustrace
 62
   250
370
    30
100
AcDbSpline
210
0.0
220
0.0
230
1.0
 70
    24
 71
     3
 72
     8
 73
     4
 74
     0
 42
0.0000000001
 43
0.0000000001
 40
0.0
 40
0.0
 40
0.0
 40
0.0
 40
1.0
 40
1.0
 40
1.0
 40
1.0
 10
3.5089
 20
-10.7153
 30
0.0
 10
3.5089
 20
-10.7153
 30
0.0
 10
16.4688
 20
-10.7153
 30
0.0
 10
16.4688
 20
-10.7153
 30
0.0
  0
SPLINE
  5
FD
330
1F
100
AcDbEntity
  8
Ilustrace
 62
   250
370
    30
100
AcDbSpline
210
0.0
220
0.0
230
1.0
 70
    24
 71
     3
 72
     8
 73
     4
 74
     0
 42
0.0000000001
 43
0.0000000001
 40
0.0
 40
0.0
 40
0.0
 40
0.0
 40
1.0
 40
1.0
 40
1.0
 40
1.0
 10
16.4688
 20
-9.2752
 30
0.0
 10
16.4688
 20
-9.2752
 30
0.0
 10
16.4688
 20
-10.7153
 30
0.0
 10
16.4688
 20
-10.7153
 30
0.0
  0
SPLINE
  5
FE
330
1F
100
AcDbEntity
  8
Ilustrace
 62
   250
370
    30
100
AcDbSpline
210
0.0
220
0.0
230
1.0
 70
    24
 71
     3
 72
     8
 73
     4
 74
     0
 42
0.0000000001
 43
0.0000000001
 40
0.0
 40
0.0
 40
0.0
 40
0.0
 40
1.0
 40
1.0
 40
1.0
 40
1.0
 10
16.4688
 20
-9.2752
 30
0.0
 10
16.4688
 20
-9.2752
 30
0.0
 10
3.5089
 20
-9.2752
 30
0.0
 10
3.5089
 20
-9.2752
 30
0.0
  0
SPLINE
  5
FF
330
1F
100
AcDbEntity
  8
Ilustrace
 62
   250
370
    30
100
AcDbSpline
210
0.0
220
0.0
230
1.0
 70
    24
 71
     3
 72
     8
 73
     4
 74
     0
 42
0.0000000001
 43
0.0000000001
 40
0.0
 40
0.0
 40
0.0
 40
0.0
 40
1.0
 40
1.0
 40
1.0
 40
1.0
 10
3.5089
 20
-10.7153
 30
0.0
 10
3.5089
 20
-10.7153
 30
0.0
 10
3.5089
 20
-9.2752
 30
0.0
 10
3.5089
 20
-9.2752
 30
0.0
  0
SPLINE
  5
100
330
1F
100
AcDbEntity
  8
Ilustrace
 62
   250
370
    30
100
AcDbSpline
210
0.0
220
0.0
230
1.0
 70
    24
 71
     3
 72
     8
 73
     4
 74
     0
 42
0.0000000001
 43
0.0000000001
 40
0.0
 40
0.0
 40
0.0
 40
0.0
 40
1.0
 40
1.0
 40
1.0
 40
1.0
 10
20.0689
 20
-6.3952
 30
0.0
 10
20.0689
 20
-6.3952
 30
0.0
 10
33.0288
 20
-6.3952
 30
0.0
 10
33.0288
 20
-6.3952
 30
0.0
  0
SPLINE
  5
101
330
1F
100
AcDbEntity
  8
Ilustrace
 62
   250
370
    30
100
AcDbSpline
210
0.0
220
0.0
230
1.0
 70
    24
 71
     3
 72
     8
 73
     4
 74
     0
 42
0.0000000001
 43
0.0000000001
 40
0.0
 40
0.0
 40
0.0
 40
0.0
 40
1.0
 40
1.0
 40
1.0
 40
1.0
 10
33.0288
 20
-4.9554
 30
0.0
 10
33.0288
 20
-4.9554
 30
0.0
 10
33.0288
 20
-6.3952
 30
0.0
 10
33.0288
 20
-6.3952
 30
0.0
  0
SPLINE
  5
102
330
1F
100
AcDbEntity
  8
Ilustrace
 62
   250
370
    30
100
AcDbSpline
210
0.0
220
0.0
230
1.0
 70
    24
 71
     3
 72
     8
 73
     4
 74
     0
 42
0.0000000001
 43
0.0000000001
 40
0.0
 40
0.0
 40
0.0
 40
0.0
 40
1.0
 40
1.0
 40
1.0
 40
1.0
 10
33.0288
 20
-4.9554
 30
0.0
 10
33.0288
 20
-4.9554
 30
0.0
 10
20.0689
 20
-4.9554
 30
0.0
 10
20.0689
 20
-4.9554
 30
0.0
  0
SPLINE
  5
103
330
1F
100
AcDbEntity
  8
Ilustrace
 62
   250
370
    30
100
AcDbSpline
210
0.0
220
0.0
230
1.0
 70
    24
 71
     3
 72
     8
 73
     4
 74
     0
 42
0.0000000001
 43
0.0000000001
 40
0.0
 40
0.0
 40
0.0
 40
0.0
 40
1.0
 40
1.0
 40
1.0
 40
1.0
 10
20.0689
 20
-6.3952
 30
0.0
 10
20.0689
 20
-6.3952
 30
0.0
 10
20.0689
 20
-4.9554
 30
0.0
 10
20.0689
 20
-4.9554
 30
0.0
  0
SPLINE
  5
104
330
1F
100
AcDbEntity
  8
Ilustrace
 62
   250
370
    30
100
AcDbSpline
210
0.0
220
0.0
230
1.0
 70
    24
 71
     3
 72
     8
 73
     4
 74
     0
 42
0.0000000001
 43
0.0000000001
 40
0.0
 40
0.0
 40
0.0
 40
0.0
 40
1.0
 40
1.0
 40
1.0
 40
1.0
 10
36.6287
 20
-6.3952
 30
0.0
 10
36.6287
 20
-6.3952
 30
0.0
 10
49.5887
 20
-6.3952
 30
0.0
 10
49.5887
 20
-6.3952
 30
0.0
  0
SPLINE
  5
105
330
1F
100
AcDbEntity
  8
Ilustrace
 62
   250
370
    30
100
AcDbSpline
210
0.0
220
0.0
230
1.0
 70
    24
 71
     3
 72
     8
 73
     4
 74
     0
 42
0.0000000001
 43
0.0000000001
 40
0.0
 40
0.0
 40
0.0
 40
0.0
 40
1.0
 40
1.0
 40
1.0
 40
1.0
 10
49.5887
 20
-4.9554
 30
0.0
 10
49.5887
 20
-4.9554
 30
0.0
 10
49.5887
 20
-6.3952
 30
0.0
 10
49.5887
 20
-6.3952
 30
0.0
  0
SPLINE
  5
106
330
1F
100
AcDbEntity
  8
Ilustrace
 62
   250
370
    30
100
AcDbSpline
210
0.0
220
0.0
230
1.0
 70
    24
 71
     3
 72
     8
 73
     4
 74
     0
 42
0.0000000001
 43
0.0000000001
 40
0.0
 40
0.0
 40
0.0
 40
0.0
 40
1.0
 40
1.0
 40
1.0
 40
1.0
 10
49.5887
 20
-4.9554
 30
0.0
 10
49.5887
 20
-4.9554
 30
0.0
 10
36.6287
 20
-4.9554
 30
0.0
 10
36.6287
 20
-4.9554
 30
0.0
  0
SPLINE
  5
107
330
1F
100
AcDbEntity
  8
Ilustrace
 62
   250
370
    30
100
AcDbSpline
210
0.0
220
0.0
230
1.0
 70
    24
 71
     3
 72
     8
 73
     4
 74
     0
 42
0.0000000001
 43
0.0000000001
 40
0.0
 40
0.0
 40
0.0
 40
0.0
 40
1.0
 40
1.0
 40
1.0
 40
1.0
 10
36.6287
 20
-6.3952
 30
0.0
 10
36.6287
 20
-6.3952
 30
0.0
 10
36.6287
 20
-4.9554
 30
0.0
 10
36.6287
 20
-4.9554
 30
0.0
  0
SPLINE
  5
108
330
1F
100
AcDbEntity
  8
Ilustrace
 62
   250
370
    30
100
AcDbSpline
210
0.0
220
0.0
230
1.0
 70
    24
 71
     3
 72
     8
 73
     4
 74
     0
 42
0.0000000001
 43
0.0000000001
 40
0.0
 40
0.0
 40
0.0
 40
0.0
 40
1.0
 40
1.0
 40
1.0
 40
1.0
 10
3.5089
 20
-6.3952
 30
0.0
 10
3.5089
 20
-6.3952
 30
0.0
 10
16.4688
 20
-6.3952
 30
0.0
 10
16.4688
 20
-6.3952
 30
0.0
  0
SPLINE
  5
109
330
1F
100
AcDbEntity
  8
Ilustrace
 62
   250
370
    30
100
AcDbSpline
210
0.0
220
0.0
230
1.0
 70
    24
 71
     3
 72
     8
 73
     4
 74
     0
 42
0.0000000001
 43
0.0000000001
 40
0.0
 40
0.0
 40
0.0
 40
0.0
 40
1.0
 40
1.0
 40
1.0
 40
1.0
 10
16.4688
 20
-4.9554
 30
0.0
 10
16.4688
 20
-4.9554
 30
0.0
 10
16.4688
 20
-6.3952
 30
0.0
 10
16.4688
 20
-6.3952
 30
0.0
  0
SPLINE
  5
10A
330
1F
100
AcDbEntity
  8
Ilustrace
 62
   250
370
    30
100
AcDbSpline
210
0.0
220
0.0
230
1.0
 70
    24
 71
     3
 72
     8
 73
     4
 74
     0
 42
0.0000000001
 43
0.0000000001
 40
0.0
 40
0.0
 40
0.0
 40
0.0
 40
1.0
 40
1.0
 40
1.0
 40
1.0
 10
16.4688
 20
-4.9554
 30
0.0
 10
16.4688
 20
-4.9554
 30
0.0
 10
3.5089
 20
-4.9554
 30
0.0
 10
3.5089
 20
-4.9554
 30
0.0
  0
SPLINE
  5
10B
330
1F
100
AcDbEntity
  8
Ilustrace
 62
   250
370
    30
100
AcDbSpline
210
0.0
220
0.0
230
1.0
 70
    24
 71
     3
 72
     8
 73
     4
 74
     0
 42
0.0000000001
 43
0.0000000001
 40
0.0
 40
0.0
 40
0.0
 40
0.0
 40
1.0
 40
1.0
 40
1.0
 40
1.0
 10
3.5089
 20
-6.3952
 30
0.0
 10
3.5089
 20
-6.3952
 30
0.0
 10
3.5089
 20
-4.9554
 30
0.0
 10
3.5089
 20
-4.9554
 30
0.0
  0
SPLINE
  5
10C
330
1F
100
AcDbEntity
  8
Ilustrace
 62
   250
370
    30
100
AcDbSpline
210
0.0
220
0.0
230
1.0
 70
    24
 71
     3
 72
     8
 73
     4
 74
     0
 42
0.0000000001
 43
0.0000000001
 40
0.0
 40
0.0
 40
0.0
 40
0.0
 40
1.0
 40
1.0
 40
1.0
 40
1.0
 10
-29.611
 20
-6.3952
 30
0.0
 10
-29.611
 20
-6.3952
 30
0.0
 10
-16.651
 20
-6.3952
 30
0.0
 10
-16.651
 20
-6.3952
 30
0.0
  0
SPLINE
  5
10D
330
1F
100
AcDbEntity
  8
Ilustrace
 62
   250
370
    30
100
AcDbSpline
210
0.0
220
0.0
230
1.0
 70
    24
 71
     3
 72
     8
 73
     4
 74
     0
 42
0.0000000001
 43
0.0000000001
 40
0.0
 40
0.0
 40
0.0
 40
0.0
 40
1.0
 40
1.0
 40
1.0
 40
1.0
 10
-16.651
 20
-4.9554
 30
0.0
 10
-16.651
 20
-4.9554
 30
0.0
 10
-16.651
 20
-6.3952
 30
0.0
 10
-16.651
 20
-6.3952
 30
0.0
  0
SPLINE
  5
10E
330
1F
100
AcDbEntity
  8
Ilustrace
 62
   250
370
    30
100
AcDbSpline
210
0.0
220
0.0
230
1.0
 70
    24
 71
     3
 72
     8
 73
     4
 74
     0
 42
0.0000000001
 43
0.0000000001
 40
0.0
 40
0.0
 40
0.0
 40
0.0
 40
1.0
 40
1.0
 40
1.0
 40
1.0
 10
-16.651
 20
-4.9554
 30
0.0
 10
-16.651
 20
-4.9554
 30
0.0
 10
-29.611
 20
-4.9554
 30
0.0
 10
-29.611
 20
-4.9554
 30
0.0
  0
SPLINE
  5
10F
330
1F
100
AcDbEntity
  8
Ilustrace
 62
   250
370
    30
100
AcDbSpline
210
0.0
220
0.0
230
1.0
 70
    24
 71
     3
 72
     8
 73
     4
 74
     0
 42
0.0000000001
 43
0.0000000001
 40
0.0
 40
0.0
 40
0.0
 40
0.0
 40
1.0
 40
1.0
 40
1.0
 40
1.0
 10
-29.611
 20
-6.3952
 30
0.0
 10
-29.611
 20
-6.3952
 30
0.0
 10
-29.611
 20
-4.9554
 30
0.0
 10
-29.611
 20
-4.9554
 30
0.0
  0
SPLINE
  5
110
330
1F
100
AcDbEntity
  8
Ilustrace
 62
   250
370
    30
100
AcDbSpline
210
0.0
220
0.0
230
1.0
 70
    24
 71
     3
 72
     8
 73
     4
 74
     0
 42
0.0000000001
 43
0.0000000001
 40
0.0
 40
0.0
 40
0.0
 40
0.0
 40
1.0
 40
1.0
 40
1.0
 40
1.0
 10
-13.0511
 20
-6.3952
 30
0.0
 10
-13.0511
 20
-6.3952
 30
0.0
 10
-0.091
 20
-6.3952
 30
0.0
 10
-0.091
 20
-6.3952
 30
0.0
  0
SPLINE
  5
111
330
1F
100
AcDbEntity
  8
Ilustrace
 62
   250
370
    30
100
AcDbSpline
210
0.0
220
0.0
230
1.0
 70
    24
 71
     3
 72
     8
 73
     4
 74
     0
 42
0.0000000001
 43
0.0000000001
 40
0.0
 40
0.0
 40
0.0
 40
0.0
 40
1.0
 40
1.0
 40
1.0
 40
1.0
 10
-0.091
 20
-4.9554
 30
0.0
 10
-0.091
 20
-4.9554
 30
0.0
 10
-0.091
 20
-6.3952
 30
0.0
 10
-0.091
 20
-6.3952
 30
0.0
  0
SPLINE
  5
112
330
1F
100
AcDbEntity
  8
Ilustrace
 62
   250
370
    30
100
AcDbSpline
210
0.0
220
0.0
230
1.0
 70
    24
 71
     3
 72
     8
 73
     4
 74
     0
 42
0.0000000001
 43
0.0000000001
 40
0.0
 40
0.0
 40
0.0
 40
0.0
 40
1.0
 40
1.0
 40
1.0
 40
1.0
 10
-0.091
 20
-4.9554
 30
0.0
 10
-0.091
 20
-4.9554
 30
0.0
 10
-13.0511
 20
-4.9554
 30
0.0
 10
-13.0511
 20
-4.9554
 30
0.0
  0
SPLINE
  5
113
330
1F
100
AcDbEntity
  8
Ilustrace
 62
   250
370
    30
100
AcDbSpline
210
0.0
220
0.0
230
1.0
 70
    24
 71
     3
 72
     8
 73
     4
 74
     0
 42
0.0000000001
 43
0.0000000001
 40
0.0
 40
0.0
 40
0.0
 40
0.0
 40
1.0
 40
1.0
 40
1.0
 40
1.0
 10
-13.0511
 20
-6.3952
 30
0.0
 10
-13.0511
 20
-6.3952
 30
0.0
 10
-13.0511
 20
-4.9554
 30
0.0
 10
-13.0511
 20
-4.9554
 30
0.0
  0
SPLINE
  5
114
330
1F
100
AcDbEntity
  8
Ilustrace
 62
   250
370
    30
100
AcDbSpline
210
0.0
220
0.0
230
1.0
 70
    24
 71
     3
 72
     8
 73
     4
 74
     0
 42
0.0000000001
 43
0.0000000001
 40
0.0
 40
0.0
 40
0.0
 40
0.0
 40
1.0
 40
1.0
 40
1.0
 40
1.0
 10
-29.611
 20
-0.6353
 30
0.0
 10
-29.611
 20
-0.6353
 30
0.0
 10
-29.611
 20
-2.0754
 30
0.0
 10
-29.611
 20
-2.0754
 30
0.0
  0
SPLINE
  5
115
330
1F
100
AcDbEntity
  8
Ilustrace
 62
   250
370
    30
100
AcDbSpline
210
0.0
220
0.0
230
1.0
 70
    24
 71
     3
 72
     8
 73
     4
 74
     0
 42
0.0000000001
 43
0.0000000001
 40
0.0
 40
0.0
 40
0.0
 40
0.0
 40
1.0
 40
1.0
 40
1.0
 40
1.0
 10
-16.651
 20
-2.0754
 30
0.0
 10
-16.651
 20
-2.0754
 30
0.0
 10
-29.611
 20
-2.0754
 30
0.0
 10
-29.611
 20
-2.0754
 30
0.0
  0
SPLINE
  5
116
330
1F
100
AcDbEntity
  8
Ilustrace
 62
   250
370
    30
100
AcDbSpline
210
0.0
220
0.0
230
1.0
 70
    24
 71
     3
 72
     8
 73
     4
 74
     0
 42
0.0000000001
 43
0.0000000001
 40
0.0
 40
0.0
 40
0.0
 40
0.0
 40
1.0
 40
1.0
 40
1.0
 40
1.0
 10
-29.611
 20
-0.6353
 30
0.0
 10
-29.611
 20
-0.6353
 30
0.0
 10
-16.651
 20
-0.6353
 30
0.0
 10
-16.651
 20
-0.6353
 30
0.0
  0
SPLINE
  5
117
330
1F
100
AcDbEntity
  8
Ilustrace
 62
   250
370
    30
100
AcDbSpline
210
0.0
220
0.0
230
1.0
 70
    24
 71
     3
 72
     8
 73
     4
 74
     0
 42
0.0000000001
 43
0.0000000001
 40
0.0
 40
0.0
 40
0.0
 40
0.0
 40
1.0
 40
1.0
 40
1.0
 40
1.0
 10
-16.651
 20
-2.0754
 30
0.0
 10
-16.651
 20
-2.0754
 30
0.0
 10
-16.651
 20
-0.6353
 30
0.0
 10
-16.651
 20
-0.6353
 30
0.0
  0
SPLINE
  5
118
330
1F
100
AcDbEntity
  8
Ilustrace
 62
   250
370
    30
100
AcDbSpline
210
0.0
220
0.0
230
1.0
 70
    24
 71
     3
 72
     8
 73
     4
 74
     0
 42
0.0000000001
 43
0.0000000001
 40
0.0
 40
0.0
 40
0.0
 40
0.0
 40
1.0
 40
1.0
 40
1.0
 40
1.0
 10
-13.0511
 20
-2.0754
 30
0.0
 10
-13.0511
 20
-2.0754
 30
0.0
 10
-0.091
 20
-2.0754
 30
0.0
 10
-0.091
 20
-2.0754
 30
0.0
  0
SPLINE
  5
119
330
1F
100
AcDbEntity
  8
Ilustrace
 62
   250
370
    30
100
AcDbSpline
210
0.0
220
0.0
230
1.0
 70
    24
 71
     3
 72
     8
 73
     4
 74
     0
 42
0.0000000001
 43
0.0000000001
 40
0.0
 40
0.0
 40
0.0
 40
0.0
 40
1.0
 40
1.0
 40
1.0
 40
1.0
 10
-0.091
 20
-0.6353
 30
0.0
 10
-0.091
 20
-0.6353
 30
0.0
 10
-0.091
 20
-2.0754
 30
0.0
 10
-0.091
 20
-2.0754
 30
0.0
  0
SPLINE
  5
11A
330
1F
100
AcDbEntity
  8
Ilustrace
 62
   250
370
    30
100
AcDbSpline
210
0.0
220
0.0
230
1.0
 70
    24
 71
     3
 72
     8
 73
     4
 74
     0
 42
0.0000000001
 43
0.0000000001
 40
0.0
 40
0.0
 40
0.0
 40
0.0
 40
1.0
 40
1.0
 40
1.0
 40
1.0
 10
-0.091
 20
-0.6353
 30
0.0
 10
-0.091
 20
-0.6353
 30
0.0
 10
-13.0511
 20
-0.6353
 30
0.0
 10
-13.0511
 20
-0.6353
 30
0.0
  0
SPLINE
  5
11B
330
1F
100
AcDbEntity
  8
Ilustrace
 62
   250
370
    30
100
AcDbSpline
210
0.0
220
0.0
230
1.0
 70
    24
 71
     3
 72
     8
 73
     4
 74
     0
 42
0.0000000001
 43
0.0000000001
 40
0.0
 40
0.0
 40
0.0
 40
0.0
 40
1.0
 40
1.0
 40
1.0
 40
1.0
 10
-13.0511
 20
-2.0754
 30
0.0
 10
-13.0511
 20
-2.0754
 30
0.0
 10
-13.0511
 20
-0.6353
 30
0.0
 10
-13.0511
 20
-0.6353
 30
0.0
  0
SPLINE
  5
11C
330
1F
100
AcDbEntity
  8
Ilustrace
 62
   250
370
    30
100
AcDbSpline
210
0.0
220
0.0
230
1.0
 70
    24
 71
     3
 72
     8
 73
     4
 74
     0
 42
0.0000000001
 43
0.0000000001
 40
0.0
 40
0.0
 40
0.0
 40
0.0
 40
1.0
 40
1.0
 40
1.0
 40
1.0
 10
16.4688
 20
-0.6353
 30
0.0
 10
16.4688
 20
-0.6353
 30
0.0
 10
16.4688
 20
-2.0754
 30
0.0
 10
16.4688
 20
-2.0754
 30
0.0
  0
SPLINE
  5
11D
330
1F
100
AcDbEntity
  8
Ilustrace
 62
   250
370
    30
100
AcDbSpline
210
0.0
220
0.0
230
1.0
 70
    24
 71
     3
 72
     8
 73
     4
 74
     0
 42
0.0000000001
 43
0.0000000001
 40
0.0
 40
0.0
 40
0.0
 40
0.0
 40
1.0
 40
1.0
 40
1.0
 40
1.0
 10
3.5089
 20
-2.0754
 30
0.0
 10
3.5089
 20
-2.0754
 30
0.0
 10
16.4688
 20
-2.0754
 30
0.0
 10
16.4688
 20
-2.0754
 30
0.0
  0
SPLINE
  5
11E
330
1F
100
AcDbEntity
  8
Ilustrace
 62
   250
370
    30
100
AcDbSpline
210
0.0
220
0.0
230
1.0
 70
    24
 71
     3
 72
     8
 73
     4
 74
     0
 42
0.0000000001
 43
0.0000000001
 40
0.0
 40
0.0
 40
0.0
 40
0.0
 40
1.0
 40
1.0
 40
1.0
 40
1.0
 10
16.4688
 20
-0.6353
 30
0.0
 10
16.4688
 20
-0.6353
 30
0.0
 10
3.5089
 20
-0.6353
 30
0.0
 10
3.5089
 20
-0.6353
 30
0.0
  0
SPLINE
  5
11F
330
1F
100
AcDbEntity
  8
Ilustrace
 62
   250
370
    30
100
AcDbSpline
210
0.0
220
0.0
230
1.0
 70
    24
 71
     3
 72
     8
 73
     4
 74
     0
 42
0.0000000001
 43
0.0000000001
 40
0.0
 40
0.0
 40
0.0
 40
0.0
 40
1.0
 40
1.0
 40
1.0
 40
1.0
 10
3.5089
 20
-2.0754
 30
0.0
 10
3.5089
 20
-2.0754
 30
0.0
 10
3.5089
 20
-0.6353
 30
0.0
 10
3.5089
 20
-0.6353
 30
0.0
  0
SPLINE
  5
120
330
1F
100
AcDbEntity
  8
Ilustrace
 62
   250
370
    30
100
AcDbSpline
210
0.0
220
0.0
230
1.0
 70
    24
 71
     3
 72
     8
 73
     4
 74
     0
 42
0.0000000001
 43
0.0000000001
 40
0.0
 40
0.0
 40
0.0
 40
0.0
 40
1.0
 40
1.0
 40
1.0
 40
1.0
 10
20.0689
 20
-0.6353
 30
0.0
 10
20.0689
 20
-0.6353
 30
0.0
 10
20.0689
 20
-2.0754
 30
0.0
 10
20.0689
 20
-2.0754
 30
0.0
  0
SPLINE
  5
121
330
1F
100
AcDbEntity
  8
Ilustrace
 62
   250
370
    30
100
AcDbSpline
210
0.0
220
0.0
230
1.0
 70
    24
 71
     3
 72
     8
 73
     4
 74
     0
 42
0.0000000001
 43
0.0000000001
 40
0.0
 40
0.0
 40
0.0
 40
0.0
 40
1.0
 40
1.0
 40
1.0
 40
1.0
 10
33.0288
 20
-2.0754
 30
0.0
 10
33.0288
 20
-2.0754
 30
0.0
 10
20.0689
 20
-2.0754
 30
0.0
 10
20.0689
 20
-2.0754
 30
0.0
  0
SPLINE
  5
122
330
1F
100
AcDbEntity
  8
Ilustrace
 62
   250
370
    30
100
AcDbSpline
210
0.0
220
0.0
230
1.0
 70
    24
 71
     3
 72
     8
 73
     4
 74
     0
 42
0.0000000001
 43
0.0000000001
 40
0.0
 40
0.0
 40
0.0
 40
0.0
 40
1.0
 40
1.0
 40
1.0
 40
1.0
 10
20.0689
 20
-0.6353
 30
0.0
 10
20.0689
 20
-0.6353
 30
0.0
 10
33.0288
 20
-0.6353
 30
0.0
 10
33.0288
 20
-0.6353
 30
0.0
  0
SPLINE
  5
123
330
1F
100
AcDbEntity
  8
Ilustrace
 62
   250
370
    30
100
AcDbSpline
210
0.0
220
0.0
230
1.0
 70
    24
 71
     3
 72
     8
 73
     4
 74
     0
 42
0.0000000001
 43
0.0000000001
 40
0.0
 40
0.0
 40
0.0
 40
0.0
 40
1.0
 40
1.0
 40
1.0
 40
1.0
 10
33.0288
 20
-2.0754
 30
0.0
 10
33.0288
 20
-2.0754
 30
0.0
 10
33.0288
 20
-0.6353
 30
0.0
 10
33.0288
 20
-0.6353
 30
0.0
  0
SPLINE
  5
124
330
1F
100
AcDbEntity
  8
Ilustrace
 62
   250
370
    30
100
AcDbSpline
210
0.0
220
0.0
230
1.0
 70
    24
 71
     3
 72
     8
 73
     4
 74
     0
 42
0.0000000001
 43
0.0000000001
 40
0.0
 40
0.0
 40
0.0
 40
0.0
 40
1.0
 40
1.0
 40
1.0
 40
1.0
 10
36.6287
 20
-0.6353
 30
0.0
 10
36.6287
 20
-0.6353
 30
0.0
 10
36.6287
 20
-2.0754
 30
0.0
 10
36.6287
 20
-2.0754
 30
0.0
  0
SPLINE
  5
125
330
1F
100
AcDbEntity
  8
Ilustrace
 62
   250
370
    30
100
AcDbSpline
210
0.0
220
0.0
230
1.0
 70
    24
 71
     3
 72
     8
 73
     4
 74
     0
 42
0.0000000001
 43
0.0000000001
 40
0.0
 40
0.0
 40
0.0
 40
0.0
 40
1.0
 40
1.0
 40
1.0
 40
1.0
 10
49.5887
 20
-2.0754
 30
0.0
 10
49.5887
 20
-2.0754
 30
0.0
 10
36.6287
 20
-2.0754
 30
0.0
 10
36.6287
 20
-2.0754
 30
0.0
  0
SPLINE
  5
126
330
1F
100
AcDbEntity
  8
Ilustrace
 62
   250
370
    30
100
AcDbSpline
210
0.0
220
0.0
230
1.0
 70
    24
 71
     3
 72
     8
 73
     4
 74
     0
 42
0.0000000001
 43
0.0000000001
 40
0.0
 40
0.0
 40
0.0
 40
0.0
 40
1.0
 40
1.0
 40
1.0
 40
1.0
 10
36.6287
 20
-0.6353
 30
0.0
 10
36.6287
 20
-0.6353
 30
0.0
 10
49.5887
 20
-0.6353
 30
0.0
 10
49.5887
 20
-0.6353
 30
0.0
  0
SPLINE
  5
127
330
1F
100
AcDbEntity
  8
Ilustrace
 62
   250
370
    30
100
AcDbSpline
210
0.0
220
0.0
230
1.0
 70
    24
 71
     3
 72
     8
 73
     4
 74
     0
 42
0.0000000001
 43
0.0000000001
 40
0.0
 40
0.0
 40
0.0
 40
0.0
 40
1.0
 40
1.0
 40
1.0
 40
1.0
 10
49.5887
 20
-2.0754
 30
0.0
 10
49.5887
 20
-2.0754
 30
0.0
 10
49.5887
 20
-0.6353
 30
0.0
 10
49.5887
 20
-0.6353
 30
0.0
  0
SPLINE
  5
128
330
1F
100
AcDbEntity
  8
Ilustrace
 62
   250
370
    15
100
AcDbSpline
210
0.0
220
0.0
230
1.0
 70
    24
 71
     3
 72
     8
 73
     4
 74
     0
 42
0.0000000001
 43
0.0000000001
 40
0.0
 40
0.0
 40
0.0
 40
0.0
 40
1.0
 40
1.0
 40
1.0
 40
1.0
 10
-32.2942
 20
2.5954
 30
0.0
 10
-32.2942
 20
2.5954
 30
0.0
 10
55.3486
 20
2.5954
 30
0.0
 10
55.3486
 20
2.5954
 30
0.0
  0
ENDSEC
  0
SECTION
  2
OBJECTS
  0
DICTIONARY
  5
C
330
0
100
AcDbDictionary
281
     1
  3
ACAD_GROUP
350
D
  3
ACAD_LAYOUT
350
1A
  3
ACAD_MATERIAL
350
3B
  3
ACAD_MLEADERSTYLE
350
12B
  3
ACAD_MLINESTYLE
350
17
  3
ACAD_PLOTSETTINGS
350
19
  3
ACAD_PLOTSTYLENAME
350
E
  3
ACAD_VISUALSTYLE
350
2A
  3
AcDbVariableDictionary
350
129
  0
DICTIONARY
  5
D
102
{ACAD_REACTORS
330
C
102
}
330
C
100
AcDbDictionary
281
     1
  0
DICTIONARY
  5
1A
102
{ACAD_REACTORS
330
C
102
}
330
C
100
AcDbDictionary
281
     1
  3
Layout1
350
1E
  3
Layout2
350
26
  3
Model
350
22
  0
DICTIONARY
  5
3B
102
{ACAD_REACTORS
330
C
102
}
330
C
100
AcDbDictionary
281
     1
  3
ByBlock
350
3D
  3
ByLayer
350
3C
  3
Global
350
3E
  0
DICTIONARY
  5
12B
102
{ACAD_REACTORS
330
C
102
}
330
C
100
AcDbDictionary
281
     1
  0
DICTIONARY
  5
17
102
{ACAD_REACTORS
330
C
102
}
330
C
100
AcDbDictionary
281
     1
  3
Standard
350
18
  0
DICTIONARY
  5
19
102
{ACAD_REACTORS
330
C
102
}
330
C
100
AcDbDictionary
281
     1
  0
ACDBDICTIONARYWDFLT
  5
E
102
{ACAD_REACTORS
330
C
102
}
330
C
100
AcDbDictionary
281
     1
  3
Normal
350
F
100
AcDbDictionaryWithDefault
340
F
  0
DICTIONARY
  5
2A
102
{ACAD_REACTORS
330
C
102
}
330
C
100
AcDbDictionary
281
     1
  3
2dWireframe
350
2F
  3
3D Hidden
350
31
  3
3dWireframe
350
30
  3
Basic
350
32
  3
Brighten
350
36
  3
ColorChange
350
3A
  3
Conceptual
350
34
  3
Dim
350
35
  3
Facepattern
350
39
  3
Flat
350
2B
  3
FlatWithEdges
350
2C
  3
Gouraud
350
2D
  3
GouraudWithEdges
350
2E
  3
Linepattern
350
38
  3
Realistic
350
33
  3
Thicken
350
37
  0
DICTIONARY
  5
129
102
{ACAD_REACTORS
330
C
102
}
330
C
100
AcDbDictionary
281
     1
  3
DIMASSOC
350
12C
  3
HIDETEXT
350
12D
  0
LAYOUT
  5
1E
102
{ACAD_REACTORS
330
1A
102
}
330
1A
100
AcDbPlotSettings
  1

  2
none_device
  4

  6

 40
0.0
 41
0.0
 42
0.0
 43
0.0
 44
0.0
 45
0.0
 46
0.0
 47
0.0
 48
0.0
 49
0.0
140
0.0
141
0.0
142
1.0
143
1.0
 70
   688
 72
     0
 73
     0
 74
     5
  7

 75
    16
147
1.0
148
0.0
149
0.0
100
AcDbLayout
  1
Layout1
 70
     1
 71
     1
 10
0.0
 20
0.0
 11
12.0
 21
9.0
 12
0.0
 22
0.0
 32
0.0
 14
1.000000000000000E+20
 24
1.000000000000000E+20
 34
1.000000000000000E+20
 15
-1.000000000000000E+20
 25
-1.000000000000000E+20
 35
-1.000000000000000E+20
146
0.0
 13
0.0
 23
0.0
 33
0.0
 16
1.0
 26
0.0
 36
0.0
 17
0.0
 27
1.0
 37
0.0
 76
     0
330
1B
  0
LAYOUT
  5
26
102
{ACAD_REACTORS
330
1A
102
}
330
1A
100
AcDbPlotSettings
  1

  2
none_device
  4

  6

 40
0.0
 41
0.0
 42
0.0
 43
0.0
 44
0.0
 45
0.0
 46
0.0
 47
0.0
 48
0.0
 49
0.0
140
0.0
141
0.0
142
1.0
143
1.0
 70
   688
 72
     0
 73
     0
 74
     5
  7

 75
    16
147
1.0
148
0.0
149
0.0
100
AcDbLayout
  1
Layout2
 70
     1
 71
     2
 10
0.0
 20
0.0
 11
0.0
 21
0.0
 12
0.0
 22
0.0
 32
0.0
 14
0.0
 24
0.0
 34
0.0
 15
0.0
 25
0.0
 35
0.0
146
0.0
 13
0.0
 23
0.0
 33
0.0
 16
1.0
 26
0.0
 36
0.0
 17
0.0
 27
1.0
 37
0.0
 76
     0
330
23
  0
LAYOUT
  5
22
102
{ACAD_REACTORS
330
1A
102
}
330
1A
100
AcDbPlotSettings
  1

  2
none_device
  4

  6

 40
0.0
 41
0.0
 42
0.0
 43
0.0
 44
0.0
 45
0.0
 46
0.0
 47
0.0
 48
0.0
 49
0.0
140
0.0
141
0.0
142
1.0
143
1.0
 70
  1712
 72
     0
 73
     0
 74
     0
  7

 75
     0
147
1.0
148
0.0
149
0.0
100
AcDbLayout
  1
Model
 70
     1
 71
     0
 10
0.0
 20
0.0
 11
12.0
 21
9.0
 12
0.0
 22
0.0
 32
0.0
 14
-73.016
 24
-14.8393
 34
0.0
 15
72.9275
 25
14.7603
 35
0.0
146
0.0
 13
0.0
 23
0.0
 33
0.0
 16
1.0
 26
0.0
 36
0.0
 17
0.0
 27
1.0
 37
0.0
 76
     0
330
1F
331
29
  0
MATERIAL
  5
3D
102
{ACAD_REACTORS
330
3B
102
}
102
{ACAD_XDICTIONARY
360
150
102
}
330
3B
100
AcDbMaterial
  1
ByBlock
  0
MATERIAL
  5
3C
102
{ACAD_REACTORS
330
3B
102
}
102
{ACAD_XDICTIONARY
360
14E
102
}
330
3B
100
AcDbMaterial
  1
ByLayer
  0
MATERIAL
  5
3E
102
{ACAD_REACTORS
330
3B
102
}
102
{ACAD_XDICTIONARY
360
152
102
}
330
3B
100
AcDbMaterial
  1
Global
  0
MLINESTYLE
  5
18
102
{ACAD_REACTORS
330
17
102
}
330
17
100
AcDbMlineStyle
  2
Standard
 70
     0
  3

 62
   256
 51
90.0
 52
90.0
 71
     2
 49
0.5
 62
   256
  6
BYLAYER
 49
-0.5
 62
   256
  6
BYLAYER
  0
ACDBPLACEHOLDER
  5
F
102
{ACAD_REACTORS
330
E
102
}
330
E
  0
VISUALSTYLE
  5
2F
102
{ACAD_REACTORS
330
2A
102
}
102
{ACAD_XDICTIONARY
360
136
102
}
330
2A
100
AcDbVisualStyle
  2
2dWireframe
 70
     4
 71
     0
 72
     2
 73
     0
 90
        0
 40
-0.6
 41
-30.0
 62
     5
 63
     7
 74
     1
 91
        4
 64
     7
 65
   257
 75
     1
175
     1
 42
1.0
 92
        0
 66
   257
 43
1.0
 76
     1
 77
     6
 78
     2
 67
     7
 79
     5
170
     0
171
     0
290
     0
174
     0
 93
        1
 44
0.0
173
     0
291
     0
 45
0.0
1001
ACAD
1000
AcDbSavedByObjectVersion
1070
     0
  0
VISUALSTYLE
  5
31
102
{ACAD_REACTORS
330
2A
102
}
102
{ACAD_XDICTIONARY
360
13A
102
}
330
2A
100
AcDbVisualStyle
  2
3D Hidden
 70
     6
 71
     1
 72
     2
 73
     2
 90
        0
 40
-0.6
 41
-30.0
 62
     5
 63
     7
 74
     2
 91
        2
 64
     7
 65
   257
 75
     2
175
     1
 42
40.0
 92
        0
 66
   257
 43
1.0
 76
     1
 77
     6
 78
     2
 67
     7
 79
     3
170
     0
171
     0
290
     0
174
     0
 93
        1
 44
0.0
173
     0
291
     0
 45
0.0
1001
ACAD
1000
AcDbSavedByObjectVersion
1070
     0
  0
VISUALSTYLE
  5
30
102
{ACAD_REACTORS
330
2A
102
}
102
{ACAD_XDICTIONARY
360
138
102
}
330
2A
100
AcDbVisualStyle
  2
3dWireframe
 70
     5
 71
     0
 72
     2
 73
     0
 90
        0
 40
-0.6
 41
-30.0
 62
     5
 63
     7
 74
     1
 91
        4
 64
     7
 65
   257
 75
     1
175
     1
 42
1.0
 92
        0
 66
   257
 43
1.0
 76
     1
 77
     6
 78
     2
 67
     7
 79
     5
170
     0
171
     0
290
     0
174
     0
 93
        1
 44
0.0
173
     0
291
     0
 45
0.0
1001
ACAD
1000
AcDbSavedByObjectVersion
1070
     0
  0
VISUALSTYLE
  5
32
102
{ACAD_REACTORS
330
2A
102
}
102
{ACAD_XDICTIONARY
360
13C
102
}
330
2A
100
AcDbVisualStyle
  2
Basic
 70
     7
 71
     1
 72
     0
 73
     1
 90
        0
 40
-0.6
 41
-30.0
 62
     5
 63
     7
 74
     0
 91
        4
 64
     7
 65
   257
 75
     1
175
     1
 42
1.0
 92
        8
 66
     7
 43
1.0
 76
     1
 77
     6
 78
     2
 67
     7
 79
     5
170
     0
171
     0
290
     0
174
     0
 93
        1
 44
0.0
173
     0
291
     1
 45
0.0
1001
ACAD
1000
AcDbSavedByObjectVersion
1070
     0
  0
VISUALSTYLE
  5
36
102
{ACAD_REACTORS
330
2A
102
}
102
{ACAD_XDICTIONARY
360
144
102
}
330
2A
100
AcDbVisualStyle
  2
Brighten
 70
    12
 71
     2
 72
     2
 73
     0
 90
        0
 40
-0.6
 41
-30.0
 62
     5
 63
     7
 74
     1
 91
        4
 64
     7
 65
   257
 75
     1
175
     1
 42
1.0
 92
        8
 66
     7
 43
1.0
 76
     1
 77
     6
 78
     2
 67
     7
 79
     5
170
     0
171
     0
290
     0
174
     0
 93
        1
 44
50.0
173
     0
291
     1
 45
0.0
1001
ACAD
1000
AcDbSavedByObjectVersion
1070
     0
  0
VISUALSTYLE
  5
3A
102
{ACAD_REACTORS
330
2A
102
}
102
{ACAD_XDICTIONARY
360
14C
102
}
330
2A
100
AcDbVisualStyle
  2
ColorChange
 70
    16
 71
     2
 72
     2
 73
     3
 90
        0
 40
-0.6
 41
-30.0
 62
     5
 63
     8
 74
     1
 91
        4
 64
     7
 65
   257
 75
     1
175
     1
 42
1.0
 92
        8
 66
     8
 43
1.0
 76
     1
 77
     6
 78
     2
 67
     7
 79
     5
170
     0
171
     0
290
     0
174
     0
 93
        1
 44
0.0
173
     0
291
     1
 45
0.0
1001
ACAD
1000
AcDbSavedByObjectVersion
1070
     0
  0
VISUALSTYLE
  5
34
102
{ACAD_REACTORS
330
2A
102
}
102
{ACAD_XDICTIONARY
360
140
102
}
330
2A
100
AcDbVisualStyle
  2
Conceptual
 70
     9
 71
     3
 72
     2
 73
     0
 90
        0
 40
-0.6
 41
-30.0
 62
     5
 63
     7
 74
     2
 91
        2
 64
     7
 65
   257
 75
     1
175
     1
 42
40.0
 92
        8
 66
     7
 43
1.0
 76
     1
 77
     6
 78
     2
 67
     7
 79
     3
170
     0
171
     0
290
     0
174
     0
 93
        1
 44
0.0
173
     0
291
     0
 45
0.0
1001
ACAD
1000
AcDbSavedByObjectVersion
1070
     0
  0
VISUALSTYLE
  5
35
102
{ACAD_REACTORS
330
2A
102
}
102
{ACAD_XDICTIONARY
360
142
102
}
330
2A
100
AcDbVisualStyle
  2
Dim
 70
    11
 71
     2
 72
     2
 73
     0
 90
        0
 40
-0.6
 41
-30.0
 62
     5
 63
     7
 74
     1
 91
        4
 64
     7
 65
   257
 75
     1
175
     1
 42
1.0
 92
        8
 66
     7
 43
1.0
 76
     1
 77
     6
 78
     2
 67
     7
 79
     5
170
     0
171
     0
290
     0
174
     0
 93
        1
 44
-50.0
173
     0
291
     1
 45
0.0
1001
ACAD
1000
AcDbSavedByObjectVersion
1070
     0
  0
VISUALSTYLE
  5
39
102
{ACAD_REACTORS
330
2A
102
}
102
{ACAD_XDICTIONARY
360
14A
102
}
330
2A
100
AcDbVisualStyle
  2
Facepattern
 70
    15
 71
     2
 72
     2
 73
     0
 90
        0
 40
-0.6
 41
-30.0
 62
     5
 63
     7
 74
     1
 91
        4
 64
     7
 65
   257
 75
     1
175
     1
 42
1.0
 92
        8
 66
     7
 43
1.0
 76
     1
 77
     6
 78
     2
 67
     7
 79
     5
170
     0
171
     0
290
     0
174
     0
 93
        1
 44
0.0
173
     0
291
     1
 45
0.0
1001
ACAD
1000
AcDbSavedByObjectVersion
1070
     0
  0
VISUALSTYLE
  5
2B
102
{ACAD_REACTORS
330
2A
102
}
102
{ACAD_XDICTIONARY
360
12E
102
}
330
2A
100
AcDbVisualStyle
  2
Flat
 70
     0
 71
     2
 72
     1
 73
     1
 90
        2
 40
-0.6
 41
30.0
 62
     5
 63
     7
 74
     0
 91
        4
 64
     7
 65
   257
 75
     1
175
     1
 42
1.0
 92
        8
 66
     7
 43
1.0
 76
     1
 77
     6
 78
     2
 67
     7
 79
     5
170
     0
171
     0
290
     0
174
     0
 93
       13
 44
0.0
173
     0
291
     1
 45
0.0
1001
ACAD
1000
AcDbSavedByObjectVersion
1070
     0
  0
VISUALSTYLE
  5
2C
102
{ACAD_REACTORS
330
2A
102
}
102
{ACAD_XDICTIONARY
360
130
102
}
330
2A
100
AcDbVisualStyle
  2
FlatWithEdges
 70
     1
 71
     2
 72
     1
 73
     1
 90
        2
 40
-0.6
 41
30.0
 62
     5
 63
     7
 74
     1
 91
        4
 64
     7
 65
   257
 75
     1
175
     1
 42
1.0
 92
        0
 66
   257
 43
1.0
 76
     1
 77
     6
 78
     2
 67
     7
 79
     5
170
     0
171
     0
290
     0
174
     0
 93
       13
 44
0.0
173
     0
291
     1
 45
0.0
1001
ACAD
1000
AcDbSavedByObjectVersion
1070
     0
  0
VISUALSTYLE
  5
2D
102
{ACAD_REACTORS
330
2A
102
}
102
{ACAD_XDICTIONARY
360
132
102
}
330
2A
100
AcDbVisualStyle
  2
Gouraud
 70
     2
 71
     2
 72
     2
 73
     1
 90
        2
 40
-0.6
 41
30.0
 62
     5
 63
     7
 74
     0
 91
        4
 64
     7
 65
   257
 75
     1
175
     1
 42
1.0
 92
        0
 66
     7
 43
1.0
 76
     1
 77
     6
 78
     2
 67
     7
 79
     5
170
     0
171
     0
290
     0
174
     0
 93
       13
 44
0.0
173
     0
291
     1
 45
0.0
1001
ACAD
1000
AcDbSavedByObjectVersion
1070
     0
  0
VISUALSTYLE
  5
2E
102
{ACAD_REACTORS
330
2A
102
}
102
{ACAD_XDICTIONARY
360
134
102
}
330
2A
100
AcDbVisualStyle
  2
GouraudWithEdges
 70
     3
 71
     2
 72
     2
 73
     1
 90
        2
 40
-0.6
 41
30.0
 62
     5
 63
     7
 74
     1
 91
        4
 64
     7
 65
   257
 75
     1
175
     1
 42
1.0
 92
        0
 66
   257
 43
1.0
 76
     1
 77
     6
 78
     2
 67
     7
 79
     5
170
     0
171
     0
290
     0
174
     0
 93
       13
 44
0.0
173
     0
291
     1
 45
0.0
1001
ACAD
1000
AcDbSavedByObjectVersion
1070
     0
  0
VISUALSTYLE
  5
38
102
{ACAD_REACTORS
330
2A
102
}
102
{ACAD_XDICTIONARY
360
148
102
}
330
2A
100
AcDbVisualStyle
  2
Linepattern
 70
    14
 71
     2
 72
     2
 73
     0
 90
        0
 40
-0.6
 41
-30.0
 62
     5
 63
     7
 74
     1
 91
        4
 64
     7
 65
   257
 75
     7
175
     7
 42
1.0
 92
        8
 66
     7
 43
1.0
 76
     1
 77
     6
 78
     2
 67
     7
 79
     5
170
     0
171
     0
290
     0
174
     0
 93
        1
 44
0.0
173
     0
291
     1
 45
0.0
1001
ACAD
1000
AcDbSavedByObjectVersion
1070
     0
  0
VISUALSTYLE
  5
33
102
{ACAD_REACTORS
330
2A
102
}
102
{ACAD_XDICTIONARY
360
13E
102
}
330
2A
100
AcDbVisualStyle
  2
Realistic
 70
     8
 71
     2
 72
     2
 73
     0
 90
        0
 40
-0.6
 41
-30.0
 62
     5
 63
     7
 74
     1
 91
        0
 64
     7
 65
   257
 75
     1
175
     1
 42
1.0
 92
        8
 66
     8
 43
1.0
 76
     1
 77
     6
 78
     2
 67
     7
 79
     5
170
     0
171
     0
290
     0
174
     0
 93
       13
 44
0.0
173
     0
291
     0
 45
0.0
1001
ACAD
1000
AcDbSavedByObjectVersion
1070
     0
  0
VISUALSTYLE
  5
37
102
{ACAD_REACTORS
330
2A
102
}
102
{ACAD_XDICTIONARY
360
146
102
}
330
2A
100
AcDbVisualStyle
  2
Thicken
 70
    13
 71
     2
 72
     2
 73
     0
 90
        0
 40
-0.6
 41
-30.0
 62
     5
 63
     7
 74
     1
 91
        4
 64
     7
 65
   257
 75
     1
175
     1
 42
1.0
 92
       12
 66
     7
 43
1.0
 76
     1
 77
     6
 78
     2
 67
     7
 79
     5
170
     0
171
     0
290
     0
174
     0
 93
        1
 44
0.0
173
     0
291
     1
 45
0.0
1001
ACAD
1000
AcDbSavedByObjectVersion
1070
     0
  0
DICTIONARYVAR
  5
12C
102
{ACAD_REACTORS
330
129
102
}
330
129
100
DictionaryVariables
280
     0
  1
2
  0
DICTIONARYVAR
  5
12D
102
{ACAD_REACTORS
330
129
102
}
330
129
100
DictionaryVariables
280
     0
  1
1
  0
DICTIONARY
  5
150
330
3D
100
AcDbDictionary
280
     1
281
     1
  3
ACAD_XREC_ROUNDTRIP
360
151
  0
DICTIONARY
  5
14E
330
3C
100
AcDbDictionary
280
     1
281
     1
  3
ACAD_XREC_ROUNDTRIP
360
14F
  0
DICTIONARY
  5
152
330
3E
100
AcDbDictionary
280
     1
281
     1
  3
ACAD_XREC_ROUNDTRIP
360
153
  0
DICTIONARY
  5
136
330
2F
100
AcDbDictionary
280
     1
281
     1
  3
ACAD_XREC_ROUNDTRIP
360
137
  0
DICTIONARY
  5
13A
330
31
100
AcDbDictionary
280
     1
281
     1
  3
ACAD_XREC_ROUNDTRIP
360
13B
  0
DICTIONARY
  5
138
330
30
100
AcDbDictionary
280
     1
281
     1
  3
ACAD_XREC_ROUNDTRIP
360
139
  0
DICTIONARY
  5
13C
330
32
100
AcDbDictionary
280
     1
281
     1
  3
ACAD_XREC_ROUNDTRIP
360
13D
  0
DICTIONARY
  5
144
330
36
100
AcDbDictionary
280
     1
281
     1
  3
ACAD_XREC_ROUNDTRIP
360
145
  0
DICTIONARY
  5
14C
330
3A
100
AcDbDictionary
280
     1
281
     1
  3
ACAD_XREC_ROUNDTRIP
360
14D
  0
DICTIONARY
  5
140
330
34
100
AcDbDictionary
280
     1
281
     1
  3
ACAD_XREC_ROUNDTRIP
360
141
  0
DICTIONARY
  5
142
330
35
100
AcDbDictionary
280
     1
281
     1
  3
ACAD_XREC_ROUNDTRIP
360
143
  0
DICTIONARY
  5
14A
330
39
100
AcDbDictionary
280
     1
281
     1
  3
ACAD_XREC_ROUNDTRIP
360
14B
  0
DICTIONARY
  5
12E
330
2B
100
AcDbDictionary
280
     1
281
     1
  3
ACAD_XREC_ROUNDTRIP
360
12F
  0
DICTIONARY
  5
130
330
2C
100
AcDbDictionary
280
     1
281
     1
  3
ACAD_XREC_ROUNDTRIP
360
131
  0
DICTIONARY
  5
132
330
2D
100
AcDbDictionary
280
     1
281
     1
  3
ACAD_XREC_ROUNDTRIP
360
133
  0
DICTIONARY
  5
134
330
2E
100
AcDbDictionary
280
     1
281
     1
  3
ACAD_XREC_ROUNDTRIP
360
135
  0
DICTIONARY
  5
148
330
38
100
AcDbDictionary
280
     1
281
     1
  3
ACAD_XREC_ROUNDTRIP
360
149
  0
DICTIONARY
  5
13E
330
33
100
AcDbDictionary
280
     1
281
     1
  3
ACAD_XREC_ROUNDTRIP
360
13F
  0
DICTIONARY
  5
146
330
37
100
AcDbDictionary
280
     1
281
     1
  3
ACAD_XREC_ROUNDTRIP
360
147
  0
XRECORD
  5
151
102
{ACAD_REACTORS
330
150
102
}
330
150
100
AcDbXrecord
280
     1
102
MATERIAL
148
0.0
149
0.0
149
0.0
 93
        0
 94
      127
282
     0
 72
     1
 77
     1
171
     1
175
     1
179
     1
273
     0
  0
XRECORD
  5
14F
102
{ACAD_REACTORS
330
14E
102
}
330
14E
100
AcDbXrecord
280
     1
102
MATERIAL
148
0.0
149
0.0
149
0.0
 93
        0
 94
      127
282
     0
 72
     1
 77
     1
171
     1
175
     1
179
     1
273
     0
  0
XRECORD
  5
153
102
{ACAD_REACTORS
330
152
102
}
330
152
100
AcDbXrecord
280
     1
102
MATERIAL
148
0.0
149
0.0
149
0.0
 93
        0
 94
      127
282
     0
 72
     1
 77
     1
171
     1
175
     1
179
     1
273
     0
  0
XRECORD
  5
137
102
{ACAD_REACTORS
330
136
102
}
330
136
100
AcDbXrecord
280
     1
102
RTVSPropertyOp0
 70
     1
102
RTVSPropertyOp1
 70
     1
102
RTVSPropertyOp2
 70
     1
102
RTVSPropertyOp3
 70
     1
102
RTVSPropertyOp4
 70
     1
102
RTVSPropertyOp5
 70
     1
102
RTVSPropertyOp6
 70
     1
102
RTVSPropertyOp7
 70
     1
102
RTVSPropertyOp8
 70
     1
102
RTVSPropertyOp9
 70
     1
102
RTVSPropertyOp10
 70
     1
102
RTVSPropertyOp11
 70
     1
102
RTVSPropertyOp12
 70
     1
102
RTVSPropertyOp13
 70
     1
102
RTVSPropertyOp14
 70
     1
102
RTVSPropertyOp15
 70
     1
102
RTVSPropertyOp16
 70
     1
102
RTVSPropertyOp17
 70
     1
102
RTVSPropertyOp18
 70
     1
102
RTVSPropertyOp19
 70
     1
102
RTVSPropertyOp20
 70
     1
102
RTVSPropertyOp21
 70
     1
102
RTVSPropertyOp22
 70
     1
102
RTVSPropertyOp23
 70
     1
102
RTVSPropertyOp24
 70
     1
102
RTVSPropertyOp25
 70
     1
102
RTVSPropertyOp26
 70
     1
102
RTVSPropertyOp27
 70
     1
  0
XRECORD
  5
13B
102
{ACAD_REACTORS
330
13A
102
}
330
13A
100
AcDbXrecord
280
     1
102
RTVSPropertyOp0
 70
     1
102
RTVSPropertyOp1
 70
     1
102
RTVSPropertyOp2
 70
     1
102
RTVSPropertyOp3
 70
     1
102
RTVSPropertyOp4
 70
     1
102
RTVSPropertyOp5
 70
     1
102
RTVSPropertyOp6
 70
     1
102
RTVSPropertyOp7
 70
     1
102
RTVSPropertyOp8
 70
     1
102
RTVSPropertyOp9
 70
     1
102
RTVSPropertyOp10
 70
     1
102
RTVSPropertyOp11
 70
     1
102
RTVSPropertyOp12
 70
     1
102
RTVSPropertyOp13
 70
     1
102
RTVSPropertyOp14
 70
     1
102
RTVSPropertyOp15
 70
     1
102
RTVSPropertyOp16
 70
     1
102
RTVSPropertyOp17
 70
     1
102
RTVSPropertyOp18
 70
     1
102
RTVSPropertyOp19
 70
     1
102
RTVSPropertyOp20
 70
     1
102
RTVSPropertyOp21
 70
     1
102
RTVSPropertyOp22
 70
     1
102
RTVSPropertyOp23
 70
     1
102
RTVSPropertyOp24
 70
     1
102
RTVSPropertyOp25
 70
     1
102
RTVSPropertyOp26
 70
     1
102
RTVSPropertyOp27
 70
     1
  0
XRECORD
  5
139
102
{ACAD_REACTORS
330
138
102
}
330
138
100
AcDbXrecord
280
     1
102
RTVSPropertyOp0
 70
     1
102
RTVSPropertyOp1
 70
     1
102
RTVSPropertyOp2
 70
     1
102
RTVSPropertyOp3
 70
     1
102
RTVSPropertyOp4
 70
     1
102
RTVSPropertyOp5
 70
     1
102
RTVSPropertyOp6
 70
     1
102
RTVSPropertyOp7
 70
     1
102
RTVSPropertyOp8
 70
     1
102
RTVSPropertyOp9
 70
     1
102
RTVSPropertyOp10
 70
     1
102
RTVSPropertyOp11
 70
     1
102
RTVSPropertyOp12
 70
     1
102
RTVSPropertyOp13
 70
     1
102
RTVSPropertyOp14
 70
     1
102
RTVSPropertyOp15
 70
     1
102
RTVSPropertyOp16
 70
     1
102
RTVSPropertyOp17
 70
     1
102
RTVSPropertyOp18
 70
     1
102
RTVSPropertyOp19
 70
     1
102
RTVSPropertyOp20
 70
     1
102
RTVSPropertyOp21
 70
     1
102
RTVSPropertyOp22
 70
     1
102
RTVSPropertyOp23
 70
     1
102
RTVSPropertyOp24
 70
     1
102
RTVSPropertyOp25
 70
     1
102
RTVSPropertyOp26
 70
     1
102
RTVSPropertyOp27
 70
     1
  0
XRECORD
  5
13D
102
{ACAD_REACTORS
330
13C
102
}
330
13C
100
AcDbXrecord
280
     1
102
RTVSPropertyOp0
 70
     1
102
RTVSPropertyOp1
 70
     1
102
RTVSPropertyOp2
 70
     1
102
RTVSPropertyOp3
 70
     1
102
RTVSPropertyOp4
 70
     1
102
RTVSPropertyOp5
 70
     1
102
RTVSPropertyOp6
 70
     1
102
RTVSPropertyOp7
 70
     1
102
RTVSPropertyOp8
 70
     1
102
RTVSPropertyOp9
 70
     1
102
RTVSPropertyOp10
 70
     1
102
RTVSPropertyOp11
 70
     1
102
RTVSPropertyOp12
 70
     1
102
RTVSPropertyOp13
 70
     1
102
RTVSPropertyOp14
 70
     1
102
RTVSPropertyOp15
 70
     1
102
RTVSPropertyOp16
 70
     1
102
RTVSPropertyOp17
 70
     1
102
RTVSPropertyOp18
 70
     1
102
RTVSPropertyOp19
 70
     1
102
RTVSPropertyOp20
 70
     1
102
RTVSPropertyOp21
 70
     1
102
RTVSPropertyOp22
 70
     1
102
RTVSPropertyOp23
 70
     1
102
RTVSPropertyOp24
 70
     1
102
RTVSPropertyOp25
 70
     1
102
RTVSPropertyOp26
 70
     1
102
RTVSPropertyOp27
 70
     1
  0
XRECORD
  5
145
102
{ACAD_REACTORS
330
144
102
}
330
144
100
AcDbXrecord
280
     1
102
RTVSPropertyOp0
 70
     1
102
RTVSPropertyOp1
 70
     1
102
RTVSPropertyOp2
 70
     1
102
RTVSPropertyOp3
 70
     1
102
RTVSPropertyOp4
 70
     1
102
RTVSPropertyOp5
 70
     1
102
RTVSPropertyOp6
 70
     1
102
RTVSPropertyOp7
 70
     1
102
RTVSPropertyOp8
 70
     1
102
RTVSPropertyOp9
 70
     1
102
RTVSPropertyOp10
 70
     1
102
RTVSPropertyOp11
 70
     1
102
RTVSPropertyOp12
 70
     1
102
RTVSPropertyOp13
 70
     1
102
RTVSPropertyOp14
 70
     1
102
RTVSPropertyOp15
 70
     1
102
RTVSPropertyOp16
 70
     1
102
RTVSPropertyOp17
 70
     1
102
RTVSPropertyOp18
 70
     1
102
RTVSPropertyOp19
 70
     1
102
RTVSPropertyOp20
 70
     1
102
RTVSPropertyOp21
 70
     1
102
RTVSPropertyOp22
 70
     1
102
RTVSPropertyOp23
 70
     1
102
RTVSPropertyOp24
 70
     1
102
RTVSPropertyOp25
 70
     1
102
RTVSPropertyOp26
 70
     1
102
RTVSPropertyOp27
 70
     1
  0
XRECORD
  5
14D
102
{ACAD_REACTORS
330
14C
102
}
330
14C
100
AcDbXrecord
280
     1
102
RTVSPropertyOp0
 70
     1
102
RTVSPropertyOp1
 70
     1
102
RTVSPropertyOp2
 70
     1
102
RTVSPropertyOp3
 70
     1
102
RTVSPropertyOp4
 70
     1
102
RTVSPropertyOp5
 70
     1
102
RTVSPropertyOp6
 70
     1
102
RTVSPropertyOp7
 70
     1
102
RTVSPropertyOp8
 70
     1
102
RTVSPropertyOp9
 70
     1
102
RTVSPropertyOp10
 70
     1
102
RTVSPropertyOp11
 70
     1
102
RTVSPropertyOp12
 70
     1
102
RTVSPropertyOp13
 70
     1
102
RTVSPropertyOp14
 70
     1
102
RTVSPropertyOp15
 70
     1
102
RTVSPropertyOp16
 70
     1
102
RTVSPropertyOp17
 70
     1
102
RTVSPropertyOp18
 70
     1
102
RTVSPropertyOp19
 70
     1
102
RTVSPropertyOp20
 70
     1
102
RTVSPropertyOp21
 70
     1
102
RTVSPropertyOp22
 70
     1
102
RTVSPropertyOp23
 70
     1
102
RTVSPropertyOp24
 70
     1
102
RTVSPropertyOp25
 70
     1
102
RTVSPropertyOp26
 70
     1
102
RTVSPropertyOp27
 70
     1
  0
XRECORD
  5
141
102
{ACAD_REACTORS
330
140
102
}
330
140
100
AcDbXrecord
280
     1
102
RTVSPropertyOp0
 70
     1
102
RTVSPropertyOp1
 70
     1
102
RTVSPropertyOp2
 70
     1
102
RTVSPropertyOp3
 70
     1
102
RTVSPropertyOp4
 70
     1
102
RTVSPropertyOp5
 70
     1
102
RTVSPropertyOp6
 70
     1
102
RTVSPropertyOp7
 70
     1
102
RTVSPropertyOp8
 70
     1
102
RTVSPropertyOp9
 70
     1
102
RTVSPropertyOp10
 70
     1
102
RTVSPropertyOp11
 70
     1
102
RTVSPropertyOp12
 70
     1
102
RTVSPropertyOp13
 70
     1
102
RTVSPropertyOp14
 70
     1
102
RTVSPropertyOp15
 70
     1
102
RTVSPropertyOp16
 70
     1
102
RTVSPropertyOp17
 70
     1
102
RTVSPropertyOp18
 70
     1
102
RTVSPropertyOp19
 70
     1
102
RTVSPropertyOp20
 70
     1
102
RTVSPropertyOp21
 70
     1
102
RTVSPropertyOp22
 70
     1
102
RTVSPropertyOp23
 70
     1
102
RTVSPropertyOp24
 70
     1
102
RTVSPropertyOp25
 70
     1
102
RTVSPropertyOp26
 70
     1
102
RTVSPropertyOp27
 70
     1
  0
XRECORD
  5
143
102
{ACAD_REACTORS
330
142
102
}
330
142
100
AcDbXrecord
280
     1
102
RTVSPropertyOp0
 70
     1
102
RTVSPropertyOp1
 70
     1
102
RTVSPropertyOp2
 70
     1
102
RTVSPropertyOp3
 70
     1
102
RTVSPropertyOp4
 70
     1
102
RTVSPropertyOp5
 70
     1
102
RTVSPropertyOp6
 70
     1
102
RTVSPropertyOp7
 70
     1
102
RTVSPropertyOp8
 70
     1
102
RTVSPropertyOp9
 70
     1
102
RTVSPropertyOp10
 70
     1
102
RTVSPropertyOp11
 70
     1
102
RTVSPropertyOp12
 70
     1
102
RTVSPropertyOp13
 70
     1
102
RTVSPropertyOp14
 70
     1
102
RTVSPropertyOp15
 70
     1
102
RTVSPropertyOp16
 70
     1
102
RTVSPropertyOp17
 70
     1
102
RTVSPropertyOp18
 70
     1
102
RTVSPropertyOp19
 70
     1
102
RTVSPropertyOp20
 70
     1
102
RTVSPropertyOp21
 70
     1
102
RTVSPropertyOp22
 70
     1
102
RTVSPropertyOp23
 70
     1
102
RTVSPropertyOp24
 70
     1
102
RTVSPropertyOp25
 70
     1
102
RTVSPropertyOp26
 70
     1
102
RTVSPropertyOp27
 70
     1
  0
XRECORD
  5
14B
102
{ACAD_REACTORS
330
14A
102
}
330
14A
100
AcDbXrecord
280
     1
102
RTVSPropertyOp0
 70
     1
102
RTVSPropertyOp1
 70
     1
102
RTVSPropertyOp2
 70
     1
102
RTVSPropertyOp3
 70
     1
102
RTVSPropertyOp4
 70
     1
102
RTVSPropertyOp5
 70
     1
102
RTVSPropertyOp6
 70
     1
102
RTVSPropertyOp7
 70
     1
102
RTVSPropertyOp8
 70
     1
102
RTVSPropertyOp9
 70
     1
102
RTVSPropertyOp10
 70
     1
102
RTVSPropertyOp11
 70
     1
102
RTVSPropertyOp12
 70
     1
102
RTVSPropertyOp13
 70
     1
102
RTVSPropertyOp14
 70
     1
102
RTVSPropertyOp15
 70
     1
102
RTVSPropertyOp16
 70
     1
102
RTVSPropertyOp17
 70
     1
102
RTVSPropertyOp18
 70
     1
102
RTVSPropertyOp19
 70
     1
102
RTVSPropertyOp20
 70
     1
102
RTVSPropertyOp21
 70
     1
102
RTVSPropertyOp22
 70
     1
102
RTVSPropertyOp23
 70
     1
102
RTVSPropertyOp24
 70
     1
102
RTVSPropertyOp25
 70
     1
102
RTVSPropertyOp26
 70
     1
102
RTVSPropertyOp27
 70
     1
  0
XRECORD
  5
12F
102
{ACAD_REACTORS
330
12E
102
}
330
12E
100
AcDbXrecord
280
     1
102
RTVSPropertyOp0
 70
     1
102
RTVSPropertyOp1
 70
     1
102
RTVSPropertyOp2
 70
     1
102
RTVSPropertyOp3
 70
     1
102
RTVSPropertyOp4
 70
     1
102
RTVSPropertyOp5
 70
     1
102
RTVSPropertyOp6
 70
     1
102
RTVSPropertyOp7
 70
     1
102
RTVSPropertyOp8
 70
     1
102
RTVSPropertyOp9
 70
     1
102
RTVSPropertyOp10
 70
     1
102
RTVSPropertyOp11
 70
     1
102
RTVSPropertyOp12
 70
     1
102
RTVSPropertyOp13
 70
     1
102
RTVSPropertyOp14
 70
     1
102
RTVSPropertyOp15
 70
     1
102
RTVSPropertyOp16
 70
     1
102
RTVSPropertyOp17
 70
     1
102
RTVSPropertyOp18
 70
     1
102
RTVSPropertyOp19
 70
     1
102
RTVSPropertyOp20
 70
     1
102
RTVSPropertyOp21
 70
     1
102
RTVSPropertyOp22
 70
     1
102
RTVSPropertyOp23
 70
     1
102
RTVSPropertyOp24
 70
     1
102
RTVSPropertyOp25
 70
     1
102
RTVSPropertyOp26
 70
     1
102
RTVSPropertyOp27
 70
     1
  0
XRECORD
  5
131
102
{ACAD_REACTORS
330
130
102
}
330
130
100
AcDbXrecord
280
     1
102
RTVSPropertyOp0
 70
     1
102
RTVSPropertyOp1
 70
     1
102
RTVSPropertyOp2
 70
     1
102
RTVSPropertyOp3
 70
     1
102
RTVSPropertyOp4
 70
     1
102
RTVSPropertyOp5
 70
     1
102
RTVSPropertyOp6
 70
     1
102
RTVSPropertyOp7
 70
     1
102
RTVSPropertyOp8
 70
     1
102
RTVSPropertyOp9
 70
     1
102
RTVSPropertyOp10
 70
     1
102
RTVSPropertyOp11
 70
     1
102
RTVSPropertyOp12
 70
     1
102
RTVSPropertyOp13
 70
     1
102
RTVSPropertyOp14
 70
     1
102
RTVSPropertyOp15
 70
     1
102
RTVSPropertyOp16
 70
     1
102
RTVSPropertyOp17
 70
     1
102
RTVSPropertyOp18
 70
     1
102
RTVSPropertyOp19
 70
     1
102
RTVSPropertyOp20
 70
     1
102
RTVSPropertyOp21
 70
     1
102
RTVSPropertyOp22
 70
     1
102
RTVSPropertyOp23
 70
     1
102
RTVSPropertyOp24
 70
     1
102
RTVSPropertyOp25
 70
     1
102
RTVSPropertyOp26
 70
     1
102
RTVSPropertyOp27
 70
     1
  0
XRECORD
  5
133
102
{ACAD_REACTORS
330
132
102
}
330
132
100
AcDbXrecord
280
     1
102
RTVSPropertyOp0
 70
     1
102
RTVSPropertyOp1
 70
     1
102
RTVSPropertyOp2
 70
     1
102
RTVSPropertyOp3
 70
     1
102
RTVSPropertyOp4
 70
     1
102
RTVSPropertyOp5
 70
     1
102
RTVSPropertyOp6
 70
     1
102
RTVSPropertyOp7
 70
     1
102
RTVSPropertyOp8
 70
     1
102
RTVSPropertyOp9
 70
     1
102
RTVSPropertyOp10
 70
     1
102
RTVSPropertyOp11
 70
     1
102
RTVSPropertyOp12
 70
     1
102
RTVSPropertyOp13
 70
     1
102
RTVSPropertyOp14
 70
     1
102
RTVSPropertyOp15
 70
     1
102
RTVSPropertyOp16
 70
     1
102
RTVSPropertyOp17
 70
     1
102
RTVSPropertyOp18
 70
     1
102
RTVSPropertyOp19
 70
     1
102
RTVSPropertyOp20
 70
     1
102
RTVSPropertyOp21
 70
     1
102
RTVSPropertyOp22
 70
     1
102
RTVSPropertyOp23
 70
     1
102
RTVSPropertyOp24
 70
     1
102
RTVSPropertyOp25
 70
     1
102
RTVSPropertyOp26
 70
     1
102
RTVSPropertyOp27
 70
     1
  0
XRECORD
  5
135
102
{ACAD_REACTORS
330
134
102
}
330
134
100
AcDbXrecord
280
     1
102
RTVSPropertyOp0
 70
     1
102
RTVSPropertyOp1
 70
     1
102
RTVSPropertyOp2
 70
     1
102
RTVSPropertyOp3
 70
     1
102
RTVSPropertyOp4
 70
     1
102
RTVSPropertyOp5
 70
     1
102
RTVSPropertyOp6
 70
     1
102
RTVSPropertyOp7
 70
     1
102
RTVSPropertyOp8
 70
     1
102
RTVSPropertyOp9
 70
     1
102
RTVSPropertyOp10
 70
     1
102
RTVSPropertyOp11
 70
     1
102
RTVSPropertyOp12
 70
     1
102
RTVSPropertyOp13
 70
     1
102
RTVSPropertyOp14
 70
     1
102
RTVSPropertyOp15
 70
     1
102
RTVSPropertyOp16
 70
     1
102
RTVSPropertyOp17
 70
     1
102
RTVSPropertyOp18
 70
     1
102
RTVSPropertyOp19
 70
     1
102
RTVSPropertyOp20
 70
     1
102
RTVSPropertyOp21
 70
     1
102
RTVSPropertyOp22
 70
     1
102
RTVSPropertyOp23
 70
     1
102
RTVSPropertyOp24
 70
     1
102
RTVSPropertyOp25
 70
     1
102
RTVSPropertyOp26
 70
     1
102
RTVSPropertyOp27
 70
     1
  0
XRECORD
  5
149
102
{ACAD_REACTORS
330
148
102
}
330
148
100
AcDbXrecord
280
     1
102
RTVSPropertyOp0
 70
     1
102
RTVSPropertyOp1
 70
     1
102
RTVSPropertyOp2
 70
     1
102
RTVSPropertyOp3
 70
     1
102
RTVSPropertyOp4
 70
     1
102
RTVSPropertyOp5
 70
     1
102
RTVSPropertyOp6
 70
     1
102
RTVSPropertyOp7
 70
     1
102
RTVSPropertyOp8
 70
     1
102
RTVSPropertyOp9
 70
     1
102
RTVSPropertyOp10
 70
     1
102
RTVSPropertyOp11
 70
     1
102
RTVSPropertyOp12
 70
     1
102
RTVSPropertyOp13
 70
     1
102
RTVSPropertyOp14
 70
     1
102
RTVSPropertyOp15
 70
     1
102
RTVSPropertyOp16
 70
     1
102
RTVSPropertyOp17
 70
     1
102
RTVSPropertyOp18
 70
     1
102
RTVSPropertyOp19
 70
     1
102
RTVSPropertyOp20
 70
     1
102
RTVSPropertyOp21
 70
     1
102
RTVSPropertyOp22
 70
     1
102
RTVSPropertyOp23
 70
     1
102
RTVSPropertyOp24
 70
     1
102
RTVSPropertyOp25
 70
     1
102
RTVSPropertyOp26
 70
     1
102
RTVSPropertyOp27
 70
     1
  0
XRECORD
  5
13F
102
{ACAD_REACTORS
330
13E
102
}
330
13E
100
AcDbXrecord
280
     1
102
RTVSPropertyOp0
 70
     1
102
RTVSPropertyOp1
 70
     1
102
RTVSPropertyOp2
 70
     1
102
RTVSPropertyOp3
 70
     1
102
RTVSPropertyOp4
 70
     1
102
RTVSPropertyOp5
 70
     1
102
RTVSPropertyOp6
 70
     1
102
RTVSPropertyOp7
 70
     1
102
RTVSPropertyOp8
 70
     1
102
RTVSPropertyOp9
 70
     1
102
RTVSPropertyOp10
 70
     1
102
RTVSPropertyOp11
 70
     1
102
RTVSPropertyOp12
 70
     1
102
RTVSPropertyOp13
 70
     1
102
RTVSPropertyOp14
 70
     1
102
RTVSPropertyOp15
 70
     1
102
RTVSPropertyOp16
 70
     1
102
RTVSPropertyOp17
 70
     1
102
RTVSPropertyOp18
 70
     1
102
RTVSPropertyOp19
 70
     1
102
RTVSPropertyOp20
 70
     1
102
RTVSPropertyOp21
 70
     1
102
RTVSPropertyOp22
 70
     1
102
RTVSPropertyOp23
 70
     1
102
RTVSPropertyOp24
 70
     1
102
RTVSPropertyOp25
 70
     1
102
RTVSPropertyOp26
 70
     1
102
RTVSPropertyOp27
 70
     1
  0
XRECORD
  5
147
102
{ACAD_REACTORS
330
146
102
}
330
146
100
AcDbXrecord
280
     1
102
RTVSPropertyOp0
 70
     1
102
RTVSPropertyOp1
 70
     1
102
RTVSPropertyOp2
 70
     1
102
RTVSPropertyOp3
 70
     1
102
RTVSPropertyOp4
 70
     1
102
RTVSPropertyOp5
 70
     1
102
RTVSPropertyOp6
 70
     1
102
RTVSPropertyOp7
 70
     1
102
RTVSPropertyOp8
 70
     1
102
RTVSPropertyOp9
 70
     1
102
RTVSPropertyOp10
 70
     1
102
RTVSPropertyOp11
 70
     1
102
RTVSPropertyOp12
 70
     1
102
RTVSPropertyOp13
 70
     1
102
RTVSPropertyOp14
 70
     1
102
RTVSPropertyOp15
 70
     1
102
RTVSPropertyOp16
 70
     1
102
RTVSPropertyOp17
 70
     1
102
RTVSPropertyOp18
 70
     1
102
RTVSPropertyOp19
 70
     1
102
RTVSPropertyOp20
 70
     1
102
RTVSPropertyOp21
 70
     1
102
RTVSPropertyOp22
 70
     1
102
RTVSPropertyOp23
 70
     1
102
RTVSPropertyOp24
 70
     1
102
RTVSPropertyOp25
 70
     1
102
RTVSPropertyOp26
 70
     1
102
RTVSPropertyOp27
 70
     1
  0
ENDSEC
  0
EOF
