  0
SECTION
  2
HEADER
  9
$ACADVER
  1
AC1014
  9
$ACADMAINTVER
 70
     9
  9
$DWGCODEPAGE
  3
ANSI_1250
  9
$INSBASE
 10
0.0
 20
0.0
 30
0.0
  9
$EXTMIN
 10
-34.8853
 20
-25.5916
 30
0.0
  9
$EXTMAX
 10
32.9744
 20
25.1807
 30
0.0
  9
$LIMMIN
 10
0.0
 20
0.0
  9
$LIMMAX
 10
12.0
 20
9.0
  9
$ORTHOMODE
 70
     0
  9
$REGENMODE
 70
     1
  9
$FILLMODE
 70
     1
  9
$QTEXTMODE
 70
     0
  9
$MIRRTEXT
 70
     1
  9
$DRAGMODE
 70
     2
  9
$LTSCALE
 40
1.0
  9
$OSMODE
 70
    37
  9
$ATTMODE
 70
     1
  9
$TEXTSIZE
 40
0.2
  9
$TRACEWID
 40
0.05
  9
$TEXTSTYLE
  7
STANDARD
  9
$CLAYER
  8
0
  9
$CELTYPE
  6
BYLAYER
  9
$CECOLOR
 62
   256
  9
$CELTSCALE
 40
1.0
  9
$DELOBJ
 70
     1
  9
$DISPSILH
 70
     0
  9
$DIMSCALE
 40
1.0
  9
$DIMASZ
 40
0.18
  9
$DIMEXO
 40
0.0625
  9
$DIMDLI
 40
0.38
  9
$DIMRND
 40
0.0
  9
$DIMDLE
 40
0.0
  9
$DIMEXE
 40
0.18
  9
$DIMTP
 40
0.0
  9
$DIMTM
 40
0.0
  9
$DIMTXT
 40
0.18
  9
$DIMCEN
 40
0.09
  9
$DIMTSZ
 40
0.0
  9
$DIMTOL
 70
     0
  9
$DIMLIM
 70
     0
  9
$DIMTIH
 70
     1
  9
$DIMTOH
 70
     1
  9
$DIMSE1
 70
     0
  9
$DIMSE2
 70
     0
  9
$DIMTAD
 70
     0
  9
$DIMZIN
 70
     0
  9
$DIMBLK
  1

  9
$DIMASO
 70
     1
  9
$DIMSHO
 70
     1
  9
$DIMPOST
  1

  9
$DIMAPOST
  1

  9
$DIMALT
 70
     0
  9
$DIMALTD
 70
     2
  9
$DIMALTF
 40
25.4
  9
$DIMLFAC
 40
1.0
  9
$DIMTOFL
 70
     0
  9
$DIMTVP
 40
0.0
  9
$DIMTIX
 70
     0
  9
$DIMSOXD
 70
     0
  9
$DIMSAH
 70
     0
  9
$DIMBLK1
  1

  9
$DIMBLK2
  1

  9
$DIMSTYLE
  2
STANDARD
  9
$DIMCLRD
 70
     0
  9
$DIMCLRE
 70
     0
  9
$DIMCLRT
 70
     0
  9
$DIMTFAC
 40
1.0
  9
$DIMGAP
 40
0.09
  9
$DIMJUST
 70
     0
  9
$DIMSD1
 70
     0
  9
$DIMSD2
 70
     0
  9
$DIMTOLJ
 70
     1
  9
$DIMTZIN
 70
     0
  9
$DIMALTZ
 70
     0
  9
$DIMALTTZ
 70
     0
  9
$DIMFIT
 70
     3
  9
$DIMUPT
 70
     0
  9
$DIMUNIT
 70
     2
  9
$DIMDEC
 70
     4
  9
$DIMTDEC
 70
     4
  9
$DIMALTU
 70
     2
  9
$DIMALTTD
 70
     2
  9
$DIMTXSTY
  7
STANDARD
  9
$DIMAUNIT
 70
     0
  9
$LUNITS
 70
     2
  9
$LUPREC
 70
     4
  9
$SKETCHINC
 40
0.1
  9
$FILLETRAD
 40
0.5
  9
$AUNITS
 70
     0
  9
$AUPREC
 70
     0
  9
$MENU
  1
.
  9
$ELEVATION
 40
0.0
  9
$PELEVATION
 40
0.0
  9
$THICKNESS
 40
0.0
  9
$LIMCHECK
 70
     0
  9
$CHAMFERA
 40
0.5
  9
$CHAMFERB
 40
0.5
  9
$CHAMFERC
 40
1.0
  9
$CHAMFERD
 40
0.0
  9
$SKPOLY
 70
     0
  9
$TDCREATE
 40
2456272.408060474
  9
$TDUPDATE
 40
2456272.408060486
  9
$TDINDWG
 40
0.0000000116
  9
$TDUSRTIMER
 40
0.0000000116
  9
$USRTIMER
 70
     1
  9
$ANGBASE
 50
0.0
  9
$ANGDIR
 70
     0
  9
$PDMODE
 70
     0
  9
$PDSIZE
 40
0.0
  9
$PLINEWID
 40
0.0
  9
$COORDS
 70
     1
  9
$SPLFRAME
 70
     0
  9
$SPLINETYPE
 70
     6
  9
$SPLINESEGS
 70
     8
  9
$ATTDIA
 70
     0
  9
$ATTREQ
 70
     1
  9
$HANDLING
 70
     1
  9
$HANDSEED
  5
BF
  9
$SURFTAB1
 70
     6
  9
$SURFTAB2
 70
     6
  9
$SURFTYPE
 70
     6
  9
$SURFU
 70
     6
  9
$SURFV
 70
     6
  9
$UCSNAME
  2

  9
$UCSORG
 10
0.0
 20
0.0
 30
0.0
  9
$UCSXDIR
 10
1.0
 20
0.0
 30
0.0
  9
$UCSYDIR
 10
0.0
 20
1.0
 30
0.0
  9
$PUCSNAME
  2

  9
$PUCSORG
 10
0.0
 20
0.0
 30
0.0
  9
$PUCSXDIR
 10
1.0
 20
0.0
 30
0.0
  9
$PUCSYDIR
 10
0.0
 20
1.0
 30
0.0
  9
$USERI1
 70
     0
  9
$USERI2
 70
     0
  9
$USERI3
 70
     0
  9
$USERI4
 70
     0
  9
$USERI5
 70
     0
  9
$USERR1
 40
0.0
  9
$USERR2
 40
0.0
  9
$USERR3
 40
0.0
  9
$USERR4
 40
0.0
  9
$USERR5
 40
0.0
  9
$WORLDVIEW
 70
     1
  9
$SHADEDGE
 70
     3
  9
$SHADEDIF
 70
    70
  9
$TILEMODE
 70
     1
  9
$MAXACTVP
 70
    64
  9
$PINSBASE
 10
0.0
 20
0.0
 30
0.0
  9
$PLIMCHECK
 70
     0
  9
$PEXTMIN
 10
1.000000000000000E+20
 20
1.000000000000000E+20
 30
1.000000000000000E+20
  9
$PEXTMAX
 10
-1.000000000000000E+20
 20
-1.000000000000000E+20
 30
-1.000000000000000E+20
  9
$PLIMMIN
 10
0.0
 20
0.0
  9
$PLIMMAX
 10
12.0
 20
9.0
  9
$UNITMODE
 70
     0
  9
$VISRETAIN
 70
     1
  9
$PLINEGEN
 70
     0
  9
$PSLTSCALE
 70
     1
  9
$TREEDEPTH
 70
  3020
  9
$PICKSTYLE
 70
     1
  9
$CMLSTYLE
  2
STANDARD
  9
$CMLJUST
 70
     0
  9
$CMLSCALE
 40
1.0
  9
$PROXYGRAPHICS
 70
     1
  9
$MEASUREMENT
 70
     0
  0
ENDSEC
  0
SECTION
  2
CLASSES
  0
CLASS
  1
ACDBDICTIONARYWDFLT
  2
AcDbDictionaryWithDefault
  3
ObjectDBX Classes
 90
        0
280
     0
281
     0
  0
CLASS
  1
VISUALSTYLE
  2
AcDbVisualStyle
  3
ObjectDBX Classes
 90
     4095
280
     0
281
     0
  0
CLASS
  1
MATERIAL
  2
AcDbMaterial
  3
ObjectDBX Classes
 90
     1153
280
     0
281
     0
  0
CLASS
  1
DICTIONARYVAR
  2
AcDbDictionaryVar
  3
ObjectDBX Classes
 90
        0
280
     0
281
     0
  0
CLASS
  1
XRECORD
  2
AcDbXrecord
  3
AutoCAD 2000
 90
        0
280
     0
281
     0
  0
CLASS
  1
LWPOLYLINE
  2
AcDbPolyline
  3
AutoCAD 2000
 90
        0
280
     0
281
     1
  0
CLASS
  1
HATCH
  2
AcDbHatch
  3
AutoCAD 2000
 90
        0
280
     0
281
     1
  0
CLASS
  1
ACDBPLACEHOLDER
  2
AcDbPlaceHolder
  3
ObjectDBX Classes
 90
        0
280
     0
281
     0
  0
CLASS
  1
LAYOUT
  2
AcDbLayout
  3
ObjectDBX Classes
 90
        0
280
     0
281
     0
  0
ENDSEC
  0
SECTION
  2
TABLES
  0
TABLE
  2
VPORT
  5
8
330
0
100
AcDbSymbolTable
 70
     1
  0
VPORT
  5
29
330
8
100
AcDbSymbolTableRecord
100
AcDbViewportTableRecord
  2
*ACTIVE
 70
     0
 10
0.0
 20
0.0
 11
1.0
 21
1.0
 12
10.42990654205607
 22
4.5
 13
0.0
 23
0.0
 14
0.5
 24
0.5
 15
0.5
 25
0.5
 16
0.0
 26
0.0
 36
1.0
 17
0.0
 27
0.0
 37
0.0
 40
9.0
 41
1.972972972850329
 42
50.0
 43
0.0
 44
0.0
 50
0.0
 51
0.0
 71
     0
 72
   100
 73
     1
 74
     3
 75
     0
 76
     0
 77
     0
 78
     0
  0
ENDTAB
  0
TABLE
  2
LTYPE
  5
5
330
0
100
AcDbSymbolTable
 70
     3
  0
LTYPE
  5
14
330
5
100
AcDbSymbolTableRecord
100
AcDbLinetypeTableRecord
  2
BYBLOCK
 70
     0
  3

 72
    65
 73
     0
 40
0.0
  0
LTYPE
  5
15
330
5
100
AcDbSymbolTableRecord
100
AcDbLinetypeTableRecord
  2
BYLAYER
 70
     0
  3

 72
    65
 73
     0
 40
0.0
  0
LTYPE
  5
16
330
5
100
AcDbSymbolTableRecord
100
AcDbLinetypeTableRecord
  2
CONTINUOUS
 70
     0
  3
Solid line
 72
    65
 73
     0
 40
0.0
  0
LTYPE
  5
5E
330
5
100
AcDbSymbolTableRecord
100
AcDbLinetypeTableRecord
  2
NEW_LINE1
 70
     0
  3

 72
    65
 73
     4
 40
1.2
 49
0.5
 74
     4
 75
     0
340
0
 46
1.0
 50
0.0
 44
0.0
 45
0.0
 49
-0.3
 74
     4
 75
     0
340
0
 46
1.0
 50
0.0
 44
0.0
 45
0.0
 49
0.1
 74
     4
 75
     0
340
0
 46
1.0
 50
0.0
 44
0.0
 45
0.0
 49
-0.3
 74
     4
 75
     0
340
0
 46
1.0
 50
0.0
 44
0.0
 45
0.0
  0
LTYPE
  5
61
330
5
100
AcDbSymbolTableRecord
100
AcDbLinetypeTableRecord
  2
NEW_LINE2
 70
     0
  3

 72
    65
 73
     4
 40
1.2
 49
0.5
 74
     4
 75
     0
340
0
 46
1.0
 50
0.0
 44
0.0
 45
0.0
 49
-0.3
 74
     4
 75
     0
340
0
 46
1.0
 50
0.0
 44
0.0
 45
0.0
 49
0.1
 74
     4
 75
     0
340
0
 46
1.0
 50
0.0
 44
0.0
 45
0.0
 49
-0.3
 74
     4
 75
     0
340
0
 46
1.0
 50
0.0
 44
0.0
 45
0.0
  0
ENDTAB
  0
TABLE
  2
LAYER
  5
2
330
0
100
AcDbSymbolTable
 70
     2
  0
LAYER
  5
10
330
2
100
AcDbSymbolTableRecord
100
AcDbLayerTableRecord
  2
0
 70
     0
 62
     7
  6
CONTINUOUS
  0
LAYER
  5
40
330
2
100
AcDbSymbolTableRecord
100
AcDbLayerTableRecord
  2
ROUND
 70
     0
 62
     7
  6
CONTINUOUS
  0
ENDTAB
  0
TABLE
  2
STYLE
  5
3
330
0
100
AcDbSymbolTable
 70
     1
  0
STYLE
  5
11
330
3
100
AcDbSymbolTableRecord
100
AcDbTextStyleTableRecord
  2
STANDARD
 70
     0
 40
0.0
 41
1.0
 50
0.0
 71
     0
 42
0.2
  3
txt
  4

  0
ENDTAB
  0
TABLE
  2
VIEW
  5
6
330
0
100
AcDbSymbolTable
 70
     0
  0
ENDTAB
  0
TABLE
  2
UCS
  5
7
330
0
100
AcDbSymbolTable
 70
     0
  0
ENDTAB
  0
TABLE
  2
APPID
  5
9
330
0
100
AcDbSymbolTable
 70
     2
  0
APPID
  5
12
330
9
100
AcDbSymbolTableRecord
100
AcDbRegAppTableRecord
  2
ACAD
 70
     0
  0
APPID
  5
3F
330
9
100
AcDbSymbolTableRecord
100
AcDbRegAppTableRecord
  2
ODA
 70
     0
  0
ENDTAB
  0
TABLE
  2
DIMSTYLE
  5
A
330
0
100
AcDbSymbolTable
 70
     1
  0
DIMSTYLE
105
27
330
A
100
AcDbSymbolTableRecord
100
AcDbDimStyleTableRecord
  2
STANDARD
 70
     0
  3

  4

  5

  6

  7

 40
1.0
 41
0.18
 42
0.0625
 43
0.38
 44
0.18
 45
0.0
 46
0.0
 47
0.0
 48
0.0
140
0.18
141
0.09
142
0.0
143
25.4
144
1.0
145
0.0
146
1.0
147
0.09
 71
     0
 72
     0
 73
     1
 74
     1
 75
     0
 76
     0
 77
     0
 78
     0
170
     0
171
     2
172
     0
173
     0
174
     0
175
     0
176
     0
177
     0
178
     0
270
     2
271
     4
272
     4
273
     2
274
     2
340
11
275
     0
280
     0
281
     0
282
     0
283
     1
284
     0
285
     0
286
     0
287
     3
288
     0
  0
ENDTAB
  0
TABLE
  2
BLOCK_RECORD
  5
1
330
0
100
AcDbSymbolTable
 70
     1
  0
BLOCK_RECORD
  5
1F
330
1
100
AcDbSymbolTableRecord
100
AcDbBlockTableRecord
  2
*MODEL_SPACE
  0
BLOCK_RECORD
  5
1B
330
1
100
AcDbSymbolTableRecord
100
AcDbBlockTableRecord
  2
*PAPER_SPACE
  0
ENDTAB
  0
ENDSEC
  0
SECTION
  2
BLOCKS
  0
BLOCK
  5
20
330
1F
100
AcDbEntity
  8
0
100
AcDbBlockBegin
  2
*MODEL_SPACE
 70
     0
 10
0.0
 20
0.0
 30
0.0
  3
*MODEL_SPACE
  1

  0
ENDBLK
  5
21
330
1F
100
AcDbEntity
  8
0
100
AcDbBlockEnd
  0
BLOCK
  5
1C
330
1B
100
AcDbEntity
 67
     1
  8
0
100
AcDbBlockBegin
  2
*PAPER_SPACE
 70
     0
 10
0.0
 20
0.0
 30
0.0
  3
*PAPER_SPACE
  1

  0
ENDBLK
  5
1D
330
1B
100
AcDbEntity
 67
     1
  8
0
100
AcDbBlockEnd
  0
ENDSEC
  0
SECTION
  2
ENTITIES
  0
SPLINE
  5
41
330
1F
100
AcDbEntity
  8
ROUND
 62
   250
100
AcDbSpline
210
0.0
220
0.0
230
1.0
 70
    24
 71
     3
 72
     8
 73
     4
 74
     0
 42
0.0000000001
 43
0.0000000001
 40
0.0
 40
0.0
 40
0.0
 40
0.0
 40
1.0
 40
1.0
 40
1.0
 40
1.0
 10
-17.8347
 20
-15.1686
 30
0.0
 10
-17.8347
 20
-15.1686
 30
0.0
 10
-17.7741
 20
-25.4923
 30
0.0
 10
-17.7741
 20
-25.4923
 30
0.0
  0
SPLINE
  5
42
330
1F
100
AcDbEntity
  8
ROUND
 62
   250
100
AcDbSpline
210
0.0
220
0.0
230
1.0
 70
    24
 71
     3
 72
     8
 73
     4
 74
     0
 42
0.0000000001
 43
0.0000000001
 40
0.0
 40
0.0
 40
0.0
 40
0.0
 40
1.0
 40
1.0
 40
1.0
 40
1.0
 10
32.1129
 20
-15.0649
 30
0.0
 10
32.1129
 20
-15.0649
 30
0.0
 10
32.1735
 20
-25.3887
 30
0.0
 10
32.1735
 20
-25.3887
 30
0.0
  0
SPLINE
  5
43
330
1F
100
AcDbEntity
  8
ROUND
 62
   250
100
AcDbSpline
210
0.0
220
0.0
230
1.0
 70
    24
 71
     3
 72
     8
 73
     4
 74
     0
 42
0.0000000001
 43
0.0000000001
 40
0.0
 40
0.0
 40
0.0
 40
0.0
 40
1.0
 40
1.0
 40
1.0
 40
1.0
 10
-24.1858
 20
15.5681
 30
0.0
 10
-24.1858
 20
15.5681
 30
0.0
 10
-24.1858
 20
23.0075
 30
0.0
 10
-24.1858
 20
23.0075
 30
0.0
  0
SPLINE
  5
44
330
1F
100
AcDbEntity
  8
ROUND
 62
   250
100
AcDbSpline
210
0.0
220
0.0
230
1.0
 70
    24
 71
     3
 72
     8
 73
     4
 74
     0
 42
0.0000000001
 43
0.0000000001
 40
0.0
 40
0.0
 40
0.0
 40
0.0
 40
1.0
 40
1.0
 40
1.0
 40
1.0
 10
28.6434
 20
15.7524
 30
0.0
 10
28.6434
 20
15.7524
 30
0.0
 10
28.6434
 20
23.0075
 30
0.0
 10
28.6434
 20
23.0075
 30
0.0
  0
SPLINE
  5
45
330
1F
100
AcDbEntity
  8
ROUND
 62
   250
100
AcDbSpline
210
0.0
220
0.0
230
1.0
 70
    24
 71
     3
 72
     8
 73
     4
 74
     0
 42
0.0000000001
 43
0.0000000001
 40
0.0
 40
0.0
 40
0.0
 40
0.0
 40
1.0
 40
1.0
 40
1.0
 40
1.0
 10
-18.5551
 20
-15.2418
 30
0.0
 10
-18.5551
 20
-15.2418
 30
0.0
 10
-32.6248
 20
-15.2909
 30
0.0
 10
-32.6248
 20
-15.2909
 30
0.0
  0
SPLINE
  5
46
330
1F
100
AcDbEntity
  8
ROUND
 62
   250
100
AcDbSpline
210
0.0
220
0.0
230
1.0
 70
    24
 71
     3
 72
     8
 73
     4
 74
     0
 42
0.0000000001
 43
0.0000000001
 40
0.0
 40
0.0
 40
0.0
 40
0.0
 40
1.0
 40
1.0
 40
1.0
 40
1.0
 10
-19.3862
 20
16.4532
 30
0.0
 10
-19.3862
 20
16.4532
 30
0.0
 10
-32.7354
 20
16.4065
 30
0.0
 10
-32.7354
 20
16.4065
 30
0.0
  0
SPLINE
  5
47
330
1F
100
AcDbEntity
  8
ROUND
 62
   250
100
AcDbSpline
210
0.0
220
0.0
230
1.0
 70
    24
 71
     3
 72
     8
 73
     4
 74
     0
 42
0.0000000001
 43
0.0000000001
 40
0.0
 40
0.0
 40
0.0
 40
0.0
 40
1.0
 40
1.0
 40
1.0
 40
1.0
 10
-18.5937
 20
-4.1957
 30
0.0
 10
-18.5937
 20
-4.1957
 30
0.0
 10
-18.6188
 20
3.0082
 30
0.0
 10
-18.6188
 20
3.0082
 30
0.0
  0
SPLINE
  5
48
330
1F
100
AcDbEntity
  8
ROUND
 62
   250
100
AcDbSpline
210
0.0
220
0.0
230
1.0
 70
    24
 71
     3
 72
     8
 73
     4
 74
     0
 42
0.0000000001
 43
0.0000000001
 40
0.0
 40
0.0
 40
0.0
 40
0.0
 40
1.0
 40
1.0
 40
1.0
 40
1.0
 10
31.7024
 20
-3.7474
 30
0.0
 10
31.7024
 20
-3.7474
 30
0.0
 10
24.2733
 20
-1.9176
 30
0.0
 10
24.2733
 20
-1.9176
 30
0.0
  0
SPLINE
  5
49
330
1F
100
AcDbEntity
  8
ROUND
 62
   250
100
AcDbSpline
210
0.0
220
0.0
230
1.0
 70
    24
 71
     3
 72
     8
 73
     4
 74
     0
 42
0.0000000001
 43
0.0000000001
 40
0.0
 40
0.0
 40
0.0
 40
0.0
 40
1.0
 40
1.0
 40
1.0
 40
1.0
 10
-24.1499
 20
5.2981
 30
0.0
 10
-24.1499
 20
5.2981
 30
0.0
 10
28.6786
 20
5.6669
 30
0.0
 10
28.6786
 20
5.6669
 30
0.0
  0
SPLINE
  5
4A
330
1F
100
AcDbEntity
  8
ROUND
 62
   250
100
AcDbSpline
210
0.0
220
0.0
230
1.0
 70
    24
 71
     3
 72
     8
 73
     4
 74
     0
 42
0.0000000001
 43
0.0000000001
 40
0.0
 40
0.0
 40
0.0
 40
0.0
 40
1.0
 40
1.0
 40
1.0
 40
1.0
 10
-24.1531
 20
6.2029
 30
0.0
 10
-24.1531
 20
6.2029
 30
0.0
 10
28.6767
 20
6.2029
 30
0.0
 10
28.6767
 20
6.2029
 30
0.0
  0
SPLINE
  5
4B
330
1F
100
AcDbEntity
  8
ROUND
 62
   250
100
AcDbSpline
210
0.0
220
0.0
230
1.0
 70
    24
 71
     3
 72
     8
 73
     4
 74
     0
 42
0.0000000001
 43
0.0000000001
 40
0.0
 40
0.0
 40
0.0
 40
0.0
 40
1.0
 40
1.0
 40
1.0
 40
1.0
 10
-24.1608
 20
8.4198
 30
0.0
 10
-24.1608
 20
8.4198
 30
0.0
 10
28.6677
 20
8.7886
 30
0.0
 10
28.6677
 20
8.7886
 30
0.0
  0
SPLINE
  5
4C
330
1F
100
AcDbEntity
  8
ROUND
 62
   250
100
AcDbSpline
210
0.0
220
0.0
230
1.0
 70
    24
 71
     3
 72
     8
 73
     4
 74
     0
 42
0.0000000001
 43
0.0000000001
 40
0.0
 40
0.0
 40
0.0
 40
0.0
 40
1.0
 40
1.0
 40
1.0
 40
1.0
 10
-24.164
 20
9.3246
 30
0.0
 10
-24.164
 20
9.3246
 30
0.0
 10
28.6659
 20
9.3246
 30
0.0
 10
28.6659
 20
9.3246
 30
0.0
  0
SPLINE
  5
4D
330
1F
100
AcDbEntity
  8
ROUND
 62
   250
100
AcDbSpline
210
0.0
220
0.0
230
1.0
 70
    24
 71
     3
 72
     8
 73
     4
 74
     0
 42
0.0000000001
 43
0.0000000001
 40
0.0
 40
0.0
 40
0.0
 40
0.0
 40
1.0
 40
1.0
 40
1.0
 40
1.0
 10
-24.1717
 20
11.5415
 30
0.0
 10
-24.1717
 20
11.5415
 30
0.0
 10
28.6568
 20
11.9103
 30
0.0
 10
28.6568
 20
11.9103
 30
0.0
  0
SPLINE
  5
4E
330
1F
100
AcDbEntity
  8
ROUND
 62
   250
100
AcDbSpline
210
0.0
220
0.0
230
1.0
 70
    24
 71
     3
 72
     8
 73
     4
 74
     0
 42
0.0000000001
 43
0.0000000001
 40
0.0
 40
0.0
 40
0.0
 40
0.0
 40
1.0
 40
1.0
 40
1.0
 40
1.0
 10
-24.1749
 20
12.4463
 30
0.0
 10
-24.1749
 20
12.4463
 30
0.0
 10
28.655
 20
12.4463
 30
0.0
 10
28.655
 20
12.4463
 30
0.0
  0
SPLINE
  5
4F
330
1F
100
AcDbEntity
  8
ROUND
 62
   250
100
AcDbSpline
210
0.0
220
0.0
230
1.0
 70
    24
 71
     3
 72
     8
 73
     4
 74
     0
 42
0.0000000001
 43
0.0000000001
 40
0.0
 40
0.0
 40
0.0
 40
0.0
 40
1.0
 40
1.0
 40
1.0
 40
1.0
 10
-24.1826
 20
14.6632
 30
0.0
 10
-24.1826
 20
14.6632
 30
0.0
 10
28.6459
 20
15.032
 30
0.0
 10
28.6459
 20
15.032
 30
0.0
  0
SPLINE
  5
50
330
1F
100
AcDbEntity
  8
ROUND
 62
   250
100
AcDbSpline
210
0.0
220
0.0
230
1.0
 70
    24
 71
     3
 72
     8
 73
     4
 74
     0
 42
0.0000000001
 43
0.0000000001
 40
0.0
 40
0.0
 40
0.0
 40
0.0
 40
1.0
 40
1.0
 40
1.0
 40
1.0
 10
-24.1858
 20
15.5681
 30
0.0
 10
-24.1858
 20
15.5681
 30
0.0
 10
28.6441
 20
15.5681
 30
0.0
 10
28.6441
 20
15.5681
 30
0.0
  0
SPLINE
  5
51
330
1F
100
AcDbEntity
  8
ROUND
 62
   250
100
AcDbSpline
210
0.0
220
0.0
230
1.0
 70
    24
 71
     3
 72
     8
 73
     4
 74
     0
 42
0.0000000001
 43
0.0000000001
 40
0.0
 40
0.0
 40
0.0
 40
0.0
 40
1.0
 40
1.0
 40
1.0
 40
1.0
 10
23.1771
 20
-0.5237
 30
0.0
 10
23.1771
 20
-0.5237
 30
0.0
 10
23.1642
 20
3.1541
 30
0.0
 10
23.1642
 20
3.1541
 30
0.0
  0
SPLINE
  5
52
330
1F
100
AcDbEntity
  8
ROUND
 62
   250
100
AcDbSpline
210
0.0
220
0.0
230
1.0
 70
    24
 71
     3
 72
     8
 73
     4
 74
     0
 42
0.0000000001
 43
0.0000000001
 40
0.0
 40
0.0
 40
0.0
 40
0.0
 40
1.0
 40
1.0
 40
1.0
 40
1.0
 10
-24.1858
 20
15.5681
 30
0.0
 10
-24.1858
 20
15.5681
 30
0.0
 10
-24.1826
 20
14.6632
 30
0.0
 10
-24.1826
 20
14.6632
 30
0.0
  0
SPLINE
  5
53
330
1F
100
AcDbEntity
  8
ROUND
 62
   250
100
AcDbSpline
210
0.0
220
0.0
230
1.0
 70
    24
 71
     3
 72
     8
 73
     4
 74
     0
 42
0.0000000001
 43
0.0000000001
 40
0.0
 40
0.0
 40
0.0
 40
0.0
 40
1.0
 40
1.0
 40
1.0
 40
1.0
 10
-24.1749
 20
12.4463
 30
0.0
 10
-24.1749
 20
12.4463
 30
0.0
 10
-24.1717
 20
11.5415
 30
0.0
 10
-24.1717
 20
11.5415
 30
0.0
  0
SPLINE
  5
54
330
1F
100
AcDbEntity
  8
ROUND
 62
   250
100
AcDbSpline
210
0.0
220
0.0
230
1.0
 70
    24
 71
     3
 72
     8
 73
     4
 74
     0
 42
0.0000000001
 43
0.0000000001
 40
0.0
 40
0.0
 40
0.0
 40
0.0
 40
1.0
 40
1.0
 40
1.0
 40
1.0
 10
-24.164
 20
9.3246
 30
0.0
 10
-24.164
 20
9.3246
 30
0.0
 10
-24.1608
 20
8.4198
 30
0.0
 10
-24.1608
 20
8.4198
 30
0.0
  0
SPLINE
  5
55
330
1F
100
AcDbEntity
  8
ROUND
 62
   250
100
AcDbSpline
210
0.0
220
0.0
230
1.0
 70
    24
 71
     3
 72
     8
 73
     4
 74
     0
 42
0.0000000001
 43
0.0000000001
 40
0.0
 40
0.0
 40
0.0
 40
0.0
 40
1.0
 40
1.0
 40
1.0
 40
1.0
 10
-24.1531
 20
6.2029
 30
0.0
 10
-24.1531
 20
6.2029
 30
0.0
 10
-24.1499
 20
5.2981
 30
0.0
 10
-24.1499
 20
5.2981
 30
0.0
  0
SPLINE
  5
56
330
1F
100
AcDbEntity
  8
ROUND
 62
   250
100
AcDbSpline
210
0.0
220
0.0
230
1.0
 70
    24
 71
     3
 72
     8
 73
     4
 74
     0
 42
0.0000000001
 43
0.0000000001
 40
0.0
 40
0.0
 40
0.0
 40
0.0
 40
1.0
 40
1.0
 40
1.0
 40
1.0
 10
-19.3862
 20
16.4532
 30
0.0
 10
-19.3862
 20
16.4532
 30
0.0
 10
-19.383
 20
15.5681
 30
0.0
 10
-19.383
 20
15.5681
 30
0.0
  0
SPLINE
  5
57
330
1F
100
AcDbEntity
  8
ROUND
 62
   250
100
AcDbSpline
210
0.0
220
0.0
230
1.0
 70
    24
 71
     3
 72
     8
 73
     4
 74
     0
 42
0.0000000001
 43
0.0000000001
 40
0.0
 40
0.0
 40
0.0
 40
0.0
 40
1.0
 40
1.0
 40
1.0
 40
1.0
 10
-19.38
 20
14.6968
 30
0.0
 10
-19.38
 20
14.6968
 30
0.0
 10
-19.3721
 20
12.4463
 30
0.0
 10
-19.3721
 20
12.4463
 30
0.0
  0
SPLINE
  5
58
330
1F
100
AcDbEntity
  8
ROUND
 62
   250
100
AcDbSpline
210
0.0
220
0.0
230
1.0
 70
    24
 71
     3
 72
     8
 73
     4
 74
     0
 42
0.0000000001
 43
0.0000000001
 40
0.0
 40
0.0
 40
0.0
 40
0.0
 40
1.0
 40
1.0
 40
1.0
 40
1.0
 10
-19.3691
 20
11.5751
 30
0.0
 10
-19.3691
 20
11.5751
 30
0.0
 10
-19.3613
 20
9.3246
 30
0.0
 10
-19.3613
 20
9.3246
 30
0.0
  0
SPLINE
  5
59
330
1F
100
AcDbEntity
  8
ROUND
 62
   250
100
AcDbSpline
210
0.0
220
0.0
230
1.0
 70
    24
 71
     3
 72
     8
 73
     4
 74
     0
 42
0.0000000001
 43
0.0000000001
 40
0.0
 40
0.0
 40
0.0
 40
0.0
 40
1.0
 40
1.0
 40
1.0
 40
1.0
 10
-19.3582
 20
8.4533
 30
0.0
 10
-19.3582
 20
8.4533
 30
0.0
 10
-19.3504
 20
6.2029
 30
0.0
 10
-19.3504
 20
6.2029
 30
0.0
  0
SPLINE
  5
5A
330
1F
100
AcDbEntity
  8
ROUND
 62
   250
100
AcDbSpline
210
0.0
220
0.0
230
1.0
 70
    24
 71
     3
 72
     8
 73
     4
 74
     0
 42
0.0000000001
 43
0.0000000001
 40
0.0
 40
0.0
 40
0.0
 40
0.0
 40
1.0
 40
1.0
 40
1.0
 40
1.0
 10
-19.3473
 20
5.3316
 30
0.0
 10
-19.3473
 20
5.3316
 30
0.0
 10
-19.3392
 20
3.0057
 30
0.0
 10
-19.3392
 20
3.0057
 30
0.0
  0
SPLINE
  5
5B
330
1F
100
AcDbEntity
  8
ROUND
 62
   250
100
AcDbSpline
210
0.0
220
0.0
230
1.0
 70
    24
 71
     3
 72
     8
 73
     4
 74
     0
 42
0.0000000001
 43
0.0000000001
 40
0.0
 40
0.0
 40
0.0
 40
0.0
 40
1.0
 40
1.0
 40
1.0
 40
1.0
 10
-18.5937
 20
-4.1957
 30
0.0
 10
-18.5937
 20
-4.1957
 30
0.0
 10
-18.5551
 20
-15.2418
 30
0.0
 10
-18.5551
 20
-15.2418
 30
0.0
  0
SPLINE
  5
5C
330
1F
100
AcDbEntity
  8
ROUND
 62
   250
100
AcDbSpline
210
0.0
220
0.0
230
1.0
 70
    24
 71
     3
 72
     8
 73
     4
 74
     0
 42
0.0000000001
 43
0.0000000001
 40
0.0
 40
0.0
 40
0.0
 40
0.0
 40
1.0
 40
1.0
 40
1.0
 40
1.0
 10
32.8333
 20
-15.0625
 30
0.0
 10
32.8333
 20
-15.0625
 30
0.0
 10
-18.5551
 20
-15.2418
 30
0.0
 10
-18.5551
 20
-15.2418
 30
0.0
  0
SPLINE
  5
5D
330
1F
100
AcDbEntity
  8
ROUND
  6
NEW_LINE1
 62
   250
100
AcDbSpline
210
0.0
220
0.0
230
1.0
 70
    24
 71
     3
 72
     8
 73
     4
 74
     0
 42
0.0000000001
 43
0.0000000001
 40
0.0
 40
0.0
 40
0.0
 40
0.0
 40
1.0
 40
1.0
 40
1.0
 40
1.0
 10
2.2912
 20
-20.4741
 30
0.0
 10
2.2912
 20
-20.4741
 30
0.0
 10
2.2241
 20
17.0088
 30
0.0
 10
2.2241
 20
17.0088
 30
0.0
  0
SPLINE
  5
5F
330
1F
100
AcDbEntity
  8
ROUND
 62
   250
100
AcDbSpline
210
0.0
220
0.0
230
1.0
 70
    24
 71
     3
 72
     8
 73
     4
 74
     0
 42
0.0000000001
 43
0.0000000001
 40
0.0
 40
0.0
 40
0.0
 40
0.0
 40
1.0
 40
1.0
 40
1.0
 40
1.0
 10
-19.3392
 20
3.0057
 30
0.0
 10
-19.3392
 20
3.0057
 30
0.0
 10
23.8846
 20
3.1566
 30
0.0
 10
23.8846
 20
3.1566
 30
0.0
  0
SPLINE
  5
60
330
1F
100
AcDbEntity
  8
ROUND
  6
NEW_LINE2
 62
   250
100
AcDbSpline
210
0.0
220
0.0
230
1.0
 70
    24
 71
     3
 72
     8
 73
     4
 74
     0
 42
0.0000000001
 43
0.0000000001
 40
0.0
 40
0.0
 40
0.0
 40
0.0
 40
1.0
 40
1.0
 40
1.0
 40
1.0
 10
7.1496
 20
-20.4154
 30
0.0
 10
7.1496
 20
-20.4154
 30
0.0
 10
7.0989
 20
-0.1808
 30
0.0
 10
7.0989
 20
-0.1808
 30
0.0
  0
SPLINE
  5
62
330
1F
100
AcDbEntity
  8
ROUND
 62
   250
100
AcDbSpline
210
0.0
220
0.0
230
1.0
 70
    24
 71
     3
 72
     8
 73
     4
 74
     0
 42
0.0000000001
 43
0.0000000001
 40
0.0
 40
0.0
 40
0.0
 40
0.0
 40
1.0
 40
1.0
 40
1.0
 40
1.0
 10
-19.3862
 20
16.4532
 30
0.0
 10
-19.3862
 20
16.4532
 30
0.0
 10
23.8377
 20
16.604
 30
0.0
 10
23.8377
 20
16.604
 30
0.0
  0
SPLINE
  5
63
330
1F
100
AcDbEntity
  8
ROUND
 62
   250
100
AcDbSpline
210
0.0
220
0.0
230
1.0
 70
    24
 71
     3
 72
     8
 73
     4
 74
     0
 42
0.0000000001
 43
0.0000000001
 40
0.0
 40
0.0
 40
0.0
 40
0.0
 40
1.0
 40
1.0
 40
1.0
 40
1.0
 10
23.8377
 20
16.604
 30
0.0
 10
23.8377
 20
16.604
 30
0.0
 10
23.8413
 20
15.5681
 30
0.0
 10
23.8413
 20
15.5681
 30
0.0
  0
SPLINE
  5
64
330
1F
100
AcDbEntity
  8
ROUND
 62
   250
100
AcDbSpline
210
0.0
220
0.0
230
1.0
 70
    24
 71
     3
 72
     8
 73
     4
 74
     0
 42
0.0000000001
 43
0.0000000001
 40
0.0
 40
0.0
 40
0.0
 40
0.0
 40
1.0
 40
1.0
 40
1.0
 40
1.0
 10
23.8433
 20
14.9985
 30
0.0
 10
23.8433
 20
14.9985
 30
0.0
 10
23.8522
 20
12.4463
 30
0.0
 10
23.8522
 20
12.4463
 30
0.0
  0
SPLINE
  5
65
330
1F
100
AcDbEntity
  8
ROUND
 62
   250
100
AcDbSpline
210
0.0
220
0.0
230
1.0
 70
    24
 71
     3
 72
     8
 73
     4
 74
     0
 42
0.0000000001
 43
0.0000000001
 40
0.0
 40
0.0
 40
0.0
 40
0.0
 40
1.0
 40
1.0
 40
1.0
 40
1.0
 10
23.8542
 20
11.8768
 30
0.0
 10
23.8542
 20
11.8768
 30
0.0
 10
23.8631
 20
9.3246
 30
0.0
 10
23.8631
 20
9.3246
 30
0.0
  0
SPLINE
  5
66
330
1F
100
AcDbEntity
  8
ROUND
 62
   250
100
AcDbSpline
210
0.0
220
0.0
230
1.0
 70
    24
 71
     3
 72
     8
 73
     4
 74
     0
 42
0.0000000001
 43
0.0000000001
 40
0.0
 40
0.0
 40
0.0
 40
0.0
 40
1.0
 40
1.0
 40
1.0
 40
1.0
 10
23.8651
 20
8.7551
 30
0.0
 10
23.8651
 20
8.7551
 30
0.0
 10
23.874
 20
6.2029
 30
0.0
 10
23.874
 20
6.2029
 30
0.0
  0
SPLINE
  5
67
330
1F
100
AcDbEntity
  8
ROUND
 62
   250
100
AcDbSpline
210
0.0
220
0.0
230
1.0
 70
    24
 71
     3
 72
     8
 73
     4
 74
     0
 42
0.0000000001
 43
0.0000000001
 40
0.0
 40
0.0
 40
0.0
 40
0.0
 40
1.0
 40
1.0
 40
1.0
 40
1.0
 10
23.876
 20
5.6334
 30
0.0
 10
23.876
 20
5.6334
 30
0.0
 10
23.8846
 20
3.1566
 30
0.0
 10
23.8846
 20
3.1566
 30
0.0
  0
SPLINE
  5
68
330
1F
100
AcDbEntity
  8
ROUND
 62
   250
100
AcDbSpline
210
0.0
220
0.0
230
1.0
 70
    24
 71
     3
 72
     8
 73
     4
 74
     0
 42
0.0000000001
 43
0.0000000001
 40
0.0
 40
0.0
 40
0.0
 40
0.0
 40
1.0
 40
1.0
 40
1.0
 40
1.0
 10
28.6441
 20
15.5681
 30
0.0
 10
28.6441
 20
15.5681
 30
0.0
 10
28.6459
 20
15.032
 30
0.0
 10
28.6459
 20
15.032
 30
0.0
  0
SPLINE
  5
69
330
1F
100
AcDbEntity
  8
ROUND
 62
   250
100
AcDbSpline
210
0.0
220
0.0
230
1.0
 70
    24
 71
     3
 72
     8
 73
     4
 74
     0
 42
0.0000000001
 43
0.0000000001
 40
0.0
 40
0.0
 40
0.0
 40
0.0
 40
1.0
 40
1.0
 40
1.0
 40
1.0
 10
28.655
 20
12.4463
 30
0.0
 10
28.655
 20
12.4463
 30
0.0
 10
28.6568
 20
11.9103
 30
0.0
 10
28.6568
 20
11.9103
 30
0.0
  0
SPLINE
  5
6A
330
1F
100
AcDbEntity
  8
ROUND
 62
   250
100
AcDbSpline
210
0.0
220
0.0
230
1.0
 70
    24
 71
     3
 72
     8
 73
     4
 74
     0
 42
0.0000000001
 43
0.0000000001
 40
0.0
 40
0.0
 40
0.0
 40
0.0
 40
1.0
 40
1.0
 40
1.0
 40
1.0
 10
28.6659
 20
9.3246
 30
0.0
 10
28.6659
 20
9.3246
 30
0.0
 10
28.6677
 20
8.7886
 30
0.0
 10
28.6677
 20
8.7886
 30
0.0
  0
SPLINE
  5
6B
330
1F
100
AcDbEntity
  8
ROUND
 62
   250
100
AcDbSpline
210
0.0
220
0.0
230
1.0
 70
    24
 71
     3
 72
     8
 73
     4
 74
     0
 42
0.0000000001
 43
0.0000000001
 40
0.0
 40
0.0
 40
0.0
 40
0.0
 40
1.0
 40
1.0
 40
1.0
 40
1.0
 10
28.6767
 20
6.2029
 30
0.0
 10
28.6767
 20
6.2029
 30
0.0
 10
28.6786
 20
5.6669
 30
0.0
 10
28.6786
 20
5.6669
 30
0.0
  0
SPLINE
  5
6C
330
1F
100
AcDbEntity
  8
ROUND
 62
   250
100
AcDbSpline
210
0.0
220
0.0
230
1.0
 70
    24
 71
     3
 72
     8
 73
     4
 74
     0
 42
0.0000000001
 43
0.0000000001
 40
0.0
 40
0.0
 40
0.0
 40
0.0
 40
1.0
 40
1.0
 40
1.0
 40
1.0
 10
32.7986
 20
-5.1413
 30
0.0
 10
32.7986
 20
-5.1413
 30
0.0
 10
32.8333
 20
-15.0625
 30
0.0
 10
32.8333
 20
-15.0625
 30
0.0
  0
SPLINE
  5
6D
330
1F
100
AcDbEntity
  8
ROUND
 62
   250
100
AcDbSpline
210
0.0
220
0.0
230
1.0
 70
     8
 71
     3
 72
    28
 73
    24
 74
     0
 42
0.0000000001
 43
0.0000000001
 40
0.0
 40
0.0
 40
0.0
 40
0.0
 40
0.1428571428571428
 40
0.1428571428571428
 40
0.1428571428571428
 40
0.1428571428571428
 40
0.2857142857142857
 40
0.2857142857142857
 40
0.2857142857142857
 40
0.2857142857142857
 40
0.4285714285714285
 40
0.4285714285714285
 40
0.4285714285714285
 40
0.4285714285714285
 40
0.5714285714285714
 40
0.5714285714285714
 40
0.5714285714285714
 40
0.5714285714285714
 40
0.7142857142857143
 40
0.7142857142857143
 40
0.7142857142857143
 40
0.7142857142857143
 40
1.0
 40
1.0
 40
1.0
 40
1.0
 10
24.2733
 20
-1.9176
 30
0.0
 10
24.2733
 20
-1.9176
 30
0.0
 10
24.0449
 20
-1.8406
 30
0.0
 10
24.0449
 20
-1.8406
 30
0.0
 10
24.0449
 20
-1.8406
 30
0.0
 10
24.0449
 20
-1.8406
 30
0.0
 10
23.7362
 20
-1.6582
 30
0.0
 10
23.7362
 20
-1.6582
 30
0.0
 10
23.7362
 20
-1.6582
 30
0.0
 10
23.7362
 20
-1.6582
 30
0.0
 10
23.482
 20
-1.4051
 30
0.0
 10
23.482
 20
-1.4051
 30
0.0
 10
23.482
 20
-1.4051
 30
0.0
 10
23.482
 20
-1.4051
 30
0.0
 10
23.2983
 20
-1.0971
 30
0.0
 10
23.2983
 20
-1.0971
 30
0.0
 10
23.2983
 20
-1.0971
 30
0.0
 10
23.2983
 20
-1.0971
 30
0.0
 10
23.1963
 20
-0.7533
 30
0.0
 10
23.1963
 20
-0.7533
 30
0.0
 10
23.1963
 20
-0.7533
 30
0.0
 10
23.1963
 20
-0.7533
 30
0.0
 10
23.1771
 20
-0.5237
 30
0.0
 10
23.1771
 20
-0.5237
 30
0.0
  0
SPLINE
  5
6E
330
1F
100
AcDbEntity
  8
ROUND
 62
   250
100
AcDbSpline
210
0.0
220
0.0
230
1.0
 70
     8
 71
     3
 72
     8
 73
     4
 74
     0
 42
0.0000000001
 43
0.0000000001
 40
0.0
 40
0.0
 40
0.0
 40
0.0
 40
1.0
 40
1.0
 40
1.0
 40
1.0
 10
32.7986
 20
-5.1413
 30
0.0
 10
32.7963
 20
-4.4802
 30
0.0
 10
32.3444
 20
-3.9055
 30
0.0
 10
31.7024
 20
-3.7474
 30
0.0
  0
SPLINE
  5
6F
330
1F
100
AcDbEntity
  8
ROUND
 62
   250
100
AcDbSpline
210
0.0
220
0.0
230
1.0
 70
     8
 71
     3
 72
    88
 73
    84
 74
     0
 42
0.0000000001
 43
0.0000000001
 40
0.0
 40
0.0
 40
0.0
 40
0.0
 40
0.0454545454545455
 40
0.0454545454545455
 40
0.0454545454545455
 40
0.0454545454545455
 40
0.0909090909090909
 40
0.0909090909090909
 40
0.0909090909090909
 40
0.0909090909090909
 40
0.1363636363636364
 40
0.1363636363636364
 40
0.1363636363636364
 40
0.1363636363636364
 40
0.1818181818181818
 40
0.1818181818181818
 40
0.1818181818181818
 40
0.1818181818181818
 40
0.2272727272727273
 40
0.2272727272727273
 40
0.2272727272727273
 40
0.2272727272727273
 40
0.2727272727272727
 40
0.2727272727272727
 40
0.2727272727272727
 40
0.2727272727272727
 40
0.3181818181818182
 40
0.3181818181818182
 40
0.3181818181818182
 40
0.3181818181818182
 40
0.3636363636363636
 40
0.3636363636363636
 40
0.3636363636363636
 40
0.3636363636363636
 40
0.4090909090909091
 40
0.4090909090909091
 40
0.4090909090909091
 40
0.4090909090909091
 40
0.4545454545454545
 40
0.4545454545454545
 40
0.4545454545454545
 40
0.4545454545454545
 40
0.5
 40
0.5
 40
0.5
 40
0.5
 40
0.5454545454545454
 40
0.5454545454545454
 40
0.5454545454545454
 40
0.5454545454545454
 40
0.5909090909090909
 40
0.5909090909090909
 40
0.5909090909090909
 40
0.5909090909090909
 40
0.6363636363636364
 40
0.6363636363636364
 40
0.6363636363636364
 40
0.6363636363636364
 40
0.6818181818181818
 40
0.6818181818181818
 40
0.6818181818181818
 40
0.6818181818181818
 40
0.7272727272727273
 40
0.7272727272727273
 40
0.7272727272727273
 40
0.7272727272727273
 40
0.7727272727272727
 40
0.7727272727272727
 40
0.7727272727272727
 40
0.7727272727272727
 40
0.8181818181818182
 40
0.8181818181818182
 40
0.8181818181818182
 40
0.8181818181818182
 40
0.8636363636363636
 40
0.8636363636363636
 40
0.8636363636363636
 40
0.8636363636363636
 40
0.9090909090909091
 40
0.9090909090909091
 40
0.9090909090909091
 40
0.9090909090909091
 40
1.0
 40
1.0
 40
1.0
 40
1.0
 10
-18.5793
 20
-4.2467
 30
0.0
 10
-18.5793
 20
-4.2467
 30
0.0
 10
-17.9021
 20
-4.2824
 30
0.0
 10
-17.9021
 20
-4.2824
 30
0.0
 10
-17.9021
 20
-4.2824
 30
0.0
 10
-17.9021
 20
-4.2824
 30
0.0
 10
-16.3183
 20
-4.3643
 30
0.0
 10
-16.3183
 20
-4.3643
 30
0.0
 10
-16.3183
 20
-4.3643
 30
0.0
 10
-16.3183
 20
-4.3643
 30
0.0
 10
-14.3546
 20
-4.4609
 30
0.0
 10
-14.3546
 20
-4.4609
 30
0.0
 10
-14.3546
 20
-4.4609
 30
0.0
 10
-14.3546
 20
-4.4609
 30
0.0
 10
-11.9901
 20
-4.5662
 30
0.0
 10
-11.9901
 20
-4.5662
 30
0.0
 10
-11.9901
 20
-4.5662
 30
0.0
 10
-11.9901
 20
-4.5662
 30
0.0
 10
-9.2588
 20
-4.6706
 30
0.0
 10
-9.2588
 20
-4.6706
 30
0.0
 10
-9.2588
 20
-4.6706
 30
0.0
 10
-9.2588
 20
-4.6706
 30
0.0
 10
-6.2019
 20
-4.7665
 30
0.0
 10
-6.2019
 20
-4.7665
 30
0.0
 10
-6.2019
 20
-4.7665
 30
0.0
 10
-6.2019
 20
-4.7665
 30
0.0
 10
-2.8951
 20
-4.8489
 30
0.0
 10
-2.8951
 20
-4.8489
 30
0.0
 10
-2.8951
 20
-4.8489
 30
0.0
 10
-2.8951
 20
-4.8489
 30
0.0
 10
0.5951
 20
-4.9171
 30
0.0
 10
0.5951
 20
-4.9171
 30
0.0
 10
0.5951
 20
-4.9171
 30
0.0
 10
0.5951
 20
-4.9171
 30
0.0
 10
4.1871
 20
-4.9718
 30
0.0
 10
4.1871
 20
-4.9718
 30
0.0
 10
4.1871
 20
-4.9718
 30
0.0
 10
4.1871
 20
-4.9718
 30
0.0
 10
7.8289
 20
-5.0151
 30
0.0
 10
7.8289
 20
-5.0151
 30
0.0
 10
7.8289
 20
-5.0151
 30
0.0
 10
7.8289
 20
-5.0151
 30
0.0
 10
11.435
 20
-5.0487
 30
0.0
 10
11.435
 20
-5.0487
 30
0.0
 10
11.435
 20
-5.0487
 30
0.0
 10
11.435
 20
-5.0487
 30
0.0
 10
14.954
 20
-5.0746
 30
0.0
 10
14.954
 20
-5.0746
 30
0.0
 10
14.954
 20
-5.0746
 30
0.0
 10
14.954
 20
-5.0746
 30
0.0
 10
18.3026
 20
-5.0943
 30
0.0
 10
18.3026
 20
-5.0943
 30
0.0
 10
18.3026
 20
-5.0943
 30
0.0
 10
18.3026
 20
-5.0943
 30
0.0
 10
21.4327
 20
-5.109
 30
0.0
 10
21.4327
 20
-5.109
 30
0.0
 10
21.4327
 20
-5.109
 30
0.0
 10
21.4327
 20
-5.109
 30
0.0
 10
24.271
 20
-5.1199
 30
0.0
 10
24.271
 20
-5.1199
 30
0.0
 10
24.271
 20
-5.1199
 30
0.0
 10
24.271
 20
-5.1199
 30
0.0
 10
26.7755
 20
-5.1277
 30
0.0
 10
26.7755
 20
-5.1277
 30
0.0
 10
26.7755
 20
-5.1277
 30
0.0
 10
26.7755
 20
-5.1277
 30
0.0
 10
28.8887
 20
-5.1333
 30
0.0
 10
28.8887
 20
-5.1333
 30
0.0
 10
28.8887
 20
-5.1333
 30
0.0
 10
28.8887
 20
-5.1333
 30
0.0
 10
30.5777
 20
-5.1371
 30
0.0
 10
30.5777
 20
-5.1371
 30
0.0
 10
30.5777
 20
-5.1371
 30
0.0
 10
30.5777
 20
-5.1371
 30
0.0
 10
31.8053
 20
-5.1395
 30
0.0
 10
31.8053
 20
-5.1395
 30
0.0
 10
31.8053
 20
-5.1395
 30
0.0
 10
31.8053
 20
-5.1395
 30
0.0
 10
32.5491
 20
-5.1409
 30
0.0
 10
32.5491
 20
-5.1409
 30
0.0
 10
32.5491
 20
-5.1409
 30
0.0
 10
32.5491
 20
-5.1409
 30
0.0
 10
32.7986
 20
-5.1413
 30
0.0
 10
32.7986
 20
-5.1413
 30
0.0
  0
SPLINE
  5
70
330
1F
100
AcDbEntity
  8
ROUND
 62
   250
100
AcDbSpline
210
0.0
220
0.0
230
1.0
 70
     8
 71
     3
 72
    92
 73
    88
 74
     0
 42
0.0000000001
 43
0.0000000001
 40
0.0
 40
0.0
 40
0.0
 40
0.0
 40
0.0434782608695652
 40
0.0434782608695652
 40
0.0434782608695652
 40
0.0434782608695652
 40
0.0869565217391304
 40
0.0869565217391304
 40
0.0869565217391304
 40
0.0869565217391304
 40
0.1304347826086956
 40
0.1304347826086956
 40
0.1304347826086956
 40
0.1304347826086956
 40
0.1739130434782609
 40
0.1739130434782609
 40
0.1739130434782609
 40
0.1739130434782609
 40
0.2173913043478261
 40
0.2173913043478261
 40
0.2173913043478261
 40
0.2173913043478261
 40
0.2608695652173913
 40
0.2608695652173913
 40
0.2608695652173913
 40
0.2608695652173913
 40
0.3043478260869565
 40
0.3043478260869565
 40
0.3043478260869565
 40
0.3043478260869565
 40
0.3478260869565217
 40
0.3478260869565217
 40
0.3478260869565217
 40
0.3478260869565217
 40
0.391304347826087
 40
0.391304347826087
 40
0.391304347826087
 40
0.391304347826087
 40
0.4347826086956522
 40
0.4347826086956522
 40
0.4347826086956522
 40
0.4347826086956522
 40
0.4782608695652174
 40
0.4782608695652174
 40
0.4782608695652174
 40
0.4782608695652174
 40
0.5217391304347826
 40
0.5217391304347826
 40
0.5217391304347826
 40
0.5217391304347826
 40
0.5652173913043478
 40
0.5652173913043478
 40
0.5652173913043478
 40
0.5652173913043478
 40
0.6086956521739131
 40
0.6086956521739131
 40
0.6086956521739131
 40
0.6086956521739131
 40
0.6521739130434783
 40
0.6521739130434783
 40
0.6521739130434783
 40
0.6521739130434783
 40
0.6956521739130435
 40
0.6956521739130435
 40
0.6956521739130435
 40
0.6956521739130435
 40
0.7391304347826086
 40
0.7391304347826086
 40
0.7391304347826086
 40
0.7391304347826086
 40
0.782608695652174
 40
0.782608695652174
 40
0.782608695652174
 40
0.782608695652174
 40
0.8260869565217391
 40
0.8260869565217391
 40
0.8260869565217391
 40
0.8260869565217391
 40
0.8695652173913043
 40
0.8695652173913043
 40
0.8695652173913043
 40
0.8695652173913043
 40
0.9130434782608695
 40
0.9130434782608695
 40
0.9130434782608695
 40
0.9130434782608695
 40
1.0
 40
1.0
 40
1.0
 40
1.0
 10
24.2733
 20
-1.9176
 30
0.0
 10
24.2733
 20
-1.9176
 30
0.0
 10
24.0495
 20
-1.9194
 30
0.0
 10
24.0495
 20
-1.9194
 30
0.0
 10
24.0495
 20
-1.9194
 30
0.0
 10
24.0495
 20
-1.9194
 30
0.0
 10
23.3829
 20
-1.9247
 30
0.0
 10
23.3829
 20
-1.9247
 30
0.0
 10
23.3829
 20
-1.9247
 30
0.0
 10
23.3829
 20
-1.9247
 30
0.0
 10
22.2839
 20
-1.9335
 30
0.0
 10
22.2839
 20
-1.9335
 30
0.0
 10
22.2839
 20
-1.9335
 30
0.0
 10
22.2839
 20
-1.9335
 30
0.0
 10
20.7784
 20
-1.9458
 30
0.0
 10
20.7784
 20
-1.9458
 30
0.0
 10
20.7784
 20
-1.9458
 30
0.0
 10
20.7784
 20
-1.9458
 30
0.0
 10
18.8982
 20
-1.9616
 30
0.0
 10
18.8982
 20
-1.9616
 30
0.0
 10
18.8982
 20
-1.9616
 30
0.0
 10
18.8982
 20
-1.9616
 30
0.0
 10
16.6856
 20
-1.9808
 30
0.0
 10
16.6856
 20
-1.9808
 30
0.0
 10
16.6856
 20
-1.9808
 30
0.0
 10
16.6856
 20
-1.9808
 30
0.0
 10
14.1875
 20
-2.0033
 30
0.0
 10
14.1875
 20
-2.0033
 30
0.0
 10
14.1875
 20
-2.0033
 30
0.0
 10
14.1875
 20
-2.0033
 30
0.0
 10
11.4609
 20
-2.0287
 30
0.0
 10
11.4609
 20
-2.0287
 30
0.0
 10
11.4609
 20
-2.0287
 30
0.0
 10
11.4609
 20
-2.0287
 30
0.0
 10
8.5629
 20
-2.0566
 30
0.0
 10
8.5629
 20
-2.0566
 30
0.0
 10
8.5629
 20
-2.0566
 30
0.0
 10
8.5629
 20
-2.0566
 30
0.0
 10
5.5605
 20
-2.086
 30
0.0
 10
5.5605
 20
-2.086
 30
0.0
 10
5.5605
 20
-2.086
 30
0.0
 10
5.5605
 20
-2.086
 30
0.0
 10
2.5136
 20
-2.1154
 30
0.0
 10
2.5136
 20
-2.1154
 30
0.0
 10
2.5136
 20
-2.1154
 30
0.0
 10
2.5136
 20
-2.1154
 30
0.0
 10
-0.5089
 20
-2.1422
 30
0.0
 10
-0.5089
 20
-2.1422
 30
0.0
 10
-0.5089
 20
-2.1422
 30
0.0
 10
-0.5089
 20
-2.1422
 30
0.0
 10
-3.4557
 20
-2.1623
 30
0.0
 10
-3.4557
 20
-2.1623
 30
0.0
 10
-3.4557
 20
-2.1623
 30
0.0
 10
-3.4557
 20
-2.1623
 30
0.0
 10
-6.2719
 20
-2.1704
 30
0.0
 10
-6.2719
 20
-2.1704
 30
0.0
 10
-6.2719
 20
-2.1704
 30
0.0
 10
-6.2719
 20
-2.1704
 30
0.0
 10
-8.9072
 20
-2.1597
 30
0.0
 10
-8.9072
 20
-2.1597
 30
0.0
 10
-8.9072
 20
-2.1597
 30
0.0
 10
-8.9072
 20
-2.1597
 30
0.0
 10
-11.3166
 20
-2.1247
 30
0.0
 10
-11.3166
 20
-2.1247
 30
0.0
 10
-11.3166
 20
-2.1247
 30
0.0
 10
-11.3166
 20
-2.1247
 30
0.0
 10
-13.4423
 20
-2.0657
 30
0.0
 10
-13.4423
 20
-2.0657
 30
0.0
 10
-13.4423
 20
-2.0657
 30
0.0
 10
-13.4423
 20
-2.0657
 30
0.0
 10
-15.2398
 20
-1.9907
 30
0.0
 10
-15.2398
 20
-1.9907
 30
0.0
 10
-15.2398
 20
-1.9907
 30
0.0
 10
-15.2398
 20
-1.9907
 30
0.0
 10
-16.6802
 20
-1.9141
 30
0.0
 10
-16.6802
 20
-1.9141
 30
0.0
 10
-16.6802
 20
-1.9141
 30
0.0
 10
-16.6802
 20
-1.9141
 30
0.0
 10
-17.7381
 20
-1.8501
 30
0.0
 10
-17.7381
 20
-1.8501
 30
0.0
 10
-17.7381
 20
-1.8501
 30
0.0
 10
-17.7381
 20
-1.8501
 30
0.0
 10
-18.3843
 20
-1.8086
 30
0.0
 10
-18.3843
 20
-1.8086
 30
0.0
 10
-18.3843
 20
-1.8086
 30
0.0
 10
-18.3843
 20
-1.8086
 30
0.0
 10
-18.602
 20
-1.7944
 30
0.0
 10
-18.602
 20
-1.7944
 30
0.0
  0
SPLINE
  5
71
330
1F
100
AcDbEntity
  8
ROUND
 62
   250
100
AcDbSpline
210
0.0
220
0.0
230
1.0
 70
    11
 71
     3
 72
    84
 73
    80
 74
     0
 42
0.0000000001
 43
0.0000000001
 40
0.0
 40
0.0
 40
0.0
 40
0.0
 40
0.0476190476190476
 40
0.0476190476190476
 40
0.0476190476190476
 40
0.0476190476190476
 40
0.0952380952380952
 40
0.0952380952380952
 40
0.0952380952380952
 40
0.0952380952380952
 40
0.1428571428571428
 40
0.1428571428571428
 40
0.1428571428571428
 40
0.1428571428571428
 40
0.1904761904761905
 40
0.1904761904761905
 40
0.1904761904761905
 40
0.1904761904761905
 40
0.2380952380952381
 40
0.2380952380952381
 40
0.2380952380952381
 40
0.2380952380952381
 40
0.2857142857142857
 40
0.2857142857142857
 40
0.2857142857142857
 40
0.2857142857142857
 40
0.3333333333333333
 40
0.3333333333333333
 40
0.3333333333333333
 40
0.3333333333333333
 40
0.3809523809523809
 40
0.3809523809523809
 40
0.3809523809523809
 40
0.3809523809523809
 40
0.4285714285714285
 40
0.4285714285714285
 40
0.4285714285714285
 40
0.4285714285714285
 40
0.4761904761904762
 40
0.4761904761904762
 40
0.4761904761904762
 40
0.4761904761904762
 40
0.5238095238095238
 40
0.5238095238095238
 40
0.5238095238095238
 40
0.5238095238095238
 40
0.5714285714285714
 40
0.5714285714285714
 40
0.5714285714285714
 40
0.5714285714285714
 40
0.6190476190476191
 40
0.6190476190476191
 40
0.6190476190476191
 40
0.6190476190476191
 40
0.6666666666666666
 40
0.6666666666666666
 40
0.6666666666666666
 40
0.6666666666666666
 40
0.7142857142857143
 40
0.7142857142857143
 40
0.7142857142857143
 40
0.7142857142857143
 40
0.7619047619047619
 40
0.7619047619047619
 40
0.7619047619047619
 40
0.7619047619047619
 40
0.8095238095238095
 40
0.8095238095238095
 40
0.8095238095238095
 40
0.8095238095238095
 40
0.8571428571428571
 40
0.8571428571428571
 40
0.8571428571428571
 40
0.8571428571428571
 40
0.9047619047619048
 40
0.9047619047619048
 40
0.9047619047619048
 40
0.9047619047619048
 40
1.0
 40
1.0
 40
1.0
 40
1.0
 10
1.5594
 20
24.9216
 30
0.0
 10
1.5594
 20
24.9216
 30
0.0
 10
1.7908
 20
25.1807
 30
0.0
 10
1.7908
 20
25.1807
 30
0.0
 10
1.7908
 20
25.1807
 30
0.0
 10
1.7908
 20
25.1807
 30
0.0
 10
1.9272
 20
25.065
 30
0.0
 10
1.9272
 20
25.065
 30
0.0
 10
1.9272
 20
25.065
 30
0.0
 10
1.9272
 20
25.065
 30
0.0
 10
1.685
 20
24.7922
 30
0.0
 10
1.685
 20
24.7922
 30
0.0
 10
1.685
 20
24.7922
 30
0.0
 10
1.764
 20
24.6746
 30
0.0
 10
1.8171
 20
24.5716
 30
0.0
 10
1.8449
 20
24.4837
 30
0.0
 10
1.8449
 20
24.4837
 30
0.0
 10
1.8816
 20
24.3679
 30
0.0
 10
1.8999
 20
24.2381
 30
0.0
 10
1.8999
 20
24.0951
 30
0.0
 10
1.8999
 20
24.0951
 30
0.0
 10
1.8999
 20
23.8882
 30
0.0
 10
1.8581
 20
23.7038
 30
0.0
 10
1.7743
 20
23.5425
 30
0.0
 10
1.7743
 20
23.5425
 30
0.0
 10
1.6906
 20
23.3806
 30
0.0
 10
1.5735
 20
23.2584
 30
0.0
 10
1.4225
 20
23.1756
 30
0.0
 10
1.4225
 20
23.1756
 30
0.0
 10
1.271
 20
23.0933
 30
0.0
 10
1.1107
 20
23.0519
 30
0.0
 10
0.9409
 20
23.0519
 30
0.0
 10
0.9409
 20
23.0519
 30
0.0
 10
0.8139
 20
23.0519
 30
0.0
 10
0.6991
 20
23.0697
 30
0.0
 10
0.5961
 20
23.1055
 30
0.0
 10
0.5961
 20
23.1055
 30
0.0
 10
0.5171
 20
23.1332
 30
0.0
 10
0.4249
 20
23.1859
 30
0.0
 10
0.319
 20
23.264
 30
0.0
 10
0.319
 20
23.264
 30
0.0
 10
0.319
 20
23.264
 30
0.0
 10
0.0876
 20
23.0048
 30
0.0
 10
0.0876
 20
23.0048
 30
0.0
 10
0.0876
 20
23.0048
 30
0.0
 10
0.0876
 20
23.0048
 30
0.0
 10
-0.0488
 20
23.1205
 30
0.0
 10
-0.0488
 20
23.1205
 30
0.0
 10
-0.0488
 20
23.1205
 30
0.0
 10
-0.0488
 20
23.1205
 30
0.0
 10
0.1939
 20
23.3919
 30
0.0
 10
0.1939
 20
23.3919
 30
0.0
 10
0.1939
 20
23.3919
 30
0.0
 10
0.1036
 20
23.5288
 30
0.0
 10
0.0434
 20
23.6459
 30
0.0
 10
0.0133
 20
23.7428
 30
0.0
 10
0.0133
 20
23.7428
 30
0.0
 10
-0.0168
 20
23.8397
 30
0.0
 10
-0.0323
 20
23.9564
 30
0.0
 10
-0.0323
 20
24.0923
 30
0.0
 10
-0.0323
 20
24.0923
 30
0.0
 10
-0.0323
 20
24.2997
 30
0.0
 10
0.0091
 20
24.4846
 30
0.0
 10
0.0918
 20
24.6469
 30
0.0
 10
0.0918
 20
24.6469
 30
0.0
 10
0.1746
 20
24.8092
 30
0.0
 10
0.2903
 20
24.9319
 30
0.0
 10
0.4399
 20
25.0156
 30
0.0
 10
0.4399
 20
25.0156
 30
0.0
 10
0.589
 20
25.0989
 30
0.0
 10
0.7551
 20
25.1408
 30
0.0
 10
0.938
 20
25.1408
 30
0.0
 10
0.938
 20
25.1408
 30
0.0
 10
1.0613
 20
25.1408
 30
0.0
 10
1.169
 20
25.1248
 30
0.0
 10
1.2612
 20
25.0918
 30
0.0
 10
1.2612
 20
25.0918
 30
0.0
 10
1.3534
 20
25.0594
 30
0.0
 10
1.4531
 20
25.0025
 30
0.0
 10
1.5594
 20
24.9216
 30
0.0
  0
SPLINE
  5
72
330
1F
100
AcDbEntity
  8
ROUND
 62
   250
100
AcDbSpline
210
0.0
220
0.0
230
1.0
 70
    11
 71
     3
 72
    32
 73
    28
 74
     0
 42
0.0000000001
 43
0.0000000001
 40
0.0
 40
0.0
 40
0.0
 40
0.0
 40
0.125
 40
0.125
 40
0.125
 40
0.125
 40
0.25
 40
0.25
 40
0.25
 40
0.25
 40
0.375
 40
0.375
 40
0.375
 40
0.375
 40
0.5
 40
0.5
 40
0.5
 40
0.5
 40
0.625
 40
0.625
 40
0.625
 40
0.625
 40
0.75
 40
0.75
 40
0.75
 40
0.75
 40
1.0
 40
1.0
 40
1.0
 40
1.0
 10
1.3943
 20
24.7358
 30
0.0
 10
1.3077
 20
24.8035
 30
0.0
 10
1.232
 20
24.8501
 30
0.0
 10
1.1676
 20
24.875
 30
0.0
 10
1.1676
 20
24.875
 30
0.0
 10
1.1027
 20
24.8995
 30
0.0
 10
1.0265
 20
24.9122
 30
0.0
 10
0.9394
 20
24.9122
 30
0.0
 10
0.9394
 20
24.9122
 30
0.0
 10
0.7381
 20
24.9122
 30
0.0
 10
0.5721
 20
24.844
 30
0.0
 10
0.4404
 20
24.7076
 30
0.0
 10
0.4404
 20
24.7076
 30
0.0
 10
0.3091
 20
24.5711
 30
0.0
 10
0.2433
 20
24.3675
 30
0.0
 10
0.2433
 20
24.0961
 30
0.0
 10
0.2433
 20
24.0961
 30
0.0
 10
0.2433
 20
23.9898
 30
0.0
 10
0.2536
 20
23.8952
 30
0.0
 10
0.2739
 20
23.8124
 30
0.0
 10
0.2739
 20
23.8124
 30
0.0
 10
0.2885
 20
23.7508
 30
0.0
 10
0.319
 20
23.6751
 30
0.0
 10
0.3661
 20
23.5853
 30
0.0
 10
0.3661
 20
23.5853
 30
0.0
 10
0.3661
 20
23.5853
 30
0.0
 10
1.3943
 20
24.7358
 30
0.0
 10
1.3943
 20
24.7358
 30
0.0
  0
SPLINE
  5
73
330
1F
100
AcDbEntity
  8
ROUND
 62
   250
100
AcDbSpline
210
0.0
220
0.0
230
1.0
 70
    11
 71
     3
 72
    28
 73
    24
 74
     0
 42
0.0000000001
 43
0.0000000001
 40
0.0
 40
0.0
 40
0.0
 40
0.0
 40
0.1428571428571428
 40
0.1428571428571428
 40
0.1428571428571428
 40
0.1428571428571428
 40
0.2857142857142857
 40
0.2857142857142857
 40
0.2857142857142857
 40
0.2857142857142857
 40
0.4285714285714285
 40
0.4285714285714285
 40
0.4285714285714285
 40
0.4285714285714285
 40
0.5714285714285714
 40
0.5714285714285714
 40
0.5714285714285714
 40
0.5714285714285714
 40
0.7142857142857143
 40
0.7142857142857143
 40
0.7142857142857143
 40
0.7142857142857143
 40
1.0
 40
1.0
 40
1.0
 40
1.0
 10
1.5072
 20
24.5937
 30
0.0
 10
1.5072
 20
24.5937
 30
0.0
 10
0.4832
 20
23.4474
 30
0.0
 10
0.4832
 20
23.4474
 30
0.0
 10
0.4832
 20
23.4474
 30
0.0
 10
0.5537
 20
23.3896
 30
0.0
 10
0.6191
 20
23.3491
 30
0.0
 10
0.6789
 20
23.3261
 30
0.0
 10
0.6789
 20
23.3261
 30
0.0
 10
0.7569
 20
23.2955
 30
0.0
 10
0.8416
 20
23.2805
 30
0.0
 10
0.9324
 20
23.2805
 30
0.0
 10
0.9324
 20
23.2805
 30
0.0
 10
1.1328
 20
23.2805
 30
0.0
 10
1.2979
 20
23.351
 30
0.0
 10
1.4286
 20
23.4926
 30
0.0
 10
1.4286
 20
23.4926
 30
0.0
 10
1.5589
 20
23.6342
 30
0.0
 10
1.6243
 20
23.8327
 30
0.0
 10
1.6243
 20
24.0881
 30
0.0
 10
1.6243
 20
24.0881
 30
0.0
 10
1.6243
 20
24.279
 30
0.0
 10
1.5853
 20
24.4479
 30
0.0
 10
1.5072
 20
24.5937
 30
0.0
  0
SPLINE
  5
74
330
1F
100
AcDbEntity
  8
ROUND
 62
   250
100
AcDbSpline
210
0.0
220
0.0
230
1.0
 70
    11
 71
     3
 72
    40
 73
    36
 74
     0
 42
0.0000000001
 43
0.0000000001
 40
0.0
 40
0.0
 40
0.0
 40
0.0
 40
0.1
 40
0.1
 40
0.1
 40
0.1
 40
0.2
 40
0.2
 40
0.2
 40
0.2
 40
0.3
 40
0.3
 40
0.3
 40
0.3
 40
0.4
 40
0.4
 40
0.4
 40
0.4
 40
0.5
 40
0.5
 40
0.5
 40
0.5
 40
0.6
 40
0.6
 40
0.6
 40
0.6
 40
0.7
 40
0.7
 40
0.7
 40
0.7
 40
0.8
 40
0.8
 40
0.8
 40
0.8
 40
1.0
 40
1.0
 40
1.0
 40
1.0
 10
3.0834
 20
23.0862
 30
0.0
 10
3.0834
 20
23.0862
 30
0.0
 10
2.8355
 20
23.0862
 30
0.0
 10
2.8355
 20
23.0862
 30
0.0
 10
2.8355
 20
23.0862
 30
0.0
 10
2.8355
 20
23.0862
 30
0.0
 10
2.8355
 20
24.6666
 30
0.0
 10
2.8355
 20
24.6666
 30
0.0
 10
2.8355
 20
24.6666
 30
0.0
 10
2.7757
 20
24.6097
 30
0.0
 10
2.6977
 20
24.5528
 30
0.0
 10
2.6008
 20
24.4959
 30
0.0
 10
2.6008
 20
24.4959
 30
0.0
 10
2.5034
 20
24.439
 30
0.0
 10
2.4164
 20
24.3962
 30
0.0
 10
2.3392
 20
24.3679
 30
0.0
 10
2.3392
 20
24.3679
 30
0.0
 10
2.3392
 20
24.3679
 30
0.0
 10
2.3392
 20
24.6074
 30
0.0
 10
2.3392
 20
24.6074
 30
0.0
 10
2.3392
 20
24.6074
 30
0.0
 10
2.478
 20
24.6727
 30
0.0
 10
2.5994
 20
24.7518
 30
0.0
 10
2.7033
 20
24.8444
 30
0.0
 10
2.7033
 20
24.8444
 30
0.0
 10
2.8068
 20
24.9376
 30
0.0
 10
2.8806
 20
25.0274
 30
0.0
 10
2.9239
 20
25.1149
 30
0.0
 10
2.9239
 20
25.1149
 30
0.0
 10
2.9239
 20
25.1149
 30
0.0
 10
3.0834
 20
25.1149
 30
0.0
 10
3.0834
 20
25.1149
 30
0.0
 10
3.0834
 20
25.1149
 30
0.0
 10
3.0834
 20
25.1149
 30
0.0
 10
3.0834
 20
23.0862
 30
0.0
 10
3.0834
 20
23.0862
 30
0.0
  0
SPLINE
  5
75
330
1F
100
AcDbEntity
  8
ROUND
 62
   250
100
AcDbSpline
210
0.0
220
0.0
230
1.0
 70
    11
 71
     3
 72
    40
 73
    36
 74
     0
 42
0.0000000001
 43
0.0000000001
 40
0.0
 40
0.0
 40
0.0
 40
0.0
 40
0.1
 40
0.1
 40
0.1
 40
0.1
 40
0.2
 40
0.2
 40
0.2
 40
0.2
 40
0.3
 40
0.3
 40
0.3
 40
0.3
 40
0.4
 40
0.4
 40
0.4
 40
0.4
 40
0.5
 40
0.5
 40
0.5
 40
0.5
 40
0.6
 40
0.6
 40
0.6
 40
0.6
 40
0.7
 40
0.7
 40
0.7
 40
0.7
 40
0.8
 40
0.8
 40
0.8
 40
0.8
 40
1.0
 40
1.0
 40
1.0
 40
1.0
 10
4.4437
 20
23.0862
 30
0.0
 10
4.4437
 20
23.0862
 30
0.0
 10
4.1958
 20
23.0862
 30
0.0
 10
4.1958
 20
23.0862
 30
0.0
 10
4.1958
 20
23.0862
 30
0.0
 10
4.1958
 20
23.0862
 30
0.0
 10
4.1958
 20
24.6666
 30
0.0
 10
4.1958
 20
24.6666
 30
0.0
 10
4.1958
 20
24.6666
 30
0.0
 10
4.136
 20
24.6097
 30
0.0
 10
4.058
 20
24.5528
 30
0.0
 10
3.9611
 20
24.4959
 30
0.0
 10
3.9611
 20
24.4959
 30
0.0
 10
3.8637
 20
24.439
 30
0.0
 10
3.7767
 20
24.3962
 30
0.0
 10
3.6995
 20
24.3679
 30
0.0
 10
3.6995
 20
24.3679
 30
0.0
 10
3.6995
 20
24.3679
 30
0.0
 10
3.6995
 20
24.6074
 30
0.0
 10
3.6995
 20
24.6074
 30
0.0
 10
3.6995
 20
24.6074
 30
0.0
 10
3.8383
 20
24.6727
 30
0.0
 10
3.9597
 20
24.7518
 30
0.0
 10
4.0636
 20
24.8444
 30
0.0
 10
4.0636
 20
24.8444
 30
0.0
 10
4.1671
 20
24.9376
 30
0.0
 10
4.2409
 20
25.0274
 30
0.0
 10
4.2842
 20
25.1149
 30
0.0
 10
4.2842
 20
25.1149
 30
0.0
 10
4.2842
 20
25.1149
 30
0.0
 10
4.4437
 20
25.1149
 30
0.0
 10
4.4437
 20
25.1149
 30
0.0
 10
4.4437
 20
25.1149
 30
0.0
 10
4.4437
 20
25.1149
 30
0.0
 10
4.4437
 20
23.0862
 30
0.0
 10
4.4437
 20
23.0862
 30
0.0
  0
SPLINE
  5
76
330
1F
100
AcDbEntity
  8
ROUND
 62
   250
100
AcDbSpline
210
0.0
220
0.0
230
1.0
 70
    11
 71
     3
 72
    52
 73
    48
 74
     0
 42
0.0000000001
 43
0.0000000001
 40
0.0
 40
0.0
 40
0.0
 40
0.0
 40
0.0769230769230769
 40
0.0769230769230769
 40
0.0769230769230769
 40
0.0769230769230769
 40
0.1538461538461539
 40
0.1538461538461539
 40
0.1538461538461539
 40
0.1538461538461539
 40
0.2307692307692308
 40
0.2307692307692308
 40
0.2307692307692308
 40
0.2307692307692308
 40
0.3076923076923077
 40
0.3076923076923077
 40
0.3076923076923077
 40
0.3076923076923077
 40
0.3846153846153846
 40
0.3846153846153846
 40
0.3846153846153846
 40
0.3846153846153846
 40
0.4615384615384616
 40
0.4615384615384616
 40
0.4615384615384616
 40
0.4615384615384616
 40
0.5384615384615384
 40
0.5384615384615384
 40
0.5384615384615384
 40
0.5384615384615384
 40
0.6153846153846154
 40
0.6153846153846154
 40
0.6153846153846154
 40
0.6153846153846154
 40
0.6923076923076923
 40
0.6923076923076923
 40
0.6923076923076923
 40
0.6923076923076923
 40
0.7692307692307693
 40
0.7692307692307693
 40
0.7692307692307693
 40
0.7692307692307693
 40
0.8461538461538461
 40
0.8461538461538461
 40
0.8461538461538461
 40
0.8461538461538461
 40
1.0
 40
1.0
 40
1.0
 40
1.0
 10
5.0791
 20
24.0824
 30
0.0
 10
5.0791
 20
24.3214
 30
0.0
 10
5.1036
 20
24.5138
 30
0.0
 10
5.153
 20
24.6591
 30
0.0
 10
5.153
 20
24.6591
 30
0.0
 10
5.2019
 20
24.8049
 30
0.0
 10
5.2753
 20
24.9173
 30
0.0
 10
5.3722
 20
24.9964
 30
0.0
 10
5.3722
 20
24.9964
 30
0.0
 10
5.4691
 20
25.0754
 30
0.0
 10
5.5909
 20
25.1149
 30
0.0
 10
5.7376
 20
25.1149
 30
0.0
 10
5.7376
 20
25.1149
 30
0.0
 10
5.8463
 20
25.1149
 30
0.0
 10
5.9413
 20
25.0928
 30
0.0
 10
6.0231
 20
25.049
 30
0.0
 10
6.0231
 20
25.049
 30
0.0
 10
6.105
 20
25.0058
 30
0.0
 10
6.1723
 20
24.9427
 30
0.0
 10
6.2259
 20
24.8604
 30
0.0
 10
6.2259
 20
24.8604
 30
0.0
 10
6.279
 20
24.7781
 30
0.0
 10
6.3209
 20
24.6779
 30
0.0
 10
6.351
 20
24.5599
 30
0.0
 10
6.351
 20
24.5599
 30
0.0
 10
6.3816
 20
24.4418
 30
0.0
 10
6.3966
 20
24.2828
 30
0.0
 10
6.3966
 20
24.0824
 30
0.0
 10
6.3966
 20
24.0824
 30
0.0
 10
6.3966
 20
23.8454
 30
0.0
 10
6.3722
 20
23.6544
 30
0.0
 10
6.3237
 20
23.5086
 30
0.0
 10
6.3237
 20
23.5086
 30
0.0
 10
6.2748
 20
23.3628
 30
0.0
 10
6.2019
 20
23.2504
 30
0.0
 10
6.105
 20
23.1709
 30
0.0
 10
6.105
 20
23.1709
 30
0.0
 10
6.0081
 20
23.0914
 30
0.0
 10
5.8858
 20
23.0519
 30
0.0
 10
5.7376
 20
23.0519
 30
0.0
 10
5.7376
 20
23.0519
 30
0.0
 10
5.5429
 20
23.0519
 30
0.0
 10
5.39
 20
23.1215
 30
0.0
 10
5.279
 20
23.2612
 30
0.0
 10
5.279
 20
23.2612
 30
0.0
 10
5.1459
 20
23.4291
 30
0.0
 10
5.0791
 20
23.7033
 30
0.0
 10
5.0791
 20
24.0824
 30
0.0
  0
SPLINE
  5
77
330
1F
100
AcDbEntity
  8
ROUND
 62
   250
100
AcDbSpline
210
0.0
220
0.0
230
1.0
 70
    11
 71
     3
 72
    36
 73
    32
 74
     0
 42
0.0000000001
 43
0.0000000001
 40
0.0
 40
0.0
 40
0.0
 40
0.0
 40
0.1111111111111111
 40
0.1111111111111111
 40
0.1111111111111111
 40
0.1111111111111111
 40
0.2222222222222222
 40
0.2222222222222222
 40
0.2222222222222222
 40
0.2222222222222222
 40
0.3333333333333333
 40
0.3333333333333333
 40
0.3333333333333333
 40
0.3333333333333333
 40
0.4444444444444444
 40
0.4444444444444444
 40
0.4444444444444444
 40
0.4444444444444444
 40
0.5555555555555556
 40
0.5555555555555556
 40
0.5555555555555556
 40
0.5555555555555556
 40
0.6666666666666666
 40
0.6666666666666666
 40
0.6666666666666666
 40
0.6666666666666666
 40
0.7777777777777778
 40
0.7777777777777778
 40
0.7777777777777778
 40
0.7777777777777778
 40
1.0
 40
1.0
 40
1.0
 40
1.0
 10
5.3341
 20
24.0824
 30
0.0
 10
5.3341
 20
23.7508
 30
0.0
 10
5.3731
 20
23.5302
 30
0.0
 10
5.4507
 20
23.4202
 30
0.0
 10
5.4507
 20
23.4202
 30
0.0
 10
5.5283
 20
23.3106
 30
0.0
 10
5.6238
 20
23.2555
 30
0.0
 10
5.7376
 20
23.2555
 30
0.0
 10
5.7376
 20
23.2555
 30
0.0
 10
5.8519
 20
23.2555
 30
0.0
 10
5.9474
 20
23.311
 30
0.0
 10
6.025
 20
23.4211
 30
0.0
 10
6.025
 20
23.4211
 30
0.0
 10
6.1026
 20
23.5312
 30
0.0
 10
6.1417
 20
23.7518
 30
0.0
 10
6.1417
 20
24.0824
 30
0.0
 10
6.1417
 20
24.0824
 30
0.0
 10
6.1417
 20
24.415
 30
0.0
 10
6.1026
 20
24.6361
 30
0.0
 10
6.025
 20
24.7452
 30
0.0
 10
6.025
 20
24.7452
 30
0.0
 10
5.9474
 20
24.8548
 30
0.0
 10
5.851
 20
24.9093
 30
0.0
 10
5.7353
 20
24.9093
 30
0.0
 10
5.7353
 20
24.9093
 30
0.0
 10
5.621
 20
24.9093
 30
0.0
 10
5.5302
 20
24.8609
 30
0.0
 10
5.462
 20
24.7645
 30
0.0
 10
5.462
 20
24.7645
 30
0.0
 10
5.3769
 20
24.6417
 30
0.0
 10
5.3341
 20
24.414
 30
0.0
 10
5.3341
 20
24.0824
 30
0.0
  0
SPLINE
  5
78
330
1F
100
AcDbEntity
  8
ROUND
 62
   250
100
AcDbSpline
210
0.0
220
0.0
230
1.0
 70
    11
 71
     3
 72
    20
 73
    16
 74
     0
 42
0.0000000001
 43
0.0000000001
 40
0.0
 40
0.0
 40
0.0
 40
0.0
 40
0.2
 40
0.2
 40
0.2
 40
0.2
 40
0.4
 40
0.4
 40
0.4
 40
0.4
 40
0.6
 40
0.6
 40
0.6
 40
0.6
 40
1.0
 40
1.0
 40
1.0
 40
1.0
 10
-23.9953
 20
22.3978
 30
0.0
 10
-23.9953
 20
22.3978
 30
0.0
 10
-20.9954
 20
21.9598
 30
0.0
 10
-20.9954
 20
21.9598
 30
0.0
 10
-20.9954
 20
21.9598
 30
0.0
 10
-20.9954
 20
21.9598
 30
0.0
 10
-20.9954
 20
22.9267
 30
0.0
 10
-20.9954
 20
22.9267
 30
0.0
 10
-20.9954
 20
22.9267
 30
0.0
 10
-20.9954
 20
22.9267
 30
0.0
 10
-23.9953
 20
22.3992
 30
0.0
 10
-23.9953
 20
22.3992
 30
0.0
 10
-23.9953
 20
22.3992
 30
0.0
 10
-23.9953
 20
22.3992
 30
0.0
 10
-23.9953
 20
22.3978
 30
0.0
 10
-23.9953
 20
22.3978
 30
0.0
  0
SPLINE
  5
79
330
1F
100
AcDbEntity
  8
ROUND
 62
   250
100
AcDbSpline
210
0.0
220
0.0
230
1.0
 70
    11
 71
     3
 72
    20
 73
    16
 74
     0
 42
0.0000000001
 43
0.0000000001
 40
0.0
 40
0.0
 40
0.0
 40
0.0
 40
0.2
 40
0.2
 40
0.2
 40
0.2
 40
0.4
 40
0.4
 40
0.4
 40
0.4
 40
0.6
 40
0.6
 40
0.6
 40
0.6
 40
1.0
 40
1.0
 40
1.0
 40
1.0
 10
28.6759
 20
22.4327
 30
0.0
 10
28.6759
 20
22.4327
 30
0.0
 10
25.6761
 20
22.8706
 30
0.0
 10
25.6761
 20
22.8706
 30
0.0
 10
25.6761
 20
22.8706
 30
0.0
 10
25.6761
 20
22.8706
 30
0.0
 10
25.6761
 20
21.9038
 30
0.0
 10
25.6761
 20
21.9038
 30
0.0
 10
25.6761
 20
21.9038
 30
0.0
 10
25.6761
 20
21.9038
 30
0.0
 10
28.6759
 20
22.4313
 30
0.0
 10
28.6759
 20
22.4313
 30
0.0
 10
28.6759
 20
22.4313
 30
0.0
 10
28.6759
 20
22.4313
 30
0.0
 10
28.6759
 20
22.4327
 30
0.0
 10
28.6759
 20
22.4327
 30
0.0
  0
SPLINE
  5
7A
330
1F
100
AcDbEntity
  8
ROUND
 62
   250
100
AcDbSpline
210
0.0
220
0.0
230
1.0
 70
    24
 71
     3
 72
     8
 73
     4
 74
     0
 42
0.0000000001
 43
0.0000000001
 40
0.0
 40
0.0
 40
0.0
 40
0.0
 40
1.0
 40
1.0
 40
1.0
 40
1.0
 10
27.4723
 20
22.4209
 30
0.0
 10
27.4723
 20
22.4209
 30
0.0
 10
-22.7322
 20
22.4209
 30
0.0
 10
-22.7322
 20
22.4209
 30
0.0
  0
SPLINE
  5
7B
330
1F
100
AcDbEntity
  8
ROUND
 62
   250
100
AcDbSpline
210
0.0
220
0.0
230
1.0
 70
    11
 71
     3
 72
    40
 73
    36
 74
     0
 42
0.0000000001
 43
0.0000000001
 40
0.0
 40
0.0
 40
0.0
 40
0.0
 40
0.1
 40
0.1
 40
0.1
 40
0.1
 40
0.2
 40
0.2
 40
0.2
 40
0.2
 40
0.3
 40
0.3
 40
0.3
 40
0.3
 40
0.4
 40
0.4
 40
0.4
 40
0.4
 40
0.5
 40
0.5
 40
0.5
 40
0.5
 40
0.6
 40
0.6
 40
0.6
 40
0.6
 40
0.7
 40
0.7
 40
0.7
 40
0.7
 40
0.8
 40
0.8
 40
0.8
 40
0.8
 40
1.0
 40
1.0
 40
1.0
 40
1.0
 10
-32.8566
 20
-0.9159
 30
0.0
 10
-32.8566
 20
-0.9159
 30
0.0
 10
-32.8566
 20
-1.1638
 30
0.0
 10
-32.8566
 20
-1.1638
 30
0.0
 10
-32.8566
 20
-1.1638
 30
0.0
 10
-32.8566
 20
-1.1638
 30
0.0
 10
-34.437
 20
-1.1638
 30
0.0
 10
-34.437
 20
-1.1638
 30
0.0
 10
-34.437
 20
-1.1638
 30
0.0
 10
-34.3801
 20
-1.2236
 30
0.0
 10
-34.3232
 20
-1.3016
 30
0.0
 10
-34.2663
 20
-1.3985
 30
0.0
 10
-34.2663
 20
-1.3985
 30
0.0
 10
-34.2094
 20
-1.4959
 30
0.0
 10
-34.1666
 20
-1.5829
 30
0.0
 10
-34.1383
 20
-1.6601
 30
0.0
 10
-34.1383
 20
-1.6601
 30
0.0
 10
-34.1383
 20
-1.6601
 30
0.0
 10
-34.3778
 20
-1.6601
 30
0.0
 10
-34.3778
 20
-1.6601
 30
0.0
 10
-34.3778
 20
-1.6601
 30
0.0
 10
-34.4431
 20
-1.5213
 30
0.0
 10
-34.5222
 20
-1.3999
 30
0.0
 10
-34.6148
 20
-1.296
 30
0.0
 10
-34.6148
 20
-1.296
 30
0.0
 10
-34.708
 20
-1.1925
 30
0.0
 10
-34.7978
 20
-1.1187
 30
0.0
 10
-34.8853
 20
-1.0754
 30
0.0
 10
-34.8853
 20
-1.0754
 30
0.0
 10
-34.8853
 20
-1.0754
 30
0.0
 10
-34.8853
 20
-0.9159
 30
0.0
 10
-34.8853
 20
-0.9159
 30
0.0
 10
-34.8853
 20
-0.9159
 30
0.0
 10
-34.8853
 20
-0.9159
 30
0.0
 10
-32.8566
 20
-0.9159
 30
0.0
 10
-32.8566
 20
-0.9159
 30
0.0
  0
SPLINE
  5
7C
330
1F
100
AcDbEntity
  8
ROUND
 62
   250
100
AcDbSpline
210
0.0
220
0.0
230
1.0
 70
    11
 71
     3
 72
    52
 73
    48
 74
     0
 42
0.0000000001
 43
0.0000000001
 40
0.0
 40
0.0
 40
0.0
 40
0.0
 40
0.0769230769230769
 40
0.0769230769230769
 40
0.0769230769230769
 40
0.0769230769230769
 40
0.1538461538461539
 40
0.1538461538461539
 40
0.1538461538461539
 40
0.1538461538461539
 40
0.2307692307692308
 40
0.2307692307692308
 40
0.2307692307692308
 40
0.2307692307692308
 40
0.3076923076923077
 40
0.3076923076923077
 40
0.3076923076923077
 40
0.3076923076923077
 40
0.3846153846153846
 40
0.3846153846153846
 40
0.3846153846153846
 40
0.3846153846153846
 40
0.4615384615384616
 40
0.4615384615384616
 40
0.4615384615384616
 40
0.4615384615384616
 40
0.5384615384615384
 40
0.5384615384615384
 40
0.5384615384615384
 40
0.5384615384615384
 40
0.6153846153846154
 40
0.6153846153846154
 40
0.6153846153846154
 40
0.6153846153846154
 40
0.6923076923076923
 40
0.6923076923076923
 40
0.6923076923076923
 40
0.6923076923076923
 40
0.7692307692307693
 40
0.7692307692307693
 40
0.7692307692307693
 40
0.7692307692307693
 40
0.8461538461538461
 40
0.8461538461538461
 40
0.8461538461538461
 40
0.8461538461538461
 40
1.0
 40
1.0
 40
1.0
 40
1.0
 10
-33.8528
 20
-0.2805
 30
0.0
 10
-34.0918
 20
-0.2805
 30
0.0
 10
-34.2842
 20
-0.256
 30
0.0
 10
-34.4295
 20
-0.2066
 30
0.0
 10
-34.4295
 20
-0.2066
 30
0.0
 10
-34.5753
 20
-0.1577
 30
0.0
 10
-34.6877
 20
-0.0843
 30
0.0
 10
-34.7668
 20
0.0126
 30
0.0
 10
-34.7668
 20
0.0126
 30
0.0
 10
-34.8458
 20
0.1095
 30
0.0
 10
-34.8853
 20
0.2313
 30
0.0
 10
-34.8853
 20
0.378
 30
0.0
 10
-34.8853
 20
0.378
 30
0.0
 10
-34.8853
 20
0.4867
 30
0.0
 10
-34.8632
 20
0.5817
 30
0.0
 10
-34.8194
 20
0.6635
 30
0.0
 10
-34.8194
 20
0.6635
 30
0.0
 10
-34.7762
 20
0.7454
 30
0.0
 10
-34.7131
 20
0.8127
 30
0.0
 10
-34.6308
 20
0.8663
 30
0.0
 10
-34.6308
 20
0.8663
 30
0.0
 10
-34.5485
 20
0.9194
 30
0.0
 10
-34.4483
 20
0.9613
 30
0.0
 10
-34.3303
 20
0.9914
 30
0.0
 10
-34.3303
 20
0.9914
 30
0.0
 10
-34.2122
 20
1.022
 30
0.0
 10
-34.0532
 20
1.037
 30
0.0
 10
-33.8528
 20
1.037
 30
0.0
 10
-33.8528
 20
1.037
 30
0.0
 10
-33.6158
 20
1.037
 30
0.0
 10
-33.4248
 20
1.0126
 30
0.0
 10
-33.279
 20
0.9641
 30
0.0
 10
-33.279
 20
0.9641
 30
0.0
 10
-33.1332
 20
0.9152
 30
0.0
 10
-33.0208
 20
0.8423
 30
0.0
 10
-32.9413
 20
0.7454
 30
0.0
 10
-32.9413
 20
0.7454
 30
0.0
 10
-32.8618
 20
0.6485
 30
0.0
 10
-32.8223
 20
0.5262
 30
0.0
 10
-32.8223
 20
0.378
 30
0.0
 10
-32.8223
 20
0.378
 30
0.0
 10
-32.8223
 20
0.1833
 30
0.0
 10
-32.8919
 20
0.0304
 30
0.0
 10
-33.0316
 20
-0.0806
 30
0.0
 10
-33.0316
 20
-0.0806
 30
0.0
 10
-33.1995
 20
-0.2137
 30
0.0
 10
-33.4737
 20
-0.2805
 30
0.0
 10
-33.8528
 20
-0.2805
 30
0.0
  0
SPLINE
  5
7D
330
1F
100
AcDbEntity
  8
ROUND
 62
   250
100
AcDbSpline
210
0.0
220
0.0
230
1.0
 70
    11
 71
     3
 72
    36
 73
    32
 74
     0
 42
0.0000000001
 43
0.0000000001
 40
0.0
 40
0.0
 40
0.0
 40
0.0
 40
0.1111111111111111
 40
0.1111111111111111
 40
0.1111111111111111
 40
0.1111111111111111
 40
0.2222222222222222
 40
0.2222222222222222
 40
0.2222222222222222
 40
0.2222222222222222
 40
0.3333333333333333
 40
0.3333333333333333
 40
0.3333333333333333
 40
0.3333333333333333
 40
0.4444444444444444
 40
0.4444444444444444
 40
0.4444444444444444
 40
0.4444444444444444
 40
0.5555555555555556
 40
0.5555555555555556
 40
0.5555555555555556
 40
0.5555555555555556
 40
0.6666666666666666
 40
0.6666666666666666
 40
0.6666666666666666
 40
0.6666666666666666
 40
0.7777777777777778
 40
0.7777777777777778
 40
0.7777777777777778
 40
0.7777777777777778
 40
1.0
 40
1.0
 40
1.0
 40
1.0
 10
-33.8528
 20
-0.0255
 30
0.0
 10
-33.5212
 20
-0.0255
 30
0.0
 10
-33.3006
 20
0.0135
 30
0.0
 10
-33.1906
 20
0.0911
 30
0.0
 10
-33.1906
 20
0.0911
 30
0.0
 10
-33.081
 20
0.1687
 30
0.0
 10
-33.0259
 20
0.2642
 30
0.0
 10
-33.0259
 20
0.378
 30
0.0
 10
-33.0259
 20
0.378
 30
0.0
 10
-33.0259
 20
0.4923
 30
0.0
 10
-33.0814
 20
0.5878
 30
0.0
 10
-33.1915
 20
0.6654
 30
0.0
 10
-33.1915
 20
0.6654
 30
0.0
 10
-33.3016
 20
0.743
 30
0.0
 10
-33.5222
 20
0.7821
 30
0.0
 10
-33.8528
 20
0.7821
 30
0.0
 10
-33.8528
 20
0.7821
 30
0.0
 10
-34.1854
 20
0.7821
 30
0.0
 10
-34.4065
 20
0.743
 30
0.0
 10
-34.5156
 20
0.6654
 30
0.0
 10
-34.5156
 20
0.6654
 30
0.0
 10
-34.6252
 20
0.5878
 30
0.0
 10
-34.6797
 20
0.4914
 30
0.0
 10
-34.6797
 20
0.3757
 30
0.0
 10
-34.6797
 20
0.3757
 30
0.0
 10
-34.6797
 20
0.2614
 30
0.0
 10
-34.6313
 20
0.1706
 30
0.0
 10
-34.5349
 20
0.1024
 30
0.0
 10
-34.5349
 20
0.1024
 30
0.0
 10
-34.4121
 20
0.0173
 30
0.0
 10
-34.1844
 20
-0.0255
 30
0.0
 10
-33.8528
 20
-0.0255
 30
0.0
  0
SPLINE
  5
7E
330
1F
100
AcDbEntity
  8
ROUND
 62
   250
100
AcDbSpline
210
0.0
220
0.0
230
1.0
 70
    11
 71
     3
 72
    52
 73
    48
 74
     0
 42
0.0000000001
 43
0.0000000001
 40
0.0
 40
0.0
 40
0.0
 40
0.0
 40
0.0769230769230769
 40
0.0769230769230769
 40
0.0769230769230769
 40
0.0769230769230769
 40
0.1538461538461539
 40
0.1538461538461539
 40
0.1538461538461539
 40
0.1538461538461539
 40
0.2307692307692308
 40
0.2307692307692308
 40
0.2307692307692308
 40
0.2307692307692308
 40
0.3076923076923077
 40
0.3076923076923077
 40
0.3076923076923077
 40
0.3076923076923077
 40
0.3846153846153846
 40
0.3846153846153846
 40
0.3846153846153846
 40
0.3846153846153846
 40
0.4615384615384616
 40
0.4615384615384616
 40
0.4615384615384616
 40
0.4615384615384616
 40
0.5384615384615384
 40
0.5384615384615384
 40
0.5384615384615384
 40
0.5384615384615384
 40
0.6153846153846154
 40
0.6153846153846154
 40
0.6153846153846154
 40
0.6153846153846154
 40
0.6923076923076923
 40
0.6923076923076923
 40
0.6923076923076923
 40
0.6923076923076923
 40
0.7692307692307693
 40
0.7692307692307693
 40
0.7692307692307693
 40
0.7692307692307693
 40
0.8461538461538461
 40
0.8461538461538461
 40
0.8461538461538461
 40
0.8461538461538461
 40
1.0
 40
1.0
 40
1.0
 40
1.0
 10
-33.8528
 20
1.2891
 30
0.0
 10
-34.0918
 20
1.2891
 30
0.0
 10
-34.2842
 20
1.3136
 30
0.0
 10
-34.4295
 20
1.363
 30
0.0
 10
-34.4295
 20
1.363
 30
0.0
 10
-34.5753
 20
1.4119
 30
0.0
 10
-34.6877
 20
1.4853
 30
0.0
 10
-34.7668
 20
1.5822
 30
0.0
 10
-34.7668
 20
1.5822
 30
0.0
 10
-34.8458
 20
1.6791
 30
0.0
 10
-34.8853
 20
1.8009
 30
0.0
 10
-34.8853
 20
1.9476
 30
0.0
 10
-34.8853
 20
1.9476
 30
0.0
 10
-34.8853
 20
2.0563
 30
0.0
 10
-34.8632
 20
2.1513
 30
0.0
 10
-34.8194
 20
2.2331
 30
0.0
 10
-34.8194
 20
2.2331
 30
0.0
 10
-34.7762
 20
2.315
 30
0.0
 10
-34.7131
 20
2.3823
 30
0.0
 10
-34.6308
 20
2.4359
 30
0.0
 10
-34.6308
 20
2.4359
 30
0.0
 10
-34.5485
 20
2.489
 30
0.0
 10
-34.4483
 20
2.5309
 30
0.0
 10
-34.3303
 20
2.561
 30
0.0
 10
-34.3303
 20
2.561
 30
0.0
 10
-34.2122
 20
2.5916
 30
0.0
 10
-34.0532
 20
2.6066
 30
0.0
 10
-33.8528
 20
2.6066
 30
0.0
 10
-33.8528
 20
2.6066
 30
0.0
 10
-33.6158
 20
2.6066
 30
0.0
 10
-33.4248
 20
2.5822
 30
0.0
 10
-33.279
 20
2.5337
 30
0.0
 10
-33.279
 20
2.5337
 30
0.0
 10
-33.1332
 20
2.4848
 30
0.0
 10
-33.0208
 20
2.4119
 30
0.0
 10
-32.9413
 20
2.315
 30
0.0
 10
-32.9413
 20
2.315
 30
0.0
 10
-32.8618
 20
2.2181
 30
0.0
 10
-32.8223
 20
2.0958
 30
0.0
 10
-32.8223
 20
1.9476
 30
0.0
 10
-32.8223
 20
1.9476
 30
0.0
 10
-32.8223
 20
1.7529
 30
0.0
 10
-32.8919
 20
1.6
 30
0.0
 10
-33.0316
 20
1.489
 30
0.0
 10
-33.0316
 20
1.489
 30
0.0
 10
-33.1995
 20
1.3559
 30
0.0
 10
-33.4737
 20
1.2891
 30
0.0
 10
-33.8528
 20
1.2891
 30
0.0
  0
SPLINE
  5
7F
330
1F
100
AcDbEntity
  8
ROUND
 62
   250
100
AcDbSpline
210
0.0
220
0.0
230
1.0
 70
    11
 71
     3
 72
    36
 73
    32
 74
     0
 42
0.0000000001
 43
0.0000000001
 40
0.0
 40
0.0
 40
0.0
 40
0.0
 40
0.1111111111111111
 40
0.1111111111111111
 40
0.1111111111111111
 40
0.1111111111111111
 40
0.2222222222222222
 40
0.2222222222222222
 40
0.2222222222222222
 40
0.2222222222222222
 40
0.3333333333333333
 40
0.3333333333333333
 40
0.3333333333333333
 40
0.3333333333333333
 40
0.4444444444444444
 40
0.4444444444444444
 40
0.4444444444444444
 40
0.4444444444444444
 40
0.5555555555555556
 40
0.5555555555555556
 40
0.5555555555555556
 40
0.5555555555555556
 40
0.6666666666666666
 40
0.6666666666666666
 40
0.6666666666666666
 40
0.6666666666666666
 40
0.7777777777777778
 40
0.7777777777777778
 40
0.7777777777777778
 40
0.7777777777777778
 40
1.0
 40
1.0
 40
1.0
 40
1.0
 10
-33.8528
 20
1.5441
 30
0.0
 10
-33.5212
 20
1.5441
 30
0.0
 10
-33.3006
 20
1.5831
 30
0.0
 10
-33.1906
 20
1.6607
 30
0.0
 10
-33.1906
 20
1.6607
 30
0.0
 10
-33.081
 20
1.7383
 30
0.0
 10
-33.0259
 20
1.8338
 30
0.0
 10
-33.0259
 20
1.9476
 30
0.0
 10
-33.0259
 20
1.9476
 30
0.0
 10
-33.0259
 20
2.0619
 30
0.0
 10
-33.0814
 20
2.1574
 30
0.0
 10
-33.1915
 20
2.235
 30
0.0
 10
-33.1915
 20
2.235
 30
0.0
 10
-33.3016
 20
2.3126
 30
0.0
 10
-33.5222
 20
2.3517
 30
0.0
 10
-33.8528
 20
2.3517
 30
0.0
 10
-33.8528
 20
2.3517
 30
0.0
 10
-34.1854
 20
2.3517
 30
0.0
 10
-34.4065
 20
2.3126
 30
0.0
 10
-34.5156
 20
2.235
 30
0.0
 10
-34.5156
 20
2.235
 30
0.0
 10
-34.6252
 20
2.1574
 30
0.0
 10
-34.6797
 20
2.061
 30
0.0
 10
-34.6797
 20
1.9453
 30
0.0
 10
-34.6797
 20
1.9453
 30
0.0
 10
-34.6797
 20
1.831
 30
0.0
 10
-34.6313
 20
1.7402
 30
0.0
 10
-34.5349
 20
1.672
 30
0.0
 10
-34.5349
 20
1.672
 30
0.0
 10
-34.4121
 20
1.5869
 30
0.0
 10
-34.1844
 20
1.5441
 30
0.0
 10
-33.8528
 20
1.5441
 30
0.0
  0
SPLINE
  5
80
330
1F
100
AcDbEntity
  8
ROUND
 62
   250
100
AcDbSpline
210
0.0
220
0.0
230
1.0
 70
    11
 71
     3
 72
    20
 73
    16
 74
     0
 42
0.0000000001
 43
0.0000000001
 40
0.0
 40
0.0
 40
0.0
 40
0.0
 40
0.2
 40
0.2
 40
0.2
 40
0.2
 40
0.4
 40
0.4
 40
0.4
 40
0.4
 40
0.6
 40
0.6
 40
0.6
 40
0.6
 40
1.0
 40
1.0
 40
1.0
 40
1.0
 10
-32.3124
 20
-15.2039
 30
0.0
 10
-32.3124
 20
-15.2039
 30
0.0
 10
-31.8745
 20
-12.2041
 30
0.0
 10
-31.8745
 20
-12.2041
 30
0.0
 10
-31.8745
 20
-12.2041
 30
0.0
 10
-31.8745
 20
-12.2041
 30
0.0
 10
-32.8412
 20
-12.2041
 30
0.0
 10
-32.8412
 20
-12.2041
 30
0.0
 10
-32.8412
 20
-12.2041
 30
0.0
 10
-32.8412
 20
-12.2041
 30
0.0
 10
-32.3138
 20
-15.2039
 30
0.0
 10
-32.3138
 20
-15.2039
 30
0.0
 10
-32.3138
 20
-15.2039
 30
0.0
 10
-32.3138
 20
-15.2039
 30
0.0
 10
-32.3124
 20
-15.2039
 30
0.0
 10
-32.3124
 20
-15.2039
 30
0.0
  0
SPLINE
  5
81
330
1F
100
AcDbEntity
  8
ROUND
 62
   250
100
AcDbSpline
210
0.0
220
0.0
230
1.0
 70
    11
 71
     3
 72
    20
 73
    16
 74
     0
 42
0.0000000001
 43
0.0000000001
 40
0.0
 40
0.0
 40
0.0
 40
0.0
 40
0.2
 40
0.2
 40
0.2
 40
0.2
 40
0.4
 40
0.4
 40
0.4
 40
0.4
 40
0.6
 40
0.6
 40
0.6
 40
0.6
 40
1.0
 40
1.0
 40
1.0
 40
1.0
 10
-32.3323
 20
16.177
 30
0.0
 10
-32.3323
 20
16.177
 30
0.0
 10
-32.7703
 20
13.177
 30
0.0
 10
-32.7703
 20
13.177
 30
0.0
 10
-32.7703
 20
13.177
 30
0.0
 10
-32.7703
 20
13.177
 30
0.0
 10
-31.8035
 20
13.177
 30
0.0
 10
-31.8035
 20
13.177
 30
0.0
 10
-31.8035
 20
13.177
 30
0.0
 10
-31.8035
 20
13.177
 30
0.0
 10
-32.331
 20
16.177
 30
0.0
 10
-32.331
 20
16.177
 30
0.0
 10
-32.331
 20
16.177
 30
0.0
 10
-32.331
 20
16.177
 30
0.0
 10
-32.3323
 20
16.177
 30
0.0
 10
-32.3323
 20
16.177
 30
0.0
  0
SPLINE
  5
82
330
1F
100
AcDbEntity
  8
ROUND
 62
   250
100
AcDbSpline
210
0.0
220
0.0
230
1.0
 70
    24
 71
     3
 72
     8
 73
     4
 74
     0
 42
0.0000000001
 43
0.0000000001
 40
0.0
 40
0.0
 40
0.0
 40
0.0
 40
1.0
 40
1.0
 40
1.0
 40
1.0
 10
-32.3211
 20
15.401
 30
0.0
 10
-32.3211
 20
15.401
 30
0.0
 10
-32.3211
 20
-13.6324
 30
0.0
 10
-32.3211
 20
-13.6324
 30
0.0
  0
SPLINE
  5
83
330
1F
100
AcDbEntity
  8
ROUND
 62
   250
100
AcDbSpline
210
0.0
220
0.0
230
1.0
 70
    11
 71
     3
 72
    84
 73
    80
 74
     0
 42
0.0000000001
 43
0.0000000001
 40
0.0
 40
0.0
 40
0.0
 40
0.0
 40
0.0476190476190476
 40
0.0476190476190476
 40
0.0476190476190476
 40
0.0476190476190476
 40
0.0952380952380952
 40
0.0952380952380952
 40
0.0952380952380952
 40
0.0952380952380952
 40
0.1428571428571428
 40
0.1428571428571428
 40
0.1428571428571428
 40
0.1428571428571428
 40
0.1904761904761905
 40
0.1904761904761905
 40
0.1904761904761905
 40
0.1904761904761905
 40
0.2380952380952381
 40
0.2380952380952381
 40
0.2380952380952381
 40
0.2380952380952381
 40
0.2857142857142857
 40
0.2857142857142857
 40
0.2857142857142857
 40
0.2857142857142857
 40
0.3333333333333333
 40
0.3333333333333333
 40
0.3333333333333333
 40
0.3333333333333333
 40
0.3809523809523809
 40
0.3809523809523809
 40
0.3809523809523809
 40
0.3809523809523809
 40
0.4285714285714285
 40
0.4285714285714285
 40
0.4285714285714285
 40
0.4285714285714285
 40
0.4761904761904762
 40
0.4761904761904762
 40
0.4761904761904762
 40
0.4761904761904762
 40
0.5238095238095238
 40
0.5238095238095238
 40
0.5238095238095238
 40
0.5238095238095238
 40
0.5714285714285714
 40
0.5714285714285714
 40
0.5714285714285714
 40
0.5714285714285714
 40
0.6190476190476191
 40
0.6190476190476191
 40
0.6190476190476191
 40
0.6190476190476191
 40
0.6666666666666666
 40
0.6666666666666666
 40
0.6666666666666666
 40
0.6666666666666666
 40
0.7142857142857143
 40
0.7142857142857143
 40
0.7142857142857143
 40
0.7142857142857143
 40
0.7619047619047619
 40
0.7619047619047619
 40
0.7619047619047619
 40
0.7619047619047619
 40
0.8095238095238095
 40
0.8095238095238095
 40
0.8095238095238095
 40
0.8095238095238095
 40
0.8571428571428571
 40
0.8571428571428571
 40
0.8571428571428571
 40
0.8571428571428571
 40
0.9047619047619048
 40
0.9047619047619048
 40
0.9047619047619048
 40
0.9047619047619048
 40
1.0
 40
1.0
 40
1.0
 40
1.0
 10
4.6171
 20
-22.5133
 30
0.0
 10
4.6171
 20
-22.5133
 30
0.0
 10
4.8485
 20
-22.2542
 30
0.0
 10
4.8485
 20
-22.2542
 30
0.0
 10
4.8485
 20
-22.2542
 30
0.0
 10
4.8485
 20
-22.2542
 30
0.0
 10
4.9849
 20
-22.3699
 30
0.0
 10
4.9849
 20
-22.3699
 30
0.0
 10
4.9849
 20
-22.3699
 30
0.0
 10
4.9849
 20
-22.3699
 30
0.0
 10
4.7427
 20
-22.6427
 30
0.0
 10
4.7427
 20
-22.6427
 30
0.0
 10
4.7427
 20
-22.6427
 30
0.0
 10
4.8217
 20
-22.7603
 30
0.0
 10
4.8748
 20
-22.8633
 30
0.0
 10
4.9026
 20
-22.9512
 30
0.0
 10
4.9026
 20
-22.9512
 30
0.0
 10
4.9393
 20
-23.067
 30
0.0
 10
4.9576
 20
-23.1968
 30
0.0
 10
4.9576
 20
-23.3398
 30
0.0
 10
4.9576
 20
-23.3398
 30
0.0
 10
4.9576
 20
-23.5467
 30
0.0
 10
4.9158
 20
-23.7311
 30
0.0
 10
4.832
 20
-23.8924
 30
0.0
 10
4.832
 20
-23.8924
 30
0.0
 10
4.7483
 20
-24.0543
 30
0.0
 10
4.6312
 20
-24.1765
 30
0.0
 10
4.4802
 20
-24.2593
 30
0.0
 10
4.4802
 20
-24.2593
 30
0.0
 10
4.3287
 20
-24.3416
 30
0.0
 10
4.1684
 20
-24.383
 30
0.0
 10
3.9986
 20
-24.383
 30
0.0
 10
3.9986
 20
-24.383
 30
0.0
 10
3.8716
 20
-24.383
 30
0.0
 10
3.7568
 20
-24.3652
 30
0.0
 10
3.6538
 20
-24.3294
 30
0.0
 10
3.6538
 20
-24.3294
 30
0.0
 10
3.5748
 20
-24.3017
 30
0.0
 10
3.4826
 20
-24.249
 30
0.0
 10
3.3767
 20
-24.1709
 30
0.0
 10
3.3767
 20
-24.1709
 30
0.0
 10
3.3767
 20
-24.1709
 30
0.0
 10
3.1453
 20
-24.4301
 30
0.0
 10
3.1453
 20
-24.4301
 30
0.0
 10
3.1453
 20
-24.4301
 30
0.0
 10
3.1453
 20
-24.4301
 30
0.0
 10
3.0089
 20
-24.3144
 30
0.0
 10
3.0089
 20
-24.3144
 30
0.0
 10
3.0089
 20
-24.3144
 30
0.0
 10
3.0089
 20
-24.3144
 30
0.0
 10
3.2516
 20
-24.043
 30
0.0
 10
3.2516
 20
-24.043
 30
0.0
 10
3.2516
 20
-24.043
 30
0.0
 10
3.1613
 20
-23.9061
 30
0.0
 10
3.1011
 20
-23.789
 30
0.0
 10
3.071
 20
-23.6921
 30
0.0
 10
3.071
 20
-23.6921
 30
0.0
 10
3.0409
 20
-23.5952
 30
0.0
 10
3.0254
 20
-23.4785
 30
0.0
 10
3.0254
 20
-23.3426
 30
0.0
 10
3.0254
 20
-23.3426
 30
0.0
 10
3.0254
 20
-23.1352
 30
0.0
 10
3.0668
 20
-22.9503
 30
0.0
 10
3.1495
 20
-22.788
 30
0.0
 10
3.1495
 20
-22.788
 30
0.0
 10
3.2323
 20
-22.6257
 30
0.0
 10
3.348
 20
-22.503
 30
0.0
 10
3.4976
 20
-22.4193
 30
0.0
 10
3.4976
 20
-22.4193
 30
0.0
 10
3.6467
 20
-22.336
 30
0.0
 10
3.8128
 20
-22.2941
 30
0.0
 10
3.9957
 20
-22.2941
 30
0.0
 10
3.9957
 20
-22.2941
 30
0.0
 10
4.119
 20
-22.2941
 30
0.0
 10
4.2267
 20
-22.3101
 30
0.0
 10
4.3189
 20
-22.3431
 30
0.0
 10
4.3189
 20
-22.3431
 30
0.0
 10
4.4111
 20
-22.3755
 30
0.0
 10
4.5108
 20
-22.4324
 30
0.0
 10
4.6171
 20
-22.5133
 30
0.0
  0
SPLINE
  5
84
330
1F
100
AcDbEntity
  8
ROUND
 62
   250
100
AcDbSpline
210
0.0
220
0.0
230
1.0
 70
    11
 71
     3
 72
    32
 73
    28
 74
     0
 42
0.0000000001
 43
0.0000000001
 40
0.0
 40
0.0
 40
0.0
 40
0.0
 40
0.125
 40
0.125
 40
0.125
 40
0.125
 40
0.25
 40
0.25
 40
0.25
 40
0.25
 40
0.375
 40
0.375
 40
0.375
 40
0.375
 40
0.5
 40
0.5
 40
0.5
 40
0.5
 40
0.625
 40
0.625
 40
0.625
 40
0.625
 40
0.75
 40
0.75
 40
0.75
 40
0.75
 40
1.0
 40
1.0
 40
1.0
 40
1.0
 10
4.452
 20
-22.6991
 30
0.0
 10
4.3654
 20
-22.6314
 30
0.0
 10
4.2897
 20
-22.5848
 30
0.0
 10
4.2253
 20
-22.5599
 30
0.0
 10
4.2253
 20
-22.5599
 30
0.0
 10
4.1604
 20
-22.5354
 30
0.0
 10
4.0842
 20
-22.5227
 30
0.0
 10
3.9971
 20
-22.5227
 30
0.0
 10
3.9971
 20
-22.5227
 30
0.0
 10
3.7958
 20
-22.5227
 30
0.0
 10
3.6298
 20
-22.5909
 30
0.0
 10
3.4981
 20
-22.7273
 30
0.0
 10
3.4981
 20
-22.7273
 30
0.0
 10
3.3668
 20
-22.8638
 30
0.0
 10
3.301
 20
-23.0674
 30
0.0
 10
3.301
 20
-23.3388
 30
0.0
 10
3.301
 20
-23.3388
 30
0.0
 10
3.301
 20
-23.4451
 30
0.0
 10
3.3113
 20
-23.5397
 30
0.0
 10
3.3316
 20
-23.6225
 30
0.0
 10
3.3316
 20
-23.6225
 30
0.0
 10
3.3462
 20
-23.6841
 30
0.0
 10
3.3767
 20
-23.7598
 30
0.0
 10
3.4238
 20
-23.8496
 30
0.0
 10
3.4238
 20
-23.8496
 30
0.0
 10
3.4238
 20
-23.8496
 30
0.0
 10
4.452
 20
-22.6991
 30
0.0
 10
4.452
 20
-22.6991
 30
0.0
  0
SPLINE
  5
85
330
1F
100
AcDbEntity
  8
ROUND
 62
   250
100
AcDbSpline
210
0.0
220
0.0
230
1.0
 70
    11
 71
     3
 72
    28
 73
    24
 74
     0
 42
0.0000000001
 43
0.0000000001
 40
0.0
 40
0.0
 40
0.0
 40
0.0
 40
0.1428571428571428
 40
0.1428571428571428
 40
0.1428571428571428
 40
0.1428571428571428
 40
0.2857142857142857
 40
0.2857142857142857
 40
0.2857142857142857
 40
0.2857142857142857
 40
0.4285714285714285
 40
0.4285714285714285
 40
0.4285714285714285
 40
0.4285714285714285
 40
0.5714285714285714
 40
0.5714285714285714
 40
0.5714285714285714
 40
0.5714285714285714
 40
0.7142857142857143
 40
0.7142857142857143
 40
0.7142857142857143
 40
0.7142857142857143
 40
1.0
 40
1.0
 40
1.0
 40
1.0
 10
4.5649
 20
-22.8412
 30
0.0
 10
4.5649
 20
-22.8412
 30
0.0
 10
3.5409
 20
-23.9875
 30
0.0
 10
3.5409
 20
-23.9875
 30
0.0
 10
3.5409
 20
-23.9875
 30
0.0
 10
3.6114
 20
-24.0453
 30
0.0
 10
3.6768
 20
-24.0858
 30
0.0
 10
3.7366
 20
-24.1088
 30
0.0
 10
3.7366
 20
-24.1088
 30
0.0
 10
3.8146
 20
-24.1394
 30
0.0
 10
3.8993
 20
-24.1544
 30
0.0
 10
3.9901
 20
-24.1544
 30
0.0
 10
3.9901
 20
-24.1544
 30
0.0
 10
4.1905
 20
-24.1544
 30
0.0
 10
4.3556
 20
-24.0839
 30
0.0
 10
4.4863
 20
-23.9423
 30
0.0
 10
4.4863
 20
-23.9423
 30
0.0
 10
4.6166
 20
-23.8007
 30
0.0
 10
4.682
 20
-23.6022
 30
0.0
 10
4.682
 20
-23.3468
 30
0.0
 10
4.682
 20
-23.3468
 30
0.0
 10
4.682
 20
-23.1559
 30
0.0
 10
4.643
 20
-22.987
 30
0.0
 10
4.5649
 20
-22.8412
 30
0.0
  0
SPLINE
  5
86
330
1F
100
AcDbEntity
  8
ROUND
 62
   250
100
AcDbSpline
210
0.0
220
0.0
230
1.0
 70
    11
 71
     3
 72
    40
 73
    36
 74
     0
 42
0.0000000001
 43
0.0000000001
 40
0.0
 40
0.0
 40
0.0
 40
0.0
 40
0.1
 40
0.1
 40
0.1
 40
0.1
 40
0.2
 40
0.2
 40
0.2
 40
0.2
 40
0.3
 40
0.3
 40
0.3
 40
0.3
 40
0.4
 40
0.4
 40
0.4
 40
0.4
 40
0.5
 40
0.5
 40
0.5
 40
0.5
 40
0.6
 40
0.6
 40
0.6
 40
0.6
 40
0.7
 40
0.7
 40
0.7
 40
0.7
 40
0.8
 40
0.8
 40
0.8
 40
0.8
 40
1.0
 40
1.0
 40
1.0
 40
1.0
 10
6.1411
 20
-24.3487
 30
0.0
 10
6.1411
 20
-24.3487
 30
0.0
 10
5.8932
 20
-24.3487
 30
0.0
 10
5.8932
 20
-24.3487
 30
0.0
 10
5.8932
 20
-24.3487
 30
0.0
 10
5.8932
 20
-24.3487
 30
0.0
 10
5.8932
 20
-22.7683
 30
0.0
 10
5.8932
 20
-22.7683
 30
0.0
 10
5.8932
 20
-22.7683
 30
0.0
 10
5.8334
 20
-22.8252
 30
0.0
 10
5.7554
 20
-22.8821
 30
0.0
 10
5.6585
 20
-22.939
 30
0.0
 10
5.6585
 20
-22.939
 30
0.0
 10
5.5611
 20
-22.9959
 30
0.0
 10
5.4741
 20
-23.0387
 30
0.0
 10
5.3969
 20
-23.067
 30
0.0
 10
5.3969
 20
-23.067
 30
0.0
 10
5.3969
 20
-23.067
 30
0.0
 10
5.3969
 20
-22.8275
 30
0.0
 10
5.3969
 20
-22.8275
 30
0.0
 10
5.3969
 20
-22.8275
 30
0.0
 10
5.5357
 20
-22.7622
 30
0.0
 10
5.6571
 20
-22.6831
 30
0.0
 10
5.761
 20
-22.5905
 30
0.0
 10
5.761
 20
-22.5905
 30
0.0
 10
5.8645
 20
-22.4973
 30
0.0
 10
5.9383
 20
-22.4075
 30
0.0
 10
5.9816
 20
-22.32
 30
0.0
 10
5.9816
 20
-22.32
 30
0.0
 10
5.9816
 20
-22.32
 30
0.0
 10
6.1411
 20
-22.32
 30
0.0
 10
6.1411
 20
-22.32
 30
0.0
 10
6.1411
 20
-22.32
 30
0.0
 10
6.1411
 20
-22.32
 30
0.0
 10
6.1411
 20
-24.3487
 30
0.0
 10
6.1411
 20
-24.3487
 30
0.0
  0
SPLINE
  5
87
330
1F
100
AcDbEntity
  8
ROUND
 62
   250
100
AcDbSpline
210
0.0
220
0.0
230
1.0
 70
    11
 71
     3
 72
    52
 73
    48
 74
     0
 42
0.0000000001
 43
0.0000000001
 40
0.0
 40
0.0
 40
0.0
 40
0.0
 40
0.0769230769230769
 40
0.0769230769230769
 40
0.0769230769230769
 40
0.0769230769230769
 40
0.1538461538461539
 40
0.1538461538461539
 40
0.1538461538461539
 40
0.1538461538461539
 40
0.2307692307692308
 40
0.2307692307692308
 40
0.2307692307692308
 40
0.2307692307692308
 40
0.3076923076923077
 40
0.3076923076923077
 40
0.3076923076923077
 40
0.3076923076923077
 40
0.3846153846153846
 40
0.3846153846153846
 40
0.3846153846153846
 40
0.3846153846153846
 40
0.4615384615384616
 40
0.4615384615384616
 40
0.4615384615384616
 40
0.4615384615384616
 40
0.5384615384615384
 40
0.5384615384615384
 40
0.5384615384615384
 40
0.5384615384615384
 40
0.6153846153846154
 40
0.6153846153846154
 40
0.6153846153846154
 40
0.6153846153846154
 40
0.6923076923076923
 40
0.6923076923076923
 40
0.6923076923076923
 40
0.6923076923076923
 40
0.7692307692307693
 40
0.7692307692307693
 40
0.7692307692307693
 40
0.7692307692307693
 40
0.8461538461538461
 40
0.8461538461538461
 40
0.8461538461538461
 40
0.8461538461538461
 40
1.0
 40
1.0
 40
1.0
 40
1.0
 10
6.7765
 20
-23.3525
 30
0.0
 10
6.7765
 20
-23.1135
 30
0.0
 10
6.801
 20
-22.9211
 30
0.0
 10
6.8504
 20
-22.7758
 30
0.0
 10
6.8504
 20
-22.7758
 30
0.0
 10
6.8993
 20
-22.63
 30
0.0
 10
6.9727
 20
-22.5176
 30
0.0
 10
7.0696
 20
-22.4385
 30
0.0
 10
7.0696
 20
-22.4385
 30
0.0
 10
7.1665
 20
-22.3595
 30
0.0
 10
7.2883
 20
-22.32
 30
0.0
 10
7.435
 20
-22.32
 30
0.0
 10
7.435
 20
-22.32
 30
0.0
 10
7.5437
 20
-22.32
 30
0.0
 10
7.6387
 20
-22.3421
 30
0.0
 10
7.7205
 20
-22.3859
 30
0.0
 10
7.7205
 20
-22.3859
 30
0.0
 10
7.8024
 20
-22.4291
 30
0.0
 10
7.8697
 20
-22.4922
 30
0.0
 10
7.9233
 20
-22.5745
 30
0.0
 10
7.9233
 20
-22.5745
 30
0.0
 10
7.9764
 20
-22.6568
 30
0.0
 10
8.0183
 20
-22.757
 30
0.0
 10
8.0484
 20
-22.875
 30
0.0
 10
8.0484
 20
-22.875
 30
0.0
 10
8.079
 20
-22.9931
 30
0.0
 10
8.094
 20
-23.1521
 30
0.0
 10
8.094
 20
-23.3525
 30
0.0
 10
8.094
 20
-23.3525
 30
0.0
 10
8.094
 20
-23.5895
 30
0.0
 10
8.0696
 20
-23.7805
 30
0.0
 10
8.0211
 20
-23.9263
 30
0.0
 10
8.0211
 20
-23.9263
 30
0.0
 10
7.9722
 20
-24.0721
 30
0.0
 10
7.8993
 20
-24.1845
 30
0.0
 10
7.8024
 20
-24.264
 30
0.0
 10
7.8024
 20
-24.264
 30
0.0
 10
7.7055
 20
-24.3435
 30
0.0
 10
7.5832
 20
-24.383
 30
0.0
 10
7.435
 20
-24.383
 30
0.0
 10
7.435
 20
-24.383
 30
0.0
 10
7.2403
 20
-24.383
 30
0.0
 10
7.0874
 20
-24.3134
 30
0.0
 10
6.9764
 20
-24.1737
 30
0.0
 10
6.9764
 20
-24.1737
 30
0.0
 10
6.8433
 20
-24.0058
 30
0.0
 10
6.7765
 20
-23.7316
 30
0.0
 10
6.7765
 20
-23.3525
 30
0.0
  0
SPLINE
  5
88
330
1F
100
AcDbEntity
  8
ROUND
 62
   250
100
AcDbSpline
210
0.0
220
0.0
230
1.0
 70
    11
 71
     3
 72
    36
 73
    32
 74
     0
 42
0.0000000001
 43
0.0000000001
 40
0.0
 40
0.0
 40
0.0
 40
0.0
 40
0.1111111111111111
 40
0.1111111111111111
 40
0.1111111111111111
 40
0.1111111111111111
 40
0.2222222222222222
 40
0.2222222222222222
 40
0.2222222222222222
 40
0.2222222222222222
 40
0.3333333333333333
 40
0.3333333333333333
 40
0.3333333333333333
 40
0.3333333333333333
 40
0.4444444444444444
 40
0.4444444444444444
 40
0.4444444444444444
 40
0.4444444444444444
 40
0.5555555555555556
 40
0.5555555555555556
 40
0.5555555555555556
 40
0.5555555555555556
 40
0.6666666666666666
 40
0.6666666666666666
 40
0.6666666666666666
 40
0.6666666666666666
 40
0.7777777777777778
 40
0.7777777777777778
 40
0.7777777777777778
 40
0.7777777777777778
 40
1.0
 40
1.0
 40
1.0
 40
1.0
 10
7.0315
 20
-23.3525
 30
0.0
 10
7.0315
 20
-23.6841
 30
0.0
 10
7.0705
 20
-23.9047
 30
0.0
 10
7.1481
 20
-24.0147
 30
0.0
 10
7.1481
 20
-24.0147
 30
0.0
 10
7.2257
 20
-24.1243
 30
0.0
 10
7.3212
 20
-24.1794
 30
0.0
 10
7.435
 20
-24.1794
 30
0.0
 10
7.435
 20
-24.1794
 30
0.0
 10
7.5493
 20
-24.1794
 30
0.0
 10
7.6448
 20
-24.1239
 30
0.0
 10
7.7224
 20
-24.0138
 30
0.0
 10
7.7224
 20
-24.0138
 30
0.0
 10
7.8
 20
-23.9037
 30
0.0
 10
7.8391
 20
-23.6831
 30
0.0
 10
7.8391
 20
-23.3525
 30
0.0
 10
7.8391
 20
-23.3525
 30
0.0
 10
7.8391
 20
-23.0199
 30
0.0
 10
7.8
 20
-22.7988
 30
0.0
 10
7.7224
 20
-22.6897
 30
0.0
 10
7.7224
 20
-22.6897
 30
0.0
 10
7.6448
 20
-22.5801
 30
0.0
 10
7.5484
 20
-22.5256
 30
0.0
 10
7.4327
 20
-22.5256
 30
0.0
 10
7.4327
 20
-22.5256
 30
0.0
 10
7.3184
 20
-22.5256
 30
0.0
 10
7.2276
 20
-22.574
 30
0.0
 10
7.1594
 20
-22.6704
 30
0.0
 10
7.1594
 20
-22.6704
 30
0.0
 10
7.0743
 20
-22.7932
 30
0.0
 10
7.0315
 20
-23.0209
 30
0.0
 10
7.0315
 20
-23.3525
 30
0.0
  0
SPLINE
  5
89
330
1F
100
AcDbEntity
  8
ROUND
 62
   250
100
AcDbSpline
210
0.0
220
0.0
230
1.0
 70
    11
 71
     3
 72
    52
 73
    48
 74
     0
 42
0.0000000001
 43
0.0000000001
 40
0.0
 40
0.0
 40
0.0
 40
0.0
 40
0.0769230769230769
 40
0.0769230769230769
 40
0.0769230769230769
 40
0.0769230769230769
 40
0.1538461538461539
 40
0.1538461538461539
 40
0.1538461538461539
 40
0.1538461538461539
 40
0.2307692307692308
 40
0.2307692307692308
 40
0.2307692307692308
 40
0.2307692307692308
 40
0.3076923076923077
 40
0.3076923076923077
 40
0.3076923076923077
 40
0.3076923076923077
 40
0.3846153846153846
 40
0.3846153846153846
 40
0.3846153846153846
 40
0.3846153846153846
 40
0.4615384615384616
 40
0.4615384615384616
 40
0.4615384615384616
 40
0.4615384615384616
 40
0.5384615384615384
 40
0.5384615384615384
 40
0.5384615384615384
 40
0.5384615384615384
 40
0.6153846153846154
 40
0.6153846153846154
 40
0.6153846153846154
 40
0.6153846153846154
 40
0.6923076923076923
 40
0.6923076923076923
 40
0.6923076923076923
 40
0.6923076923076923
 40
0.7692307692307693
 40
0.7692307692307693
 40
0.7692307692307693
 40
0.7692307692307693
 40
0.8461538461538461
 40
0.8461538461538461
 40
0.8461538461538461
 40
0.8461538461538461
 40
1.0
 40
1.0
 40
1.0
 40
1.0
 10
8.3461
 20
-23.3525
 30
0.0
 10
8.3461
 20
-23.1135
 30
0.0
 10
8.3706
 20
-22.9211
 30
0.0
 10
8.42
 20
-22.7758
 30
0.0
 10
8.42
 20
-22.7758
 30
0.0
 10
8.4689
 20
-22.63
 30
0.0
 10
8.5423
 20
-22.5176
 30
0.0
 10
8.6392
 20
-22.4385
 30
0.0
 10
8.6392
 20
-22.4385
 30
0.0
 10
8.7361
 20
-22.3595
 30
0.0
 10
8.8579
 20
-22.32
 30
0.0
 10
9.0046
 20
-22.32
 30
0.0
 10
9.0046
 20
-22.32
 30
0.0
 10
9.1133
 20
-22.32
 30
0.0
 10
9.2083
 20
-22.3421
 30
0.0
 10
9.2901
 20
-22.3859
 30
0.0
 10
9.2901
 20
-22.3859
 30
0.0
 10
9.372
 20
-22.4291
 30
0.0
 10
9.4393
 20
-22.4922
 30
0.0
 10
9.4929
 20
-22.5745
 30
0.0
 10
9.4929
 20
-22.5745
 30
0.0
 10
9.546
 20
-22.6568
 30
0.0
 10
9.5879
 20
-22.757
 30
0.0
 10
9.618
 20
-22.875
 30
0.0
 10
9.618
 20
-22.875
 30
0.0
 10
9.6486
 20
-22.9931
 30
0.0
 10
9.6636
 20
-23.1521
 30
0.0
 10
9.6636
 20
-23.3525
 30
0.0
 10
9.6636
 20
-23.3525
 30
0.0
 10
9.6636
 20
-23.5895
 30
0.0
 10
9.6392
 20
-23.7805
 30
0.0
 10
9.5907
 20
-23.9263
 30
0.0
 10
9.5907
 20
-23.9263
 30
0.0
 10
9.5418
 20
-24.0721
 30
0.0
 10
9.4689
 20
-24.1845
 30
0.0
 10
9.372
 20
-24.264
 30
0.0
 10
9.372
 20
-24.264
 30
0.0
 10
9.2751
 20
-24.3435
 30
0.0
 10
9.1528
 20
-24.383
 30
0.0
 10
9.0046
 20
-24.383
 30
0.0
 10
9.0046
 20
-24.383
 30
0.0
 10
8.8099
 20
-24.383
 30
0.0
 10
8.657
 20
-24.3134
 30
0.0
 10
8.546
 20
-24.1737
 30
0.0
 10
8.546
 20
-24.1737
 30
0.0
 10
8.4129
 20
-24.0058
 30
0.0
 10
8.3461
 20
-23.7316
 30
0.0
 10
8.3461
 20
-23.3525
 30
0.0
  0
SPLINE
  5
8A
330
1F
100
AcDbEntity
  8
ROUND
 62
   250
100
AcDbSpline
210
0.0
220
0.0
230
1.0
 70
    11
 71
     3
 72
    36
 73
    32
 74
     0
 42
0.0000000001
 43
0.0000000001
 40
0.0
 40
0.0
 40
0.0
 40
0.0
 40
0.1111111111111111
 40
0.1111111111111111
 40
0.1111111111111111
 40
0.1111111111111111
 40
0.2222222222222222
 40
0.2222222222222222
 40
0.2222222222222222
 40
0.2222222222222222
 40
0.3333333333333333
 40
0.3333333333333333
 40
0.3333333333333333
 40
0.3333333333333333
 40
0.4444444444444444
 40
0.4444444444444444
 40
0.4444444444444444
 40
0.4444444444444444
 40
0.5555555555555556
 40
0.5555555555555556
 40
0.5555555555555556
 40
0.5555555555555556
 40
0.6666666666666666
 40
0.6666666666666666
 40
0.6666666666666666
 40
0.6666666666666666
 40
0.7777777777777778
 40
0.7777777777777778
 40
0.7777777777777778
 40
0.7777777777777778
 40
1.0
 40
1.0
 40
1.0
 40
1.0
 10
8.6011
 20
-23.3525
 30
0.0
 10
8.6011
 20
-23.6841
 30
0.0
 10
8.6401
 20
-23.9047
 30
0.0
 10
8.7177
 20
-24.0147
 30
0.0
 10
8.7177
 20
-24.0147
 30
0.0
 10
8.7953
 20
-24.1243
 30
0.0
 10
8.8908
 20
-24.1794
 30
0.0
 10
9.0046
 20
-24.1794
 30
0.0
 10
9.0046
 20
-24.1794
 30
0.0
 10
9.1189
 20
-24.1794
 30
0.0
 10
9.2144
 20
-24.1239
 30
0.0
 10
9.292
 20
-24.0138
 30
0.0
 10
9.292
 20
-24.0138
 30
0.0
 10
9.3696
 20
-23.9037
 30
0.0
 10
9.4087
 20
-23.6831
 30
0.0
 10
9.4087
 20
-23.3525
 30
0.0
 10
9.4087
 20
-23.3525
 30
0.0
 10
9.4087
 20
-23.0199
 30
0.0
 10
9.3696
 20
-22.7988
 30
0.0
 10
9.292
 20
-22.6897
 30
0.0
 10
9.292
 20
-22.6897
 30
0.0
 10
9.2144
 20
-22.5801
 30
0.0
 10
9.118
 20
-22.5256
 30
0.0
 10
9.0023
 20
-22.5256
 30
0.0
 10
9.0023
 20
-22.5256
 30
0.0
 10
8.888
 20
-22.5256
 30
0.0
 10
8.7972
 20
-22.574
 30
0.0
 10
8.729
 20
-22.6704
 30
0.0
 10
8.729
 20
-22.6704
 30
0.0
 10
8.6439
 20
-22.7932
 30
0.0
 10
8.6011
 20
-23.0209
 30
0.0
 10
8.6011
 20
-23.3525
 30
0.0
  0
SPLINE
  5
8B
330
1F
100
AcDbEntity
  8
ROUND
 62
   250
100
AcDbSpline
210
0.0
220
0.0
230
1.0
 70
    11
 71
     3
 72
    20
 73
    16
 74
     0
 42
0.0000000001
 43
0.0000000001
 40
0.0
 40
0.0
 40
0.0
 40
0.0
 40
0.2
 40
0.2
 40
0.2
 40
0.2
 40
0.4
 40
0.4
 40
0.4
 40
0.4
 40
0.6
 40
0.6
 40
0.6
 40
0.6
 40
1.0
 40
1.0
 40
1.0
 40
1.0
 10
-17.7603
 20
-25.0371
 30
0.0
 10
-17.7603
 20
-25.0371
 30
0.0
 10
-14.7604
 20
-25.4751
 30
0.0
 10
-14.7604
 20
-25.4751
 30
0.0
 10
-14.7604
 20
-25.4751
 30
0.0
 10
-14.7604
 20
-25.4751
 30
0.0
 10
-14.7604
 20
-24.5082
 30
0.0
 10
-14.7604
 20
-24.5082
 30
0.0
 10
-14.7604
 20
-24.5082
 30
0.0
 10
-14.7604
 20
-24.5082
 30
0.0
 10
-17.7603
 20
-25.0357
 30
0.0
 10
-17.7603
 20
-25.0357
 30
0.0
 10
-17.7603
 20
-25.0357
 30
0.0
 10
-17.7603
 20
-25.0357
 30
0.0
 10
-17.7603
 20
-25.0371
 30
0.0
 10
-17.7603
 20
-25.0371
 30
0.0
  0
SPLINE
  5
8C
330
1F
100
AcDbEntity
  8
ROUND
 62
   250
100
AcDbSpline
210
0.0
220
0.0
230
1.0
 70
    11
 71
     3
 72
    20
 73
    16
 74
     0
 42
0.0000000001
 43
0.0000000001
 40
0.0
 40
0.0
 40
0.0
 40
0.0
 40
0.2
 40
0.2
 40
0.2
 40
0.2
 40
0.4
 40
0.4
 40
0.4
 40
0.4
 40
0.6
 40
0.6
 40
0.6
 40
0.6
 40
1.0
 40
1.0
 40
1.0
 40
1.0
 10
32.0896
 20
-24.9786
 30
0.0
 10
32.0896
 20
-24.9786
 30
0.0
 10
29.0898
 20
-24.5407
 30
0.0
 10
29.0898
 20
-24.5407
 30
0.0
 10
29.0898
 20
-24.5407
 30
0.0
 10
29.0898
 20
-24.5407
 30
0.0
 10
29.0898
 20
-25.5075
 30
0.0
 10
29.0898
 20
-25.5075
 30
0.0
 10
29.0898
 20
-25.5075
 30
0.0
 10
29.0898
 20
-25.5075
 30
0.0
 10
32.0896
 20
-24.98
 30
0.0
 10
32.0896
 20
-24.98
 30
0.0
 10
32.0896
 20
-24.98
 30
0.0
 10
32.0896
 20
-24.98
 30
0.0
 10
32.0896
 20
-24.9786
 30
0.0
 10
32.0896
 20
-24.9786
 30
0.0
  0
SPLINE
  5
8D
330
1F
100
AcDbEntity
  8
ROUND
 62
   250
100
AcDbSpline
210
0.0
220
0.0
230
1.0
 70
    24
 71
     3
 72
     8
 73
     4
 74
     0
 42
0.0000000001
 43
0.0000000001
 40
0.0
 40
0.0
 40
0.0
 40
0.0
 40
1.0
 40
1.0
 40
1.0
 40
1.0
 10
31.9433
 20
-25.014
 30
0.0
 10
31.9433
 20
-25.014
 30
0.0
 10
-16.4336
 20
-25.014
 30
0.0
 10
-16.4336
 20
-25.014
 30
0.0
  0
SPLINE
  5
8E
330
1F
100
AcDbEntity
  8
ROUND
 62
   250
100
AcDbSpline
210
0.0
220
0.0
230
1.0
 70
    11
 71
     3
 72
    92
 73
    88
 74
     0
 42
0.0000000001
 43
0.0000000001
 40
0.0
 40
0.0
 40
0.0
 40
0.0
 40
0.0434782608695652
 40
0.0434782608695652
 40
0.0434782608695652
 40
0.0434782608695652
 40
0.0869565217391304
 40
0.0869565217391304
 40
0.0869565217391304
 40
0.0869565217391304
 40
0.1304347826086956
 40
0.1304347826086956
 40
0.1304347826086956
 40
0.1304347826086956
 40
0.1739130434782609
 40
0.1739130434782609
 40
0.1739130434782609
 40
0.1739130434782609
 40
0.2173913043478261
 40
0.2173913043478261
 40
0.2173913043478261
 40
0.2173913043478261
 40
0.2608695652173913
 40
0.2608695652173913
 40
0.2608695652173913
 40
0.2608695652173913
 40
0.3043478260869565
 40
0.3043478260869565
 40
0.3043478260869565
 40
0.3043478260869565
 40
0.3478260869565217
 40
0.3478260869565217
 40
0.3478260869565217
 40
0.3478260869565217
 40
0.391304347826087
 40
0.391304347826087
 40
0.391304347826087
 40
0.391304347826087
 40
0.4347826086956522
 40
0.4347826086956522
 40
0.4347826086956522
 40
0.4347826086956522
 40
0.4782608695652174
 40
0.4782608695652174
 40
0.4782608695652174
 40
0.4782608695652174
 40
0.5217391304347826
 40
0.5217391304347826
 40
0.5217391304347826
 40
0.5217391304347826
 40
0.5652173913043478
 40
0.5652173913043478
 40
0.5652173913043478
 40
0.5652173913043478
 40
0.6086956521739131
 40
0.6086956521739131
 40
0.6086956521739131
 40
0.6086956521739131
 40
0.6521739130434783
 40
0.6521739130434783
 40
0.6521739130434783
 40
0.6521739130434783
 40
0.6956521739130435
 40
0.6956521739130435
 40
0.6956521739130435
 40
0.6956521739130435
 40
0.7391304347826086
 40
0.7391304347826086
 40
0.7391304347826086
 40
0.7391304347826086
 40
0.782608695652174
 40
0.782608695652174
 40
0.782608695652174
 40
0.782608695652174
 40
0.8260869565217391
 40
0.8260869565217391
 40
0.8260869565217391
 40
0.8260869565217391
 40
0.8695652173913043
 40
0.8695652173913043
 40
0.8695652173913043
 40
0.8695652173913043
 40
0.9130434782608695
 40
0.9130434782608695
 40
0.9130434782608695
 40
0.9130434782608695
 40
1.0
 40
1.0
 40
1.0
 40
1.0
 10
4.3156
 20
-19.0302
 30
0.0
 10
4.3156
 20
-19.0302
 30
0.0
 10
4.3156
 20
-19.2687
 30
0.0
 10
4.3156
 20
-19.2687
 30
0.0
 10
4.3156
 20
-19.2687
 30
0.0
 10
4.3156
 20
-19.2687
 30
0.0
 10
2.9802
 20
-19.2687
 30
0.0
 10
2.9802
 20
-19.2687
 30
0.0
 10
2.9802
 20
-19.2687
 30
0.0
 10
2.9783
 20
-19.209
 30
0.0
 10
2.9877
 20
-19.1516
 30
0.0
 10
3.0089
 20
-19.0965
 30
0.0
 10
3.0089
 20
-19.0965
 30
0.0
 10
3.0428
 20
-19.0053
 30
0.0
 10
3.0973
 20
-18.9159
 30
0.0
 10
3.1721
 20
-18.8275
 30
0.0
 10
3.1721
 20
-18.8275
 30
0.0
 10
3.2474
 20
-18.7395
 30
0.0
 10
3.3556
 20
-18.6375
 30
0.0
 10
3.4967
 20
-18.5218
 30
0.0
 10
3.4967
 20
-18.5218
 30
0.0
 10
3.7163
 20
-18.3416
 30
0.0
 10
3.865
 20
-18.1991
 30
0.0
 10
3.9421
 20
-18.0937
 30
0.0
 10
3.9421
 20
-18.0937
 30
0.0
 10
4.0192
 20
-17.9888
 30
0.0
 10
4.0578
 20
-17.8891
 30
0.0
 10
4.0578
 20
-17.7955
 30
0.0
 10
4.0578
 20
-17.7955
 30
0.0
 10
4.0578
 20
-17.6972
 30
0.0
 10
4.0225
 20
-17.6144
 30
0.0
 10
3.9525
 20
-17.5467
 30
0.0
 10
3.9525
 20
-17.5467
 30
0.0
 10
3.8819
 20
-17.4794
 30
0.0
 10
3.7902
 20
-17.4456
 30
0.0
 10
3.6773
 20
-17.4456
 30
0.0
 10
3.6773
 20
-17.4456
 30
0.0
 10
3.5578
 20
-17.4456
 30
0.0
 10
3.4623
 20
-17.4813
 30
0.0
 10
3.3908
 20
-17.5533
 30
0.0
 10
3.3908
 20
-17.5533
 30
0.0
 10
3.3189
 20
-17.6248
 30
0.0
 10
3.2827
 20
-17.724
 30
0.0
 10
3.2817
 20
-17.8505
 30
0.0
 10
3.2817
 20
-17.8505
 30
0.0
 10
3.2817
 20
-17.8505
 30
0.0
 10
3.0268
 20
-17.8247
 30
0.0
 10
3.0268
 20
-17.8247
 30
0.0
 10
3.0268
 20
-17.8247
 30
0.0
 10
3.0442
 20
-17.6342
 30
0.0
 10
3.11
 20
-17.4893
 30
0.0
 10
3.2239
 20
-17.3896
 30
0.0
 10
3.2239
 20
-17.3896
 30
0.0
 10
3.3377
 20
-17.2899
 30
0.0
 10
3.491
 20
-17.24
 30
0.0
 10
3.6829
 20
-17.24
 30
0.0
 10
3.6829
 20
-17.24
 30
0.0
 10
3.8767
 20
-17.24
 30
0.0
 10
4.0301
 20
-17.2941
 30
0.0
 10
4.143
 20
-17.4013
 30
0.0
 10
4.143
 20
-17.4013
 30
0.0
 10
4.2563
 20
-17.5091
 30
0.0
 10
4.3128
 20
-17.6422
 30
0.0
 10
4.3128
 20
-17.8012
 30
0.0
 10
4.3128
 20
-17.8012
 30
0.0
 10
4.3128
 20
-17.8821
 30
0.0
 10
4.2963
 20
-17.9616
 30
0.0
 10
4.2629
 20
-18.0396
 30
0.0
 10
4.2629
 20
-18.0396
 30
0.0
 10
4.23
 20
-18.1177
 30
0.0
 10
4.1749
 20
-18.2
 30
0.0
 10
4.0983
 20
-18.2861
 30
0.0
 10
4.0983
 20
-18.2861
 30
0.0
 10
4.0216
 20
-18.3727
 30
0.0
 10
3.8941
 20
-18.4912
 30
0.0
 10
3.7159
 20
-18.6417
 30
0.0
 10
3.7159
 20
-18.6417
 30
0.0
 10
3.5672
 20
-18.7668
 30
0.0
 10
3.4717
 20
-18.8515
 30
0.0
 10
3.4294
 20
-18.8962
 30
0.0
 10
3.4294
 20
-18.8962
 30
0.0
 10
3.3871
 20
-18.9404
 30
0.0
 10
3.3523
 20
-18.9851
 30
0.0
 10
3.3245
 20
-19.0302
 30
0.0
 10
3.3245
 20
-19.0302
 30
0.0
 10
3.3245
 20
-19.0302
 30
0.0
 10
4.3156
 20
-19.0302
 30
0.0
 10
4.3156
 20
-19.0302
 30
0.0
  0
SPLINE
  5
8F
330
1F
100
AcDbEntity
  8
ROUND
 62
   250
100
AcDbSpline
210
0.0
220
0.0
230
1.0
 70
    11
 71
     3
 72
    52
 73
    48
 74
     0
 42
0.0000000001
 43
0.0000000001
 40
0.0
 40
0.0
 40
0.0
 40
0.0
 40
0.0769230769230769
 40
0.0769230769230769
 40
0.0769230769230769
 40
0.0769230769230769
 40
0.1538461538461539
 40
0.1538461538461539
 40
0.1538461538461539
 40
0.1538461538461539
 40
0.2307692307692308
 40
0.2307692307692308
 40
0.2307692307692308
 40
0.2307692307692308
 40
0.3076923076923077
 40
0.3076923076923077
 40
0.3076923076923077
 40
0.3076923076923077
 40
0.3846153846153846
 40
0.3846153846153846
 40
0.3846153846153846
 40
0.3846153846153846
 40
0.4615384615384616
 40
0.4615384615384616
 40
0.4615384615384616
 40
0.4615384615384616
 40
0.5384615384615384
 40
0.5384615384615384
 40
0.5384615384615384
 40
0.5384615384615384
 40
0.6153846153846154
 40
0.6153846153846154
 40
0.6153846153846154
 40
0.6153846153846154
 40
0.6923076923076923
 40
0.6923076923076923
 40
0.6923076923076923
 40
0.6923076923076923
 40
0.7692307692307693
 40
0.7692307692307693
 40
0.7692307692307693
 40
0.7692307692307693
 40
0.8461538461538461
 40
0.8461538461538461
 40
0.8461538461538461
 40
0.8461538461538461
 40
1.0
 40
1.0
 40
1.0
 40
1.0
 10
4.5813
 20
-18.2725
 30
0.0
 10
4.5813
 20
-18.0335
 30
0.0
 10
4.6058
 20
-17.8411
 30
0.0
 10
4.6552
 20
-17.6958
 30
0.0
 10
4.6552
 20
-17.6958
 30
0.0
 10
4.7041
 20
-17.55
 30
0.0
 10
4.7775
 20
-17.4376
 30
0.0
 10
4.8744
 20
-17.3585
 30
0.0
 10
4.8744
 20
-17.3585
 30
0.0
 10
4.9713
 20
-17.2795
 30
0.0
 10
5.0931
 20
-17.24
 30
0.0
 10
5.2398
 20
-17.24
 30
0.0
 10
5.2398
 20
-17.24
 30
0.0
 10
5.3485
 20
-17.24
 30
0.0
 10
5.4435
 20
-17.2621
 30
0.0
 10
5.5253
 20
-17.3059
 30
0.0
 10
5.5253
 20
-17.3059
 30
0.0
 10
5.6072
 20
-17.3491
 30
0.0
 10
5.6745
 20
-17.4122
 30
0.0
 10
5.7281
 20
-17.4945
 30
0.0
 10
5.7281
 20
-17.4945
 30
0.0
 10
5.7812
 20
-17.5768
 30
0.0
 10
5.8231
 20
-17.677
 30
0.0
 10
5.8532
 20
-17.795
 30
0.0
 10
5.8532
 20
-17.795
 30
0.0
 10
5.8838
 20
-17.9131
 30
0.0
 10
5.8988
 20
-18.0721
 30
0.0
 10
5.8988
 20
-18.2725
 30
0.0
 10
5.8988
 20
-18.2725
 30
0.0
 10
5.8988
 20
-18.5095
 30
0.0
 10
5.8744
 20
-18.7005
 30
0.0
 10
5.8259
 20
-18.8463
 30
0.0
 10
5.8259
 20
-18.8463
 30
0.0
 10
5.777
 20
-18.9921
 30
0.0
 10
5.7041
 20
-19.1045
 30
0.0
 10
5.6072
 20
-19.184
 30
0.0
 10
5.6072
 20
-19.184
 30
0.0
 10
5.5103
 20
-19.2635
 30
0.0
 10
5.388
 20
-19.303
 30
0.0
 10
5.2398
 20
-19.303
 30
0.0
 10
5.2398
 20
-19.303
 30
0.0
 10
5.0451
 20
-19.303
 30
0.0
 10
4.8922
 20
-19.2334
 30
0.0
 10
4.7812
 20
-19.0937
 30
0.0
 10
4.7812
 20
-19.0937
 30
0.0
 10
4.6481
 20
-18.9258
 30
0.0
 10
4.5813
 20
-18.6516
 30
0.0
 10
4.5813
 20
-18.2725
 30
0.0
  0
SPLINE
  5
90
330
1F
100
AcDbEntity
  8
ROUND
 62
   250
100
AcDbSpline
210
0.0
220
0.0
230
1.0
 70
    11
 71
     3
 72
    36
 73
    32
 74
     0
 42
0.0000000001
 43
0.0000000001
 40
0.0
 40
0.0
 40
0.0
 40
0.0
 40
0.1111111111111111
 40
0.1111111111111111
 40
0.1111111111111111
 40
0.1111111111111111
 40
0.2222222222222222
 40
0.2222222222222222
 40
0.2222222222222222
 40
0.2222222222222222
 40
0.3333333333333333
 40
0.3333333333333333
 40
0.3333333333333333
 40
0.3333333333333333
 40
0.4444444444444444
 40
0.4444444444444444
 40
0.4444444444444444
 40
0.4444444444444444
 40
0.5555555555555556
 40
0.5555555555555556
 40
0.5555555555555556
 40
0.5555555555555556
 40
0.6666666666666666
 40
0.6666666666666666
 40
0.6666666666666666
 40
0.6666666666666666
 40
0.7777777777777778
 40
0.7777777777777778
 40
0.7777777777777778
 40
0.7777777777777778
 40
1.0
 40
1.0
 40
1.0
 40
1.0
 10
4.8363
 20
-18.2725
 30
0.0
 10
4.8363
 20
-18.6041
 30
0.0
 10
4.8753
 20
-18.8247
 30
0.0
 10
4.9529
 20
-18.9347
 30
0.0
 10
4.9529
 20
-18.9347
 30
0.0
 10
5.0305
 20
-19.0443
 30
0.0
 10
5.126
 20
-19.0994
 30
0.0
 10
5.2398
 20
-19.0994
 30
0.0
 10
5.2398
 20
-19.0994
 30
0.0
 10
5.3541
 20
-19.0994
 30
0.0
 10
5.4496
 20
-19.0439
 30
0.0
 10
5.5272
 20
-18.9338
 30
0.0
 10
5.5272
 20
-18.9338
 30
0.0
 10
5.6048
 20
-18.8237
 30
0.0
 10
5.6439
 20
-18.6031
 30
0.0
 10
5.6439
 20
-18.2725
 30
0.0
 10
5.6439
 20
-18.2725
 30
0.0
 10
5.6439
 20
-17.9399
 30
0.0
 10
5.6048
 20
-17.7188
 30
0.0
 10
5.5272
 20
-17.6097
 30
0.0
 10
5.5272
 20
-17.6097
 30
0.0
 10
5.4496
 20
-17.5001
 30
0.0
 10
5.3532
 20
-17.4456
 30
0.0
 10
5.2375
 20
-17.4456
 30
0.0
 10
5.2375
 20
-17.4456
 30
0.0
 10
5.1232
 20
-17.4456
 30
0.0
 10
5.0324
 20
-17.494
 30
0.0
 10
4.9642
 20
-17.5904
 30
0.0
 10
4.9642
 20
-17.5904
 30
0.0
 10
4.8791
 20
-17.7132
 30
0.0
 10
4.8363
 20
-17.9409
 30
0.0
 10
4.8363
 20
-18.2725
 30
0.0
  0
SPLINE
  5
91
330
1F
100
AcDbEntity
  8
ROUND
 62
   250
100
AcDbSpline
210
0.0
220
0.0
230
1.0
 70
    11
 71
     3
 72
    20
 73
    16
 74
     0
 42
0.0000000001
 43
0.0000000001
 40
0.0
 40
0.0
 40
0.0
 40
0.0
 40
0.2
 40
0.2
 40
0.2
 40
0.2
 40
0.4
 40
0.4
 40
0.4
 40
0.4
 40
0.6
 40
0.6
 40
0.6
 40
0.6
 40
1.0
 40
1.0
 40
1.0
 40
1.0
 10
7.1903
 20
-19.9571
 30
0.0
 10
7.1903
 20
-19.9571
 30
0.0
 10
10.1902
 20
-20.3951
 30
0.0
 10
10.1902
 20
-20.3951
 30
0.0
 10
10.1902
 20
-20.3951
 30
0.0
 10
10.1902
 20
-20.3951
 30
0.0
 10
10.1902
 20
-19.4282
 30
0.0
 10
10.1902
 20
-19.4282
 30
0.0
 10
10.1902
 20
-19.4282
 30
0.0
 10
10.1902
 20
-19.4282
 30
0.0
 10
7.1903
 20
-19.9557
 30
0.0
 10
7.1903
 20
-19.9557
 30
0.0
 10
7.1903
 20
-19.9557
 30
0.0
 10
7.1903
 20
-19.9557
 30
0.0
 10
7.1903
 20
-19.9571
 30
0.0
 10
7.1903
 20
-19.9571
 30
0.0
  0
SPLINE
  5
92
330
1F
100
AcDbEntity
  8
ROUND
 62
   250
100
AcDbSpline
210
0.0
220
0.0
230
1.0
 70
    11
 71
     3
 72
    20
 73
    16
 74
     0
 42
0.0000000001
 43
0.0000000001
 40
0.0
 40
0.0
 40
0.0
 40
0.0
 40
0.2
 40
0.2
 40
0.2
 40
0.2
 40
0.4
 40
0.4
 40
0.4
 40
0.4
 40
0.6
 40
0.6
 40
0.6
 40
0.6
 40
1.0
 40
1.0
 40
1.0
 40
1.0
 10
2.2837
 20
-19.8986
 30
0.0
 10
2.2837
 20
-19.8986
 30
0.0
 10
-0.7161
 20
-19.4607
 30
0.0
 10
-0.7161
 20
-19.4607
 30
0.0
 10
-0.7161
 20
-19.4607
 30
0.0
 10
-0.7161
 20
-19.4607
 30
0.0
 10
-0.7161
 20
-20.4275
 30
0.0
 10
-0.7161
 20
-20.4275
 30
0.0
 10
-0.7161
 20
-20.4275
 30
0.0
 10
-0.7161
 20
-20.4275
 30
0.0
 10
2.2837
 20
-19.9
 30
0.0
 10
2.2837
 20
-19.9
 30
0.0
 10
2.2837
 20
-19.9
 30
0.0
 10
2.2837
 20
-19.9
 30
0.0
 10
2.2837
 20
-19.8986
 30
0.0
 10
2.2837
 20
-19.8986
 30
0.0
  0
SPLINE
  5
93
330
1F
100
AcDbEntity
  8
ROUND
 62
   250
100
AcDbSpline
210
0.0
220
0.0
230
1.0
 70
    24
 71
     3
 72
     8
 73
     4
 74
     0
 42
0.0000000001
 43
0.0000000001
 40
0.0
 40
0.0
 40
0.0
 40
0.0
 40
1.0
 40
1.0
 40
1.0
 40
1.0
 10
12.3456
 20
-19.934
 30
0.0
 10
12.3456
 20
-19.934
 30
0.0
 10
-2.4434
 20
-19.934
 30
0.0
 10
-2.4434
 20
-19.934
 30
0.0
  0
ENDSEC
  0
SECTION
  2
OBJECTS
  0
DICTIONARY
  5
C
330
0
100
AcDbDictionary
  3
ACAD_GROUP
350
D
  3
ACAD_LAYOUT
350
1A
  3
ACAD_MATERIAL
350
3B
  3
ACAD_MLEADERSTYLE
350
B6
  3
ACAD_MLINESTYLE
350
17
  3
ACAD_PLOTSETTINGS
350
19
  3
ACAD_VISUALSTYLE
350
2A
  3
ACDBHEADERROUNDTRIPXREC
350
94
  3
ACDBVARIABLEDICTIONARY
350
B4
  0
DICTIONARY
  5
D
102
{ACAD_REACTORS
330
C
102
}
330
C
100
AcDbDictionary
  0
DICTIONARY
  5
1A
102
{ACAD_REACTORS
330
C
102
}
330
C
100
AcDbDictionary
  0
DICTIONARY
  5
3B
102
{ACAD_REACTORS
330
C
102
}
330
C
100
AcDbDictionary
  3
BYBLOCK
350
3D
  3
BYLAYER
350
3C
  3
GLOBAL
350
3E
  0
DICTIONARY
  5
B6
102
{ACAD_REACTORS
330
C
102
}
330
C
100
AcDbDictionary
  0
DICTIONARY
  5
17
102
{ACAD_REACTORS
330
C
102
}
330
C
100
AcDbDictionary
  3
STANDARD
350
18
  0
DICTIONARY
  5
19
102
{ACAD_REACTORS
330
C
102
}
330
C
100
AcDbDictionary
  0
DICTIONARY
  5
2A
102
{ACAD_REACTORS
330
C
102
}
330
C
100
AcDbDictionary
  3
2DWIREFRAME
350
2F
  3
3D_HIDDEN
350
31
  3
3DWIREFRAME
350
30
  3
BASIC
350
32
  3
BRIGHTEN
350
36
  3
COLORCHANGE
350
3A
  3
CONCEPTUAL
350
34
  3
DIM
350
35
  3
FACEPATTERN
350
39
  3
FLAT
350
2B
  3
FLATWITHEDGES
350
2C
  3
GOURAUD
350
2D
  3
GOURAUDWITHEDGES
350
2E
  3
LINEPATTERN
350
38
  3
REALISTIC
350
33
  3
THICKEN
350
37
  0
DICTIONARY
  5
94
102
{ACAD_REACTORS
330
C
102
}
330
C
100
AcDbDictionary
  3
CEPSNTYPE
350
9D
  3
DIMSTYLEDATA
350
B3
  3
FINGERPRINTGUID
350
9E
  3
HYPERLINKBASE
350
97
  3
INSUNITS
350
9C
  3
LAYOUTDICT
350
99
  3
LWETCUNION
350
9B
  3
PLOTSETDICT
350
9A
  3
PSVPSCALE
350
A0
  3
PUCSBASE
350
A3
  3
PUCSORGBACK
350
A9
  3
PUCSORGBOTTOM
350
A5
  3
PUCSORGFRONT
350
A8
  3
PUCSORGLEFT
350
A6
  3
PUCSORGRIGHT
350
A7
  3
PUCSORGTOP
350
A4
  3
PUCSORTHOREF
350
A1
  3
PUCSORTHOVIEW
350
A2
  3
STYLESHEET
350
98
  3
TSTACKALIGN
350
95
  3
TSTACKSIZE
350
96
  3
UCSBASE
350
AC
  3
UCSORGBACK
350
B2
  3
UCSORGBOTTOM
350
AE
  3
UCSORGFRONT
350
B1
  3
UCSORGLEFT
350
AF
  3
UCSORGRIGHT
350
B0
  3
UCSORGTOP
350
AD
  3
UCSORTHOREF
350
AA
  3
UCSORTHOVIEW
350
AB
  3
VERSIONGUID
350
9F
  0
DICTIONARY
  5
B4
102
{ACAD_REACTORS
330
C
102
}
330
C
100
AcDbDictionary
  3
DIMASSOC
350
B7
  3
HIDETEXT
350
B8
  0
MATERIAL
  5
3D
102
{ACAD_REACTORS
330
3B
102
}
102
{ACAD_XDICTIONARY
360
BB
102
}
330
3B
100
AcDbMaterial
  1
ByBlock
  0
MATERIAL
  5
3C
102
{ACAD_REACTORS
330
3B
102
}
102
{ACAD_XDICTIONARY
360
B9
102
}
330
3B
100
AcDbMaterial
  1
ByLayer
  0
MATERIAL
  5
3E
102
{ACAD_REACTORS
330
3B
102
}
102
{ACAD_XDICTIONARY
360
BD
102
}
330
3B
100
AcDbMaterial
  1
Global
  0
MLINESTYLE
  5
18
102
{ACAD_REACTORS
330
17
102
}
330
17
100
AcDbMlineStyle
  2
Standard
 70
     0
  3

 62
   256
 51
90.0
 52
90.0
 71
     2
 49
0.5
 62
   256
  6
BYLAYER
 49
-0.5
 62
   256
  6
BYLAYER
  0
ACAD_PROXY_OBJECT
  5
2F
102
{ACAD_REACTORS
330
2A
102
}
330
2A
100
AcDbProxyObject
 90
      499
 91
      501
 93
      436
310
42CC9915DA5C99599C985B595049028333333333333E3BF0000000000000FB0107901411070040501600405405064090741402480A0340
1001
ACAD
1000
AcDbSavedByObjectVersion
1070
     0
  0
ACAD_PROXY_OBJECT
  5
31
102
{ACAD_REACTORS
330
2A
102
}
330
2A
100
AcDbProxyObject
 90
      499
 91
      501
 93
      500
310
424CD108121A5919195B90640502408333333333333E3BF0000000000000FB01079024090700405020000000000001110200405405064090740C02480A0340
1001
ACAD
1000
AcDbSavedByObjectVersion
1070
     0
  0
ACAD_PROXY_OBJECT
  5
30
102
{ACAD_REACTORS
330
2A
102
}
330
2A
100
AcDbProxyObject
 90
      499
 91
      501
 93
      436
310
42CCD915DA5C99599C985B595059028333333333333E3BF0000000000000FB0107901411070040501600405405064090741402480A0340
1001
ACAD
1000
AcDbSavedByObjectVersion
1070
     0
  0
ACAD_PROXY_OBJECT
  5
32
102
{ACAD_REACTORS
330
2A
102
}
330
2A
100
AcDbProxyObject
 90
      499
 91
      501
 93
      388
310
4150985CDA58D07406404333333333333E3BF0000000000000FB0107A41107004050150841D405064090741402480A0350
1001
ACAD
1000
AcDbSavedByObjectVersion
1070
     0
  0
ACAD_PROXY_OBJECT
  5
36
102
{ACAD_REACTORS
330
2A
102
}
330
2A
100
AcDbProxyObject
 90
      499
 91
      501
 93
      428
310
42109C9A59DA1D195B90C409028333333333333E3BF0000000000000FB010790141107004050150841D405064090741402480A029950
1001
ACAD
1000
AcDbSavedByObjectVersion
1070
     0
  0
ACAD_PROXY_OBJECT
  5
3A
102
{ACAD_REACTORS
330
2A
102
}
330
2A
100
AcDbProxyObject
 90
      499
 91
      501
 93
      452
310
42D0DBDB1BDC90DA185B99D95104090240C333333333333E3BF0000000000000FB0108901411070040501508421405064090741402480A0350
1001
ACAD
1000
AcDbSavedByObjectVersion
1070
     0
  0
ACAD_PROXY_OBJECT
  5
34
102
{ACAD_REACTORS
330
2A
102
}
330
2A
100
AcDbProxyObject
 90
      499
 91
      501
 93
      500
310
4290DBDB98D95C1D1D585B10940D028333333333333E3BF0000000000000FB0107902409070040501000000000000111010841D405064090740C02480A0340
1001
ACAD
1000
AcDbSavedByObjectVersion
1070
     0
  0
ACAD_PROXY_OBJECT
  5
35
102
{ACAD_REACTORS
330
2A
102
}
330
2A
100
AcDbProxyObject
 90
      499
 91
      501
 93
      412
310
40D11A5B50B409028333333333333E3BF0000000000000FB010790141107004050150841D405064090741402480A02677FFFFFD0
1001
ACAD
1000
AcDbSavedByObjectVersion
1070
     0
  0
ACAD_PROXY_OBJECT
  5
39
102
{ACAD_REACTORS
330
2A
102
}
330
2A
100
AcDbProxyObject
 90
      499
 91
      501
 93
      444
310
42D19858D95C185D1D195C9B90F409028333333333333E3BF0000000000000FB010790141107004050150841D405064090741402480A0350
1001
ACAD
1000
AcDbSavedByObjectVersion
1070
     0
  0
ACAD_PROXY_OBJECT
  5
2B
102
{ACAD_REACTORS
330
2A
102
}
330
2A
100
AcDbProxyObject
 90
      499
 91
      501
 93
      388
310
41119B185D240901404333333333333E3BF0000000000000F9010740A41107004050150841D405064090741402480A1B50
1001
ACAD
1000
AcDbSavedByObjectVersion
1070
     0
  0
ACAD_PROXY_OBJECT
  5
2C
102
{ACAD_REACTORS
330
2A
102
}
330
2A
100
AcDbProxyObject
 90
      499
 91
      501
 93
      476
310
43519B185D15DA5D1A115919D95CD0140901404333333333333E3BF0000000000000F9010740901411070040501600405405064090741402480A1B50
1001
ACAD
1000
AcDbSavedByObjectVersion
1070
     0
  0
ACAD_PROXY_OBJECT
  5
2D
102
{ACAD_REACTORS
330
2A
102
}
330
2A
100
AcDbProxyObject
 90
      499
 91
      501
 93
      412
310
41D1DBDD5C985D5910240902404333333333333E3BF0000000000000F9010740A411070040501641D405064090741402480A1B50
1001
ACAD
1000
AcDbSavedByObjectVersion
1070
     0
  0
ACAD_PROXY_OBJECT
  5
2E
102
{ACAD_REACTORS
330
2A
102
}
330
2A
100
AcDbProxyObject
 90
      499
 91
      501
 93
      500
310
4411DBDD5C985D5915DA5D1A115919D95CD0340902404333333333333E3BF0000000000000F9010740901411070040501600405405064090741402480A1B50
1001
ACAD
1000
AcDbSavedByObjectVersion
1070
     0
  0
ACAD_PROXY_OBJECT
  5
38
102
{ACAD_REACTORS
330
2A
102
}
330
2A
100
AcDbProxyObject
 90
      499
 91
      501
 93
      444
310
42D31A5B995C185D1D195C9B90E409028333333333333E3BF0000000000000FB010790141107004050750841D405064090741402483A0350
1001
ACAD
1000
AcDbSavedByObjectVersion
1070
     0
  0
ACAD_PROXY_OBJECT
  5
33
102
{ACAD_REACTORS
330
2A
102
}
330
2A
100
AcDbProxyObject
 90
      499
 91
      501
 93
      420
310
425499585B1A5CDD1A58D08409028333333333333E3BF0000000000000FB01079019070040501508421405064090741402480A1B40
1001
ACAD
1000
AcDbSavedByObjectVersion
1070
     0
  0
ACAD_PROXY_OBJECT
  5
37
102
{ACAD_REACTORS
330
2A
102
}
330
2A
100
AcDbProxyObject
 90
      499
 91
      501
 93
      412
310
41D51A1A58DAD95B90D409028333333333333E3BF0000000000000FB010790141107004050150C41D405064090741402480A0350
1001
ACAD
1000
AcDbSavedByObjectVersion
1070
     0
  0
XRECORD
  5
9D
102
{ACAD_REACTORS
330
94
102
}
330
94
100
AcDbXrecord
 90
        0
  0
XRECORD
  5
B3
102
{ACAD_REACTORS
330
94
102
}
330
94
100
AcDbXrecord
1000
DSTYLE
1002
{
1070
   340
340
11
1002
}
  0
XRECORD
  5
9E
102
{ACAD_REACTORS
330
94
102
}
330
94
100
AcDbXrecord
  1
{0631531B-506C-4627-998F-DDBD0ACA3239}
  0
XRECORD
  5
97
102
{ACAD_REACTORS
330
94
102
}
330
94
100
AcDbXrecord
  1

  0
XRECORD
  5
9C
102
{ACAD_REACTORS
330
94
102
}
330
94
100
AcDbXrecord
 90
        4
  0
XRECORD
  5
99
102
{ACAD_REACTORS
330
94
102
}
330
94
100
AcDbXrecord
340
1A
  0
XRECORD
  5
9B
102
{ACAD_REACTORS
330
94
102
}
330
94
100
AcDbXrecord
 90
    10781
  0
XRECORD
  5
9A
102
{ACAD_REACTORS
330
94
102
}
330
94
100
AcDbXrecord
340
19
  0
XRECORD
  5
A0
102
{ACAD_REACTORS
330
94
102
}
330
94
100
AcDbXrecord
 40
0.0
  0
XRECORD
  5
A3
102
{ACAD_REACTORS
330
94
102
}
330
94
100
AcDbXrecord
340
0
  0
XRECORD
  5
A9
102
{ACAD_REACTORS
330
94
102
}
330
94
100
AcDbXrecord
 10
0.0
 20
0.0
 30
0.0
  0
XRECORD
  5
A5
102
{ACAD_REACTORS
330
94
102
}
330
94
100
AcDbXrecord
 10
0.0
 20
0.0
 30
0.0
  0
XRECORD
  5
A8
102
{ACAD_REACTORS
330
94
102
}
330
94
100
AcDbXrecord
 10
0.0
 20
0.0
 30
0.0
  0
XRECORD
  5
A6
102
{ACAD_REACTORS
330
94
102
}
330
94
100
AcDbXrecord
 10
0.0
 20
0.0
 30
0.0
  0
XRECORD
  5
A7
102
{ACAD_REACTORS
330
94
102
}
330
94
100
AcDbXrecord
 10
0.0
 20
0.0
 30
0.0
  0
XRECORD
  5
A4
102
{ACAD_REACTORS
330
94
102
}
330
94
100
AcDbXrecord
 10
0.0
 20
0.0
 30
0.0
  0
XRECORD
  5
A1
102
{ACAD_REACTORS
330
94
102
}
330
94
100
AcDbXrecord
340
0
  0
XRECORD
  5
A2
102
{ACAD_REACTORS
330
94
102
}
330
94
100
AcDbXrecord
 70
     0
  0
XRECORD
  5
98
102
{ACAD_REACTORS
330
94
102
}
330
94
100
AcDbXrecord
  1

  0
XRECORD
  5
95
102
{ACAD_REACTORS
330
94
102
}
330
94
100
AcDbXrecord
 90
        1
  0
XRECORD
  5
96
102
{ACAD_REACTORS
330
94
102
}
330
94
100
AcDbXrecord
 90
       70
  0
XRECORD
  5
AC
102
{ACAD_REACTORS
330
94
102
}
330
94
100
AcDbXrecord
340
0
  0
XRECORD
  5
B2
102
{ACAD_REACTORS
330
94
102
}
330
94
100
AcDbXrecord
 10
0.0
 20
0.0
 30
0.0
  0
XRECORD
  5
AE
102
{ACAD_REACTORS
330
94
102
}
330
94
100
AcDbXrecord
 10
0.0
 20
0.0
 30
0.0
  0
XRECORD
  5
B1
102
{ACAD_REACTORS
330
94
102
}
330
94
100
AcDbXrecord
 10
0.0
 20
0.0
 30
0.0
  0
XRECORD
  5
AF
102
{ACAD_REACTORS
330
94
102
}
330
94
100
AcDbXrecord
 10
0.0
 20
0.0
 30
0.0
  0
XRECORD
  5
B0
102
{ACAD_REACTORS
330
94
102
}
330
94
100
AcDbXrecord
 10
0.0
 20
0.0
 30
0.0
  0
XRECORD
  5
AD
102
{ACAD_REACTORS
330
94
102
}
330
94
100
AcDbXrecord
 10
0.0
 20
0.0
 30
0.0
  0
XRECORD
  5
AA
102
{ACAD_REACTORS
330
94
102
}
330
94
100
AcDbXrecord
340
0
  0
XRECORD
  5
AB
102
{ACAD_REACTORS
330
94
102
}
330
94
100
AcDbXrecord
 70
     0
  0
XRECORD
  5
9F
102
{ACAD_REACTORS
330
94
102
}
330
94
100
AcDbXrecord
  1
{FAEB1C32-E019-11D5-929B-00C0DF256EC4}
  0
DICTIONARYVAR
  5
B7
102
{ACAD_REACTORS
330
B4
102
}
330
B4
100
DictionaryVariables
280
     0
  1
2
  0
DICTIONARYVAR
  5
B8
102
{ACAD_REACTORS
330
B4
102
}
330
B4
100
DictionaryVariables
280
     0
  1
1
  0
DICTIONARY
  5
BB
330
3D
100
AcDbDictionary
280
     1
  3
ACAD_XREC_ROUNDTRIP
360
BC
  0
DICTIONARY
  5
B9
330
3C
100
AcDbDictionary
280
     1
  3
ACAD_XREC_ROUNDTRIP
360
BA
  0
DICTIONARY
  5
BD
330
3E
100
AcDbDictionary
280
     1
  3
ACAD_XREC_ROUNDTRIP
360
BE
  0
XRECORD
  5
BC
102
{ACAD_REACTORS
330
BB
102
}
330
BB
100
AcDbXrecord
102
MATERIAL
148
0.0
149
0.0
149
0.0
 93
        0
 94
      127
282
     0
 72
     1
 77
     1
171
     1
175
     1
179
     1
273
     0
  0
XRECORD
  5
BA
102
{ACAD_REACTORS
330
B9
102
}
330
B9
100
AcDbXrecord
102
MATERIAL
148
0.0
149
0.0
149
0.0
 93
        0
 94
      127
282
     0
 72
     1
 77
     1
171
     1
175
     1
179
     1
273
     0
  0
XRECORD
  5
BE
102
{ACAD_REACTORS
330
BD
102
}
330
BD
100
AcDbXrecord
102
MATERIAL
148
0.0
149
0.0
149
0.0
 93
        0
 94
      127
282
     0
 72
     1
 77
     1
171
     1
175
     1
179
     1
273
     0
  0
ENDSEC
  0
EOF
