  0
SECTION
  2
HEADER
  9
$ACADVER
  1
AC1015
  9
$ACADMAINTVER
 70
     6
  9
$DWGCODEPAGE
  3
ANSI_1250
  9
$INSBASE
 10
0.0
 20
0.0
 30
0.0
  9
$EXTMIN
 10
-24.3699
 20
-30.0259
 30
0.0
  9
$EXTMAX
 10
24.37
 20
29.9724
 30
0.0
  9
$LIMMIN
 10
0.0
 20
0.0
  9
$LIMMAX
 10
12.0
 20
9.0
  9
$ORTHOMODE
 70
     0
  9
$REGENMODE
 70
     1
  9
$FILLMODE
 70
     1
  9
$QTEXTMODE
 70
     0
  9
$MIRRTEXT
 70
     1
  9
$LTSCALE
 40
1.0
  9
$ATTMODE
 70
     1
  9
$TEXTSIZE
 40
0.2
  9
$TRACEWID
 40
0.05
  9
$TEXTSTYLE
  7
Standard
  9
$CLAYER
  8
0
  9
$CELTYPE
  6
ByLayer
  9
$CECOLOR
 62
   256
  9
$CELTSCALE
 40
1.0
  9
$DISPSILH
 70
     0
  9
$DIMSCALE
 40
1.0
  9
$DIMASZ
 40
0.18
  9
$DIMEXO
 40
0.0625
  9
$DIMDLI
 40
0.38
  9
$DIMRND
 40
0.0
  9
$DIMDLE
 40
0.0
  9
$DIMEXE
 40
0.18
  9
$DIMTP
 40
0.0
  9
$DIMTM
 40
0.0
  9
$DIMTXT
 40
0.18
  9
$DIMCEN
 40
0.09
  9
$DIMTSZ
 40
0.0
  9
$DIMTOL
 70
     0
  9
$DIMLIM
 70
     0
  9
$DIMTIH
 70
     1
  9
$DIMTOH
 70
     1
  9
$DIMSE1
 70
     0
  9
$DIMSE2
 70
     0
  9
$DIMTAD
 70
     0
  9
$DIMZIN
 70
     0
  9
$DIMBLK
  1

  9
$DIMASO
 70
     1
  9
$DIMSHO
 70
     1
  9
$DIMPOST
  1

  9
$DIMAPOST
  1

  9
$DIMALT
 70
     0
  9
$DIMALTD
 70
     2
  9
$DIMALTF
 40
25.4
  9
$DIMLFAC
 40
1.0
  9
$DIMTOFL
 70
     0
  9
$DIMTVP
 40
0.0
  9
$DIMTIX
 70
     0
  9
$DIMSOXD
 70
     0
  9
$DIMSAH
 70
     0
  9
$DIMBLK1
  1

  9
$DIMBLK2
  1

  9
$DIMSTYLE
  2
Standard
  9
$DIMCLRD
 70
     0
  9
$DIMCLRE
 70
     0
  9
$DIMCLRT
 70
     0
  9
$DIMTFAC
 40
1.0
  9
$DIMGAP
 40
0.09
  9
$DIMJUST
 70
     0
  9
$DIMSD1
 70
     0
  9
$DIMSD2
 70
     0
  9
$DIMTOLJ
 70
     1
  9
$DIMTZIN
 70
     0
  9
$DIMALTZ
 70
     0
  9
$DIMALTTZ
 70
     0
  9
$DIMUPT
 70
     0
  9
$DIMDEC
 70
     4
  9
$DIMTDEC
 70
     4
  9
$DIMALTU
 70
     2
  9
$DIMALTTD
 70
     2
  9
$DIMTXSTY
  7
Standard
  9
$DIMAUNIT
 70
     0
  9
$DIMADEC
 70
     0
  9
$DIMALTRND
 40
0.0
  9
$DIMAZIN
 70
     0
  9
$DIMDSEP
 70
    46
  9
$DIMATFIT
 70
     3
  9
$DIMFRAC
 70
     0
  9
$DIMLDRBLK
  1

  9
$DIMLUNIT
 70
     2
  9
$DIMLWD
 70
    -2
  9
$DIMLWE
 70
    -2
  9
$DIMTMOVE
 70
     0
  9
$LUNITS
 70
     2
  9
$LUPREC
 70
     4
  9
$SKETCHINC
 40
0.1
  9
$FILLETRAD
 40
0.5
  9
$AUNITS
 70
     0
  9
$AUPREC
 70
     0
  9
$MENU
  1
.
  9
$ELEVATION
 40
0.0
  9
$PELEVATION
 40
0.0
  9
$THICKNESS
 40
0.0
  9
$LIMCHECK
 70
     0
  9
$CHAMFERA
 40
0.5
  9
$CHAMFERB
 40
0.5
  9
$CHAMFERC
 40
1.0
  9
$CHAMFERD
 40
0.0
  9
$SKPOLY
 70
     0
  9
$TDCREATE
 40
2459122.555953588
  9
$TDUCREATE
 40
2459122.472620255
  9
$TDUPDATE
 40
2459122.5559536
  9
$TDUUPDATE
 40
2459122.472620266
  9
$TDINDWG
 40
0.0000000116
  9
$TDUSRTIMER
 40
0.0000000116
  9
$USRTIMER
 70
     1
  9
$ANGBASE
 50
0.0
  9
$ANGDIR
 70
     0
  9
$PDMODE
 70
     0
  9
$PDSIZE
 40
0.0
  9
$PLINEWID
 40
0.0
  9
$SPLFRAME
 70
     0
  9
$SPLINETYPE
 70
     6
  9
$SPLINESEGS
 70
     8
  9
$HANDSEED
  5
C0
  9
$SURFTAB1
 70
     6
  9
$SURFTAB2
 70
     6
  9
$SURFTYPE
 70
     6
  9
$SURFU
 70
     6
  9
$SURFV
 70
     6
  9
$UCSBASE
  2

  9
$UCSNAME
  2

  9
$UCSORG
 10
0.0
 20
0.0
 30
0.0
  9
$UCSXDIR
 10
1.0
 20
0.0
 30
0.0
  9
$UCSYDIR
 10
0.0
 20
1.0
 30
0.0
  9
$UCSORTHOREF
  2

  9
$UCSORTHOVIEW
 70
     0
  9
$UCSORGTOP
 10
0.0
 20
0.0
 30
0.0
  9
$UCSORGBOTTOM
 10
0.0
 20
0.0
 30
0.0
  9
$UCSORGLEFT
 10
0.0
 20
0.0
 30
0.0
  9
$UCSORGRIGHT
 10
0.0
 20
0.0
 30
0.0
  9
$UCSORGFRONT
 10
0.0
 20
0.0
 30
0.0
  9
$UCSORGBACK
 10
0.0
 20
0.0
 30
0.0
  9
$PUCSBASE
  2

  9
$PUCSNAME
  2

  9
$PUCSORG
 10
0.0
 20
0.0
 30
0.0
  9
$PUCSXDIR
 10
1.0
 20
0.0
 30
0.0
  9
$PUCSYDIR
 10
0.0
 20
1.0
 30
0.0
  9
$PUCSORTHOREF
  2

  9
$PUCSORTHOVIEW
 70
     0
  9
$PUCSORGTOP
 10
0.0
 20
0.0
 30
0.0
  9
$PUCSORGBOTTOM
 10
0.0
 20
0.0
 30
0.0
  9
$PUCSORGLEFT
 10
0.0
 20
0.0
 30
0.0
  9
$PUCSORGRIGHT
 10
0.0
 20
0.0
 30
0.0
  9
$PUCSORGFRONT
 10
0.0
 20
0.0
 30
0.0
  9
$PUCSORGBACK
 10
0.0
 20
0.0
 30
0.0
  9
$USERI1
 70
     0
  9
$USERI2
 70
     0
  9
$USERI3
 70
     0
  9
$USERI4
 70
     0
  9
$USERI5
 70
     0
  9
$USERR1
 40
0.0
  9
$USERR2
 40
0.0
  9
$USERR3
 40
0.0
  9
$USERR4
 40
0.0
  9
$USERR5
 40
0.0
  9
$WORLDVIEW
 70
     1
  9
$SHADEDGE
 70
     3
  9
$SHADEDIF
 70
    70
  9
$TILEMODE
 70
     1
  9
$MAXACTVP
 70
    64
  9
$PINSBASE
 10
0.0
 20
0.0
 30
0.0
  9
$PLIMCHECK
 70
     0
  9
$PEXTMIN
 10
1.000000000000000E+20
 20
1.000000000000000E+20
 30
1.000000000000000E+20
  9
$PEXTMAX
 10
-1.000000000000000E+20
 20
-1.000000000000000E+20
 30
-1.000000000000000E+20
  9
$PLIMMIN
 10
0.0
 20
0.0
  9
$PLIMMAX
 10
12.0
 20
9.0
  9
$UNITMODE
 70
     0
  9
$VISRETAIN
 70
     1
  9
$PLINEGEN
 70
     0
  9
$PSLTSCALE
 70
     1
  9
$TREEDEPTH
 70
  3020
  9
$CMLSTYLE
  2
Standard
  9
$CMLJUST
 70
     0
  9
$CMLSCALE
 40
1.0
  9
$PROXYGRAPHICS
 70
     1
  9
$MEASUREMENT
 70
     0
  9
$CELWEIGHT
370
    -1
  9
$ENDCAPS
280
     0
  9
$JOINSTYLE
280
     0
  9
$LWDISPLAY
290
     0
  9
$INSUNITS
 70
     4
  9
$HYPERLINKBASE
  1

  9
$STYLESHEET
  1

  9
$XEDIT
290
     1
  9
$CEPSNTYPE
380
     0
  9
$PSTYLEMODE
290
     1
  9
$FINGERPRINTGUID
  2
{50A70D7F-67D9-4825-AADC-51B3C1C7F6C6}
  9
$VERSIONGUID
  2
{FAEB1C32-E019-11D5-929B-00C0DF256EC4}
  9
$EXTNAMES
290
     1
  9
$PSVPSCALE
 40
0.0
  9
$OLESTARTUP
290
     0
  0
ENDSEC
  0
SECTION
  2
CLASSES
  0
CLASS
  1
ACDBDICTIONARYWDFLT
  2
AcDbDictionaryWithDefault
  3
ObjectDBX Classes
 90
        0
280
     0
281
     0
  0
CLASS
  1
VISUALSTYLE
  2
AcDbVisualStyle
  3
ObjectDBX Classes
 90
     4095
280
     0
281
     0
  0
CLASS
  1
MATERIAL
  2
AcDbMaterial
  3
ObjectDBX Classes
 90
     1153
280
     0
281
     0
  0
CLASS
  1
DICTIONARYVAR
  2
AcDbDictionaryVar
  3
ObjectDBX Classes
 90
        0
280
     0
281
     0
  0
CLASS
  1
ACDBPLACEHOLDER
  2
AcDbPlaceHolder
  3
ObjectDBX Classes
 90
        0
280
     0
281
     0
  0
CLASS
  1
LAYOUT
  2
AcDbLayout
  3
ObjectDBX Classes
 90
        0
280
     0
281
     0
  0
ENDSEC
  0
SECTION
  2
TABLES
  0
TABLE
  2
VPORT
  5
8
330
0
100
AcDbSymbolTable
 70
     1
  0
VPORT
  5
29
330
8
100
AcDbSymbolTableRecord
100
AcDbViewportTableRecord
  2
*Active
 70
     0
 10
0.0
 20
0.0
 11
1.0
 21
1.0
 12
10.42990654205607
 22
4.5
 13
0.0
 23
0.0
 14
0.5
 24
0.5
 15
0.5
 25
0.5
 16
0.0
 26
0.0
 36
1.0
 17
0.0
 27
0.0
 37
0.0
 40
9.0
 41
1.972972972850329
 42
50.0
 43
0.0
 44
0.0
 50
0.0
 51
0.0
 71
     0
 72
   100
 73
     1
 74
     3
 75
     0
 76
     0
 77
     0
 78
     0
281
     0
 65
     1
110
0.0
120
0.0
130
0.0
111
1.0
121
0.0
131
0.0
112
0.0
122
1.0
132
0.0
 79
     0
146
0.0
  0
ENDTAB
  0
TABLE
  2
LTYPE
  5
5
330
0
100
AcDbSymbolTable
 70
     3
  0
LTYPE
  5
14
330
5
100
AcDbSymbolTableRecord
100
AcDbLinetypeTableRecord
  2
ByBlock
 70
     0
  3

 72
    65
 73
     0
 40
0.0
  0
LTYPE
  5
15
330
5
100
AcDbSymbolTableRecord
100
AcDbLinetypeTableRecord
  2
ByLayer
 70
     0
  3

 72
    65
 73
     0
 40
0.0
  0
LTYPE
  5
16
330
5
100
AcDbSymbolTableRecord
100
AcDbLinetypeTableRecord
  2
Continuous
 70
     0
  3
Solid line
 72
    65
 73
     0
 40
0.0
  0
LTYPE
  5
78
330
5
100
AcDbSymbolTableRecord
100
AcDbLinetypeTableRecord
  2
New Line1
 70
     0
  3

 72
    65
 73
     4
 40
1.2
 49
0.5
 74
     4
 75
     0
340
0
 46
1.0
 50
0.0
 44
0.0
 45
0.0
 49
-0.3
 74
     4
 75
     0
340
0
 46
1.0
 50
0.0
 44
0.0
 45
0.0
 49
0.1
 74
     4
 75
     0
340
0
 46
1.0
 50
0.0
 44
0.0
 45
0.0
 49
-0.3
 74
     4
 75
     0
340
0
 46
1.0
 50
0.0
 44
0.0
 45
0.0
  0
LTYPE
  5
7B
330
5
100
AcDbSymbolTableRecord
100
AcDbLinetypeTableRecord
  2
New Line2
 70
     0
  3

 72
    65
 73
     4
 40
1.2
 49
0.5
 74
     4
 75
     0
340
0
 46
1.0
 50
0.0
 44
0.0
 45
0.0
 49
-0.3
 74
     4
 75
     0
340
0
 46
1.0
 50
0.0
 44
0.0
 45
0.0
 49
0.1
 74
     4
 75
     0
340
0
 46
1.0
 50
0.0
 44
0.0
 45
0.0
 49
-0.3
 74
     4
 75
     0
340
0
 46
1.0
 50
0.0
 44
0.0
 45
0.0
  0
ENDTAB
  0
TABLE
  2
LAYER
  5
2
330
0
100
AcDbSymbolTable
 70
     2
  0
LAYER
  5
10
330
2
100
AcDbSymbolTableRecord
100
AcDbLayerTableRecord
  2
0
 70
     0
 62
     7
  6
Continuous
370
    -3
390
F
  0
LAYER
  5
40
330
2
100
AcDbSymbolTableRecord
100
AcDbLayerTableRecord
  2
ROUND
 70
     0
 62
     7
  6
Continuous
370
    -3
390
F
  0
ENDTAB
  0
TABLE
  2
STYLE
  5
3
330
0
100
AcDbSymbolTable
 70
     1
  0
STYLE
  5
11
330
3
100
AcDbSymbolTableRecord
100
AcDbTextStyleTableRecord
  2
Standard
 70
     0
 40
0.0
 41
1.0
 50
0.0
 71
     0
 42
0.2
  3
txt
  4

  0
ENDTAB
  0
TABLE
  2
VIEW
  5
6
330
0
100
AcDbSymbolTable
 70
     0
  0
ENDTAB
  0
TABLE
  2
UCS
  5
7
330
0
100
AcDbSymbolTable
 70
     0
  0
ENDTAB
  0
TABLE
  2
APPID
  5
9
330
0
100
AcDbSymbolTable
 70
     2
  0
APPID
  5
12
330
9
100
AcDbSymbolTableRecord
100
AcDbRegAppTableRecord
  2
ACAD
 70
     0
  0
APPID
  5
3F
330
9
100
AcDbSymbolTableRecord
100
AcDbRegAppTableRecord
  2
ODA
 70
     0
  0
ENDTAB
  0
TABLE
  2
DIMSTYLE
  5
A
330
0
100
AcDbSymbolTable
 70
     1
100
AcDbDimStyleTable
  0
DIMSTYLE
105
27
330
A
100
AcDbSymbolTableRecord
100
AcDbDimStyleTableRecord
  2
Standard
 70
     0
340
11
  0
ENDTAB
  0
TABLE
  2
BLOCK_RECORD
  5
1
330
0
100
AcDbSymbolTable
 70
     1
  0
BLOCK_RECORD
  5
1F
330
1
100
AcDbSymbolTableRecord
100
AcDbBlockTableRecord
  2
*Model_Space
340
22
  0
BLOCK_RECORD
  5
1B
330
1
100
AcDbSymbolTableRecord
100
AcDbBlockTableRecord
  2
*Paper_Space
340
1E
  0
BLOCK_RECORD
  5
23
330
1
100
AcDbSymbolTableRecord
100
AcDbBlockTableRecord
  2
*Paper_Space0
340
26
  0
ENDTAB
  0
ENDSEC
  0
SECTION
  2
BLOCKS
  0
BLOCK
  5
20
330
1F
100
AcDbEntity
  8
0
100
AcDbBlockBegin
  2
*Model_Space
 70
     0
 10
0.0
 20
0.0
 30
0.0
  3
*Model_Space
  1

  0
ENDBLK
  5
21
330
1F
100
AcDbEntity
  8
0
100
AcDbBlockEnd
  0
BLOCK
  5
1C
330
1B
100
AcDbEntity
 67
     1
  8
0
100
AcDbBlockBegin
  2
*Paper_Space
 70
     0
 10
0.0
 20
0.0
 30
0.0
  3
*Paper_Space
  1

  0
ENDBLK
  5
1D
330
1B
100
AcDbEntity
 67
     1
  8
0
100
AcDbBlockEnd
  0
BLOCK
  5
24
330
23
100
AcDbEntity
  8
0
100
AcDbBlockBegin
  2
*Paper_Space0
 70
     0
 10
0.0
 20
0.0
 30
0.0
  3
*Paper_Space0
  1

  0
ENDBLK
  5
25
330
23
100
AcDbEntity
  8
0
100
AcDbBlockEnd
  0
ENDSEC
  0
SECTION
  2
ENTITIES
  0
SPLINE
  5
41
330
1F
100
AcDbEntity
  8
ROUND
 62
   250
100
AcDbSpline
210
0.0
220
0.0
230
1.0
 70
    11
 71
     3
 72
   104
 73
   100
 74
     0
 42
0.0000000001
 43
0.0000000001
 40
0.0
 40
0.0
 40
0.0
 40
0.0
 40
0.0384615384615385
 40
0.0384615384615385
 40
0.0384615384615385
 40
0.0384615384615385
 40
0.0769230769230769
 40
0.0769230769230769
 40
0.0769230769230769
 40
0.0769230769230769
 40
0.1153846153846154
 40
0.1153846153846154
 40
0.1153846153846154
 40
0.1153846153846154
 40
0.1538461538461539
 40
0.1538461538461539
 40
0.1538461538461539
 40
0.1538461538461539
 40
0.1923076923076923
 40
0.1923076923076923
 40
0.1923076923076923
 40
0.1923076923076923
 40
0.2307692307692308
 40
0.2307692307692308
 40
0.2307692307692308
 40
0.2307692307692308
 40
0.2692307692307692
 40
0.2692307692307692
 40
0.2692307692307692
 40
0.2692307692307692
 40
0.3076923076923077
 40
0.3076923076923077
 40
0.3076923076923077
 40
0.3076923076923077
 40
0.3461538461538461
 40
0.3461538461538461
 40
0.3461538461538461
 40
0.3461538461538461
 40
0.3846153846153846
 40
0.3846153846153846
 40
0.3846153846153846
 40
0.3846153846153846
 40
0.4230769230769231
 40
0.4230769230769231
 40
0.4230769230769231
 40
0.4230769230769231
 40
0.4615384615384616
 40
0.4615384615384616
 40
0.4615384615384616
 40
0.4615384615384616
 40
0.5
 40
0.5
 40
0.5
 40
0.5
 40
0.5384615384615384
 40
0.5384615384615384
 40
0.5384615384615384
 40
0.5384615384615384
 40
0.5769230769230769
 40
0.5769230769230769
 40
0.5769230769230769
 40
0.5769230769230769
 40
0.6153846153846154
 40
0.6153846153846154
 40
0.6153846153846154
 40
0.6153846153846154
 40
0.6538461538461539
 40
0.6538461538461539
 40
0.6538461538461539
 40
0.6538461538461539
 40
0.6923076923076923
 40
0.6923076923076923
 40
0.6923076923076923
 40
0.6923076923076923
 40
0.7307692307692307
 40
0.7307692307692307
 40
0.7307692307692307
 40
0.7307692307692307
 40
0.7692307692307693
 40
0.7692307692307693
 40
0.7692307692307693
 40
0.7692307692307693
 40
0.8076923076923077
 40
0.8076923076923077
 40
0.8076923076923077
 40
0.8076923076923077
 40
0.8461538461538461
 40
0.8461538461538461
 40
0.8461538461538461
 40
0.8461538461538461
 40
0.8846153846153846
 40
0.8846153846153846
 40
0.8846153846153846
 40
0.8846153846153846
 40
0.9230769230769231
 40
0.9230769230769231
 40
0.9230769230769231
 40
0.9230769230769231
 40
1.0
 40
1.0
 40
1.0
 40
1.0
 10
-9.666
 20
-29.1329
 30
0.0
 10
-9.666
 20
-29.1329
 30
0.0
 10
-9.4215
 20
-28.7991
 30
0.0
 10
-9.4215
 20
-28.7991
 30
0.0
 10
-9.4215
 20
-28.7991
 30
0.0
 10
-9.3277
 20
-28.867
 30
0.0
 10
-9.2249
 20
-28.9194
 30
0.0
 10
-9.1136
 20
-28.955
 30
0.0
 10
-9.1136
 20
-28.955
 30
0.0
 10
-9.0017
 20
-28.9906
 30
0.0
 10
-8.8847
 20
-29.0087
 30
0.0
 10
-8.7618
 20
-29.0087
 30
0.0
 10
-8.7618
 20
-29.0087
 30
0.0
 10
-8.6357
 20
-29.0087
 30
0.0
 10
-8.5134
 20
-28.9899
 30
0.0
 10
-8.3964
 20
-28.9531
 30
0.0
 10
-8.3964
 20
-28.9531
 30
0.0
 10
-8.2793
 20
-28.9162
 30
0.0
 10
-8.1706
 20
-28.8612
 30
0.0
 10
-8.071
 20
-28.7875
 30
0.0
 10
-8.071
 20
-28.7875
 30
0.0
 10
-7.9708
 20
-28.7144
 30
0.0
 10
-7.8835
 20
-28.6226
 30
0.0
 10
-7.8085
 20
-28.5126
 30
0.0
 10
-7.8085
 20
-28.5126
 30
0.0
 10
-7.7341
 20
-28.4027
 30
0.0
 10
-7.6759
 20
-28.2746
 30
0.0
 10
-7.6338
 20
-28.1278
 30
0.0
 10
-7.6338
 20
-28.1278
 30
0.0
 10
-7.5924
 20
-27.9816
 30
0.0
 10
-7.5711
 20
-27.8173
 30
0.0
 10
-7.5704
 20
-27.635
 30
0.0
 10
-7.5704
 20
-27.635
 30
0.0
 10
-7.5704
 20
-27.5062
 30
0.0
 10
-7.5834
 20
-27.384
 30
0.0
 10
-7.6099
 20
-27.2676
 30
0.0
 10
-7.6099
 20
-27.2676
 30
0.0
 10
-7.6358
 20
-27.1505
 30
0.0
 10
-7.6739
 20
-27.0419
 30
0.0
 10
-7.7237
 20
-26.9416
 30
0.0
 10
-7.7237
 20
-26.9416
 30
0.0
 10
-7.7742
 20
-26.8414
 30
0.0
 10
-7.8356
 20
-26.7521
 30
0.0
 10
-7.9081
 20
-26.6726
 30
0.0
 10
-7.9081
 20
-26.6726
 30
0.0
 10
-7.9081
 20
-26.6726
 30
0.0
 10
-7.6675
 20
-26.3388
 30
0.0
 10
-7.6675
 20
-26.3388
 30
0.0
 10
-7.6675
 20
-26.3388
 30
0.0
 10
-7.6675
 20
-26.3388
 30
0.0
 10
-7.8731
 20
-26.1991
 30
0.0
 10
-7.8731
 20
-26.1991
 30
0.0
 10
-7.8731
 20
-26.1991
 30
0.0
 10
-7.8731
 20
-26.1991
 30
0.0
 10
-8.1021
 20
-26.5135
 30
0.0
 10
-8.1021
 20
-26.5135
 30
0.0
 10
-8.1021
 20
-26.5135
 30
0.0
 10
-8.1959
 20
-26.4436
 30
0.0
 10
-8.2974
 20
-26.3912
 30
0.0
 10
-8.4074
 20
-26.3563
 30
0.0
 10
-8.4074
 20
-26.3563
 30
0.0
 10
-8.518
 20
-26.3214
 30
0.0
 10
-8.6331
 20
-26.3039
 30
0.0
 10
-8.754
 20
-26.3039
 30
0.0
 10
-8.754
 20
-26.3039
 30
0.0
 10
-8.9267
 20
-26.3046
 30
0.0
 10
-9.0858
 20
-26.3369
 30
0.0
 10
-9.2326
 20
-26.4009
 30
0.0
 10
-9.2326
 20
-26.4009
 30
0.0
 10
-9.3788
 20
-26.465
 30
0.0
 10
-9.5062
 20
-26.5574
 30
0.0
 10
-9.6149
 20
-26.6771
 30
0.0
 10
-9.6149
 20
-26.6771
 30
0.0
 10
-9.7242
 20
-26.7967
 30
0.0
 10
-9.8083
 20
-26.9403
 30
0.0
 10
-9.8691
 20
-27.1078
 30
0.0
 10
-9.8691
 20
-27.1078
 30
0.0
 10
-9.9292
 20
-27.2754
 30
0.0
 10
-9.9603
 20
-27.4623
 30
0.0
 10
-9.9609
 20
-27.6699
 30
0.0
 10
-9.9609
 20
-27.6699
 30
0.0
 10
-9.9609
 20
-27.8005
 30
0.0
 10
-9.9467
 20
-27.9254
 30
0.0
 10
-9.9195
 20
-28.0431
 30
0.0
 10
-9.9195
 20
-28.0431
 30
0.0
 10
-9.8923
 20
-28.1608
 30
0.0
 10
-9.8529
 20
-28.2701
 30
0.0
 10
-9.8018
 20
-28.3703
 30
0.0
 10
-9.8018
 20
-28.3703
 30
0.0
 10
-9.7501
 20
-28.4706
 30
0.0
 10
-9.688
 20
-28.5605
 30
0.0
 10
-9.6155
 20
-28.64
 30
0.0
 10
-9.6155
 20
-28.64
 30
0.0
 10
-9.6155
 20
-28.64
 30
0.0
 10
-9.8561
 20
-28.9776
 30
0.0
 10
-9.8561
 20
-28.9776
 30
0.0
 10
-9.8561
 20
-28.9776
 30
0.0
 10
-9.8561
 20
-28.9776
 30
0.0
 10
-9.666
 20
-29.1329
 30
0.0
 10
-9.666
 20
-29.1329
 30
0.0
  0
SPLINE
  5
42
330
1F
100
AcDbEntity
  8
ROUND
 62
   250
100
AcDbSpline
210
0.0
220
0.0
230
1.0
 70
    11
 71
     3
 72
    52
 73
    48
 74
     0
 42
0.0000000001
 43
0.0000000001
 40
0.0
 40
0.0
 40
0.0
 40
0.0
 40
0.0769230769230769
 40
0.0769230769230769
 40
0.0769230769230769
 40
0.0769230769230769
 40
0.1538461538461539
 40
0.1538461538461539
 40
0.1538461538461539
 40
0.1538461538461539
 40
0.2307692307692308
 40
0.2307692307692308
 40
0.2307692307692308
 40
0.2307692307692308
 40
0.3076923076923077
 40
0.3076923076923077
 40
0.3076923076923077
 40
0.3076923076923077
 40
0.3846153846153846
 40
0.3846153846153846
 40
0.3846153846153846
 40
0.3846153846153846
 40
0.4615384615384616
 40
0.4615384615384616
 40
0.4615384615384616
 40
0.4615384615384616
 40
0.5384615384615384
 40
0.5384615384615384
 40
0.5384615384615384
 40
0.5384615384615384
 40
0.6153846153846154
 40
0.6153846153846154
 40
0.6153846153846154
 40
0.6153846153846154
 40
0.6923076923076923
 40
0.6923076923076923
 40
0.6923076923076923
 40
0.6923076923076923
 40
0.7692307692307693
 40
0.7692307692307693
 40
0.7692307692307693
 40
0.7692307692307693
 40
0.8461538461538461
 40
0.8461538461538461
 40
0.8461538461538461
 40
0.8461538461538461
 40
1.0
 40
1.0
 40
1.0
 40
1.0
 10
-9.4176
 20
-28.3529
 30
0.0
 10
-9.4176
 20
-28.3529
 30
0.0
 10
-9.4254
 20
-28.3567
 30
0.0
 10
-9.4254
 20
-28.3567
 30
0.0
 10
-9.4254
 20
-28.3567
 30
0.0
 10
-9.4642
 20
-28.2901
 30
0.0
 10
-9.4978
 20
-28.2209
 30
0.0
 10
-9.5263
 20
-28.1498
 30
0.0
 10
-9.5263
 20
-28.1498
 30
0.0
 10
-9.5547
 20
-28.078
 30
0.0
 10
-9.5767
 20
-28.0023
 30
0.0
 10
-9.5922
 20
-27.9208
 30
0.0
 10
-9.5922
 20
-27.9208
 30
0.0
 10
-9.6078
 20
-27.84
 30
0.0
 10
-9.6155
 20
-27.7507
 30
0.0
 10
-9.6155
 20
-27.6544
 30
0.0
 10
-9.6155
 20
-27.6544
 30
0.0
 10
-9.6155
 20
-27.5431
 30
0.0
 10
-9.6039
 20
-27.4358
 30
0.0
 10
-9.5812
 20
-27.3303
 30
0.0
 10
-9.5812
 20
-27.3303
 30
0.0
 10
-9.558
 20
-27.2256
 30
0.0
 10
-9.5237
 20
-27.1272
 30
0.0
 10
-9.4784
 20
-27.0367
 30
0.0
 10
-9.4784
 20
-27.0367
 30
0.0
 10
-9.4325
 20
-26.9455
 30
0.0
 10
-9.3756
 20
-26.8653
 30
0.0
 10
-9.307
 20
-26.7967
 30
0.0
 10
-9.307
 20
-26.7967
 30
0.0
 10
-9.2385
 20
-26.7275
 30
0.0
 10
-9.1589
 20
-26.6739
 30
0.0
 10
-9.0684
 20
-26.6351
 30
0.0
 10
-9.0684
 20
-26.6351
 30
0.0
 10
-8.9772
 20
-26.5956
 30
0.0
 10
-8.875
 20
-26.5762
 30
0.0
 10
-8.7618
 20
-26.5756
 30
0.0
 10
-8.7618
 20
-26.5756
 30
0.0
 10
-8.6628
 20
-26.5762
 30
0.0
 10
-8.5723
 20
-26.5924
 30
0.0
 10
-8.4908
 20
-26.6247
 30
0.0
 10
-8.4908
 20
-26.6247
 30
0.0
 10
-8.4087
 20
-26.6564
 30
0.0
 10
-8.3349
 20
-26.701
 30
0.0
 10
-8.269
 20
-26.7579
 30
0.0
 10
-8.269
 20
-26.7579
 30
0.0
 10
-8.269
 20
-26.7579
 30
0.0
 10
-9.4176
 20
-28.3529
 30
0.0
 10
-9.4176
 20
-28.3529
 30
0.0
  0
SPLINE
  5
43
330
1F
100
AcDbEntity
  8
ROUND
 62
   250
100
AcDbSpline
210
0.0
220
0.0
230
1.0
 70
    11
 71
     3
 72
    48
 73
    44
 74
     0
 42
0.0000000001
 43
0.0000000001
 40
0.0
 40
0.0
 40
0.0
 40
0.0
 40
0.0833333333333333
 40
0.0833333333333333
 40
0.0833333333333333
 40
0.0833333333333333
 40
0.1666666666666667
 40
0.1666666666666667
 40
0.1666666666666667
 40
0.1666666666666667
 40
0.25
 40
0.25
 40
0.25
 40
0.25
 40
0.3333333333333333
 40
0.3333333333333333
 40
0.3333333333333333
 40
0.3333333333333333
 40
0.4166666666666667
 40
0.4166666666666667
 40
0.4166666666666667
 40
0.4166666666666667
 40
0.5
 40
0.5
 40
0.5
 40
0.5
 40
0.5833333333333334
 40
0.5833333333333334
 40
0.5833333333333334
 40
0.5833333333333334
 40
0.6666666666666666
 40
0.6666666666666666
 40
0.6666666666666666
 40
0.6666666666666666
 40
0.75
 40
0.75
 40
0.75
 40
0.75
 40
0.8333333333333334
 40
0.8333333333333334
 40
0.8333333333333334
 40
0.8333333333333334
 40
1.0
 40
1.0
 40
1.0
 40
1.0
 10
-8.1099
 20
-26.9636
 30
0.0
 10
-8.1099
 20
-26.9636
 30
0.0
 10
-8.0982
 20
-26.9636
 30
0.0
 10
-8.0982
 20
-26.9636
 30
0.0
 10
-8.0982
 20
-26.9636
 30
0.0
 10
-8.0309
 20
-27.0761
 30
0.0
 10
-7.9837
 20
-27.19
 30
0.0
 10
-7.9559
 20
-27.3051
 30
0.0
 10
-7.9559
 20
-27.3051
 30
0.0
 10
-7.9281
 20
-27.4196
 30
0.0
 10
-7.9145
 20
-27.5334
 30
0.0
 10
-7.9158
 20
-27.6466
 30
0.0
 10
-7.9158
 20
-27.6466
 30
0.0
 10
-7.9158
 20
-27.7643
 30
0.0
 10
-7.9281
 20
-27.8768
 30
0.0
 10
-7.952
 20
-27.9849
 30
0.0
 10
-7.952
 20
-27.9849
 30
0.0
 10
-7.976
 20
-28.0929
 30
0.0
 10
-8.0115
 20
-28.1925
 30
0.0
 10
-8.0581
 20
-28.2837
 30
0.0
 10
-8.0581
 20
-28.2837
 30
0.0
 10
-8.1053
 20
-28.3749
 30
0.0
 10
-8.1629
 20
-28.4544
 30
0.0
 10
-8.2314
 20
-28.5217
 30
0.0
 10
-8.2314
 20
-28.5217
 30
0.0
 10
-8.3006
 20
-28.5896
 30
0.0
 10
-8.3796
 20
-28.6426
 30
0.0
 10
-8.4688
 20
-28.6801
 30
0.0
 10
-8.4688
 20
-28.6801
 30
0.0
 10
-8.5581
 20
-28.7176
 30
0.0
 10
-8.657
 20
-28.7364
 30
0.0
 10
-8.7657
 20
-28.737
 30
0.0
 10
-8.7657
 20
-28.737
 30
0.0
 10
-8.8711
 20
-28.737
 30
0.0
 10
-8.9636
 20
-28.7209
 30
0.0
 10
-9.0418
 20
-28.6892
 30
0.0
 10
-9.0418
 20
-28.6892
 30
0.0
 10
-9.1207
 20
-28.6575
 30
0.0
 10
-9.1912
 20
-28.6109
 30
0.0
 10
-9.2546
 20
-28.5508
 30
0.0
 10
-9.2546
 20
-28.5508
 30
0.0
 10
-9.2546
 20
-28.5508
 30
0.0
 10
-8.1099
 20
-26.9636
 30
0.0
 10
-8.1099
 20
-26.9636
 30
0.0
  0
SPLINE
  5
44
330
1F
100
AcDbEntity
  8
ROUND
 62
   250
100
AcDbSpline
210
0.0
220
0.0
230
1.0
 70
    11
 71
     3
 72
    36
 73
    32
 74
     0
 42
0.0000000001
 43
0.0000000001
 40
0.0
 40
0.0
 40
0.0
 40
0.0
 40
0.1111111111111111
 40
0.1111111111111111
 40
0.1111111111111111
 40
0.1111111111111111
 40
0.2222222222222222
 40
0.2222222222222222
 40
0.2222222222222222
 40
0.2222222222222222
 40
0.3333333333333333
 40
0.3333333333333333
 40
0.3333333333333333
 40
0.3333333333333333
 40
0.4444444444444444
 40
0.4444444444444444
 40
0.4444444444444444
 40
0.4444444444444444
 40
0.5555555555555556
 40
0.5555555555555556
 40
0.5555555555555556
 40
0.5555555555555556
 40
0.6666666666666666
 40
0.6666666666666666
 40
0.6666666666666666
 40
0.6666666666666666
 40
0.7777777777777778
 40
0.7777777777777778
 40
0.7777777777777778
 40
0.7777777777777778
 40
1.0
 40
1.0
 40
1.0
 40
1.0
 10
-6.5111
 20
-28.966
 30
0.0
 10
-6.5111
 20
-28.966
 30
0.0
 10
-6.1812
 20
-28.966
 30
0.0
 10
-6.1812
 20
-28.966
 30
0.0
 10
-6.1812
 20
-28.966
 30
0.0
 10
-6.1812
 20
-28.966
 30
0.0
 10
-6.1812
 20
-26.4436
 30
0.0
 10
-6.1812
 20
-26.4436
 30
0.0
 10
-6.1812
 20
-26.4436
 30
0.0
 10
-6.1812
 20
-26.4436
 30
0.0
 10
-6.4723
 20
-26.4436
 30
0.0
 10
-6.4723
 20
-26.4436
 30
0.0
 10
-6.4723
 20
-26.4436
 30
0.0
 10
-6.4723
 20
-26.4436
 30
0.0
 10
-7.0233
 20
-26.7385
 30
0.0
 10
-7.0233
 20
-26.7385
 30
0.0
 10
-7.0233
 20
-26.7385
 30
0.0
 10
-7.0233
 20
-26.7385
 30
0.0
 10
-6.9573
 20
-26.9985
 30
0.0
 10
-6.9573
 20
-26.9985
 30
0.0
 10
-6.9573
 20
-26.9985
 30
0.0
 10
-6.9573
 20
-26.9985
 30
0.0
 10
-6.5188
 20
-26.7618
 30
0.0
 10
-6.5188
 20
-26.7618
 30
0.0
 10
-6.5188
 20
-26.7618
 30
0.0
 10
-6.5188
 20
-26.7618
 30
0.0
 10
-6.5111
 20
-26.7618
 30
0.0
 10
-6.5111
 20
-26.7618
 30
0.0
 10
-6.5111
 20
-26.7618
 30
0.0
 10
-6.5111
 20
-26.7618
 30
0.0
 10
-6.5111
 20
-28.966
 30
0.0
 10
-6.5111
 20
-28.966
 30
0.0
  0
SPLINE
  5
45
330
1F
100
AcDbEntity
  8
ROUND
 62
   250
100
AcDbSpline
210
0.0
220
0.0
230
1.0
 70
    11
 71
     3
 72
    36
 73
    32
 74
     0
 42
0.0000000001
 43
0.0000000001
 40
0.0
 40
0.0
 40
0.0
 40
0.0
 40
0.1111111111111111
 40
0.1111111111111111
 40
0.1111111111111111
 40
0.1111111111111111
 40
0.2222222222222222
 40
0.2222222222222222
 40
0.2222222222222222
 40
0.2222222222222222
 40
0.3333333333333333
 40
0.3333333333333333
 40
0.3333333333333333
 40
0.3333333333333333
 40
0.4444444444444444
 40
0.4444444444444444
 40
0.4444444444444444
 40
0.4444444444444444
 40
0.5555555555555556
 40
0.5555555555555556
 40
0.5555555555555556
 40
0.5555555555555556
 40
0.6666666666666666
 40
0.6666666666666666
 40
0.6666666666666666
 40
0.6666666666666666
 40
0.7777777777777778
 40
0.7777777777777778
 40
0.7777777777777778
 40
0.7777777777777778
 40
1.0
 40
1.0
 40
1.0
 40
1.0
 10
-4.5204
 20
-28.966
 30
0.0
 10
-4.5204
 20
-28.966
 30
0.0
 10
-4.1905
 20
-28.966
 30
0.0
 10
-4.1905
 20
-28.966
 30
0.0
 10
-4.1905
 20
-28.966
 30
0.0
 10
-4.1905
 20
-28.966
 30
0.0
 10
-4.1905
 20
-26.4436
 30
0.0
 10
-4.1905
 20
-26.4436
 30
0.0
 10
-4.1905
 20
-26.4436
 30
0.0
 10
-4.1905
 20
-26.4436
 30
0.0
 10
-4.4816
 20
-26.4436
 30
0.0
 10
-4.4816
 20
-26.4436
 30
0.0
 10
-4.4816
 20
-26.4436
 30
0.0
 10
-4.4816
 20
-26.4436
 30
0.0
 10
-5.0326
 20
-26.7385
 30
0.0
 10
-5.0326
 20
-26.7385
 30
0.0
 10
-5.0326
 20
-26.7385
 30
0.0
 10
-5.0326
 20
-26.7385
 30
0.0
 10
-4.9666
 20
-26.9985
 30
0.0
 10
-4.9666
 20
-26.9985
 30
0.0
 10
-4.9666
 20
-26.9985
 30
0.0
 10
-4.9666
 20
-26.9985
 30
0.0
 10
-4.5281
 20
-26.7618
 30
0.0
 10
-4.5281
 20
-26.7618
 30
0.0
 10
-4.5281
 20
-26.7618
 30
0.0
 10
-4.5281
 20
-26.7618
 30
0.0
 10
-4.5204
 20
-26.7618
 30
0.0
 10
-4.5204
 20
-26.7618
 30
0.0
 10
-4.5204
 20
-26.7618
 30
0.0
 10
-4.5204
 20
-26.7618
 30
0.0
 10
-4.5204
 20
-28.966
 30
0.0
 10
-4.5204
 20
-28.966
 30
0.0
  0
SPLINE
  5
46
330
1F
100
AcDbEntity
  8
ROUND
 62
   250
100
AcDbSpline
210
0.0
220
0.0
230
1.0
 70
    11
 71
     3
 72
    56
 73
    52
 74
     0
 42
0.0000000001
 43
0.0000000001
 40
0.0
 40
0.0
 40
0.0
 40
0.0
 40
0.0714285714285714
 40
0.0714285714285714
 40
0.0714285714285714
 40
0.0714285714285714
 40
0.1428571428571428
 40
0.1428571428571428
 40
0.1428571428571428
 40
0.1428571428571428
 40
0.2142857142857143
 40
0.2142857142857143
 40
0.2142857142857143
 40
0.2142857142857143
 40
0.2857142857142857
 40
0.2857142857142857
 40
0.2857142857142857
 40
0.2857142857142857
 40
0.3571428571428572
 40
0.3571428571428572
 40
0.3571428571428572
 40
0.3571428571428572
 40
0.4285714285714285
 40
0.4285714285714285
 40
0.4285714285714285
 40
0.4285714285714285
 40
0.5
 40
0.5
 40
0.5
 40
0.5
 40
0.5714285714285714
 40
0.5714285714285714
 40
0.5714285714285714
 40
0.5714285714285714
 40
0.6428571428571429
 40
0.6428571428571429
 40
0.6428571428571429
 40
0.6428571428571429
 40
0.7142857142857143
 40
0.7142857142857143
 40
0.7142857142857143
 40
0.7142857142857143
 40
0.7857142857142857
 40
0.7857142857142857
 40
0.7857142857142857
 40
0.7857142857142857
 40
0.8571428571428571
 40
0.8571428571428571
 40
0.8571428571428571
 40
0.8571428571428571
 40
1.0
 40
1.0
 40
1.0
 40
1.0
 10
-2.4249
 20
-26.4009
 30
0.0
 10
-2.5536
 20
-26.4009
 30
0.0
 10
-2.6713
 20
-26.4294
 30
0.0
 10
-2.7787
 20
-26.4863
 30
0.0
 10
-2.7787
 20
-26.4863
 30
0.0
 10
-2.886
 20
-26.5432
 30
0.0
 10
-2.9785
 20
-26.6266
 30
0.0
 10
-3.0574
 20
-26.7379
 30
0.0
 10
-3.0574
 20
-26.7379
 30
0.0
 10
-3.1363
 20
-26.8491
 30
0.0
 10
-3.1971
 20
-26.9862
 30
0.0
 10
-3.2405
 20
-27.1492
 30
0.0
 10
-3.2405
 20
-27.1492
 30
0.0
 10
-3.2832
 20
-27.3122
 30
0.0
 10
-3.3052
 20
-27.4998
 30
0.0
 10
-3.3058
 20
-27.7126
 30
0.0
 10
-3.3058
 20
-27.7126
 30
0.0
 10
-3.3019
 20
-27.9913
 30
0.0
 10
-3.2651
 20
-28.2267
 30
0.0
 10
-3.1946
 20
-28.4195
 30
0.0
 10
-3.1946
 20
-28.4195
 30
0.0
 10
-3.1241
 20
-28.6122
 30
0.0
 10
-3.0264
 20
-28.7584
 30
0.0
 10
-2.9022
 20
-28.858
 30
0.0
 10
-2.9022
 20
-28.858
 30
0.0
 10
-2.778
 20
-28.9576
 30
0.0
 10
-2.6332
 20
-29.008
 30
0.0
 10
-2.4676
 20
-29.0087
 30
0.0
 10
-2.4676
 20
-29.0087
 30
0.0
 10
-2.282
 20
-29.008
 30
0.0
 10
-2.1242
 20
-28.9563
 30
0.0
 10
-1.9935
 20
-28.8541
 30
0.0
 10
-1.9935
 20
-28.8541
 30
0.0
 10
-1.8629
 20
-28.7519
 30
0.0
 10
-1.7633
 20
-28.6019
 30
0.0
 10
-1.6947
 20
-28.404
 30
0.0
 10
-1.6947
 20
-28.404
 30
0.0
 10
-1.6255
 20
-28.206
 30
0.0
 10
-1.5912
 20
-27.9642
 30
0.0
 10
-1.5906
 20
-27.6776
 30
0.0
 10
-1.5906
 20
-27.6776
 30
0.0
 10
-1.5912
 20
-27.4092
 30
0.0
 10
-1.6242
 20
-27.1796
 30
0.0
 10
-1.6895
 20
-26.9895
 30
0.0
 10
-1.6895
 20
-26.9895
 30
0.0
 10
-1.7549
 20
-26.7993
 30
0.0
 10
-1.8499
 20
-26.6538
 30
0.0
 10
-1.9741
 20
-26.5536
 30
0.0
 10
-1.9741
 20
-26.5536
 30
0.0
 10
-2.0983
 20
-26.4527
 30
0.0
 10
-2.2483
 20
-26.4016
 30
0.0
 10
-2.4249
 20
-26.4009
 30
0.0
  0
SPLINE
  5
47
330
1F
100
AcDbEntity
  8
ROUND
 62
   250
100
AcDbSpline
210
0.0
220
0.0
230
1.0
 70
    11
 71
     3
 72
    56
 73
    52
 74
     0
 42
0.0000000001
 43
0.0000000001
 40
0.0
 40
0.0
 40
0.0
 40
0.0
 40
0.0714285714285714
 40
0.0714285714285714
 40
0.0714285714285714
 40
0.0714285714285714
 40
0.1428571428571428
 40
0.1428571428571428
 40
0.1428571428571428
 40
0.1428571428571428
 40
0.2142857142857143
 40
0.2142857142857143
 40
0.2142857142857143
 40
0.2142857142857143
 40
0.2857142857142857
 40
0.2857142857142857
 40
0.2857142857142857
 40
0.2857142857142857
 40
0.3571428571428572
 40
0.3571428571428572
 40
0.3571428571428572
 40
0.3571428571428572
 40
0.4285714285714285
 40
0.4285714285714285
 40
0.4285714285714285
 40
0.4285714285714285
 40
0.5
 40
0.5
 40
0.5
 40
0.5
 40
0.5714285714285714
 40
0.5714285714285714
 40
0.5714285714285714
 40
0.5714285714285714
 40
0.6428571428571429
 40
0.6428571428571429
 40
0.6428571428571429
 40
0.6428571428571429
 40
0.7142857142857143
 40
0.7142857142857143
 40
0.7142857142857143
 40
0.7142857142857143
 40
0.7857142857142857
 40
0.7857142857142857
 40
0.7857142857142857
 40
0.7857142857142857
 40
0.8571428571428571
 40
0.8571428571428571
 40
0.8571428571428571
 40
0.8571428571428571
 40
1.0
 40
1.0
 40
1.0
 40
1.0
 10
-2.4482
 20
-26.6648
 30
0.0
 10
-2.3589
 20
-26.6655
 30
0.0
 10
-2.282
 20
-26.6894
 30
0.0
 10
-2.2173
 20
-26.7379
 30
0.0
 10
-2.2173
 20
-26.7379
 30
0.0
 10
-2.1526
 20
-26.7864
 30
0.0
 10
-2.0996
 20
-26.8556
 30
0.0
 10
-2.0582
 20
-26.9461
 30
0.0
 10
-2.0582
 20
-26.9461
 30
0.0
 10
-2.0168
 20
-27.036
 30
0.0
 10
-1.9857
 20
-27.1447
 30
0.0
 10
-1.9657
 20
-27.2702
 30
0.0
 10
-1.9657
 20
-27.2702
 30
0.0
 10
-1.9456
 20
-27.3963
 30
0.0
 10
-1.9359
 20
-27.5373
 30
0.0
 10
-1.9359
 20
-27.6932
 30
0.0
 10
-1.9359
 20
-27.6932
 30
0.0
 10
-1.9359
 20
-27.9092
 30
0.0
 10
-1.9547
 20
-28.0955
 30
0.0
 10
-1.9922
 20
-28.252
 30
0.0
 10
-1.9922
 20
-28.252
 30
0.0
 10
-2.0291
 20
-28.4091
 30
0.0
 10
-2.086
 20
-28.5301
 30
0.0
 10
-2.1617
 20
-28.6155
 30
0.0
 10
-2.1617
 20
-28.6155
 30
0.0
 10
-2.2373
 20
-28.7008
 30
0.0
 10
-2.3331
 20
-28.7435
 30
0.0
 10
-2.4482
 20
-28.7448
 30
0.0
 10
-2.4482
 20
-28.7448
 30
0.0
 10
-2.5523
 20
-28.7442
 30
0.0
 10
-2.6422
 20
-28.7041
 30
0.0
 10
-2.7192
 20
-28.6239
 30
0.0
 10
-2.7192
 20
-28.6239
 30
0.0
 10
-2.7955
 20
-28.5437
 30
0.0
 10
-2.8544
 20
-28.4272
 30
0.0
 10
-2.8964
 20
-28.2746
 30
0.0
 10
-2.8964
 20
-28.2746
 30
0.0
 10
-2.9384
 20
-28.1213
 30
0.0
 10
-2.9598
 20
-27.9357
 30
0.0
 10
-2.9604
 20
-27.7164
 30
0.0
 10
-2.9604
 20
-27.7164
 30
0.0
 10
-2.9598
 20
-27.4868
 30
0.0
 10
-2.9371
 20
-27.2948
 30
0.0
 10
-2.8932
 20
-27.1382
 30
0.0
 10
-2.8932
 20
-27.1382
 30
0.0
 10
-2.8492
 20
-26.9824
 30
0.0
 10
-2.789
 20
-26.8647
 30
0.0
 10
-2.7121
 20
-26.7845
 30
0.0
 10
-2.7121
 20
-26.7845
 30
0.0
 10
-2.6351
 20
-26.7049
 30
0.0
 10
-2.5471
 20
-26.6648
 30
0.0
 10
-2.4482
 20
-26.6648
 30
0.0
  0
SPLINE
  5
48
330
1F
100
AcDbEntity
  8
ROUND
 62
   250
100
AcDbSpline
210
0.0
220
0.0
230
1.0
 70
    11
 71
     3
 72
   124
 73
   120
 74
     0
 42
0.0000000001
 43
0.0000000001
 40
0.0
 40
0.0
 40
0.0
 40
0.0
 40
0.032258064516129
 40
0.032258064516129
 40
0.032258064516129
 40
0.032258064516129
 40
0.0645161290322581
 40
0.0645161290322581
 40
0.0645161290322581
 40
0.0645161290322581
 40
0.0967741935483871
 40
0.0967741935483871
 40
0.0967741935483871
 40
0.0967741935483871
 40
0.1290322580645161
 40
0.1290322580645161
 40
0.1290322580645161
 40
0.1290322580645161
 40
0.1612903225806452
 40
0.1612903225806452
 40
0.1612903225806452
 40
0.1612903225806452
 40
0.1935483870967742
 40
0.1935483870967742
 40
0.1935483870967742
 40
0.1935483870967742
 40
0.2258064516129032
 40
0.2258064516129032
 40
0.2258064516129032
 40
0.2258064516129032
 40
0.2580645161290323
 40
0.2580645161290323
 40
0.2580645161290323
 40
0.2580645161290323
 40
0.2903225806451613
 40
0.2903225806451613
 40
0.2903225806451613
 40
0.2903225806451613
 40
0.3225806451612903
 40
0.3225806451612903
 40
0.3225806451612903
 40
0.3225806451612903
 40
0.3548387096774194
 40
0.3548387096774194
 40
0.3548387096774194
 40
0.3548387096774194
 40
0.3870967741935484
 40
0.3870967741935484
 40
0.3870967741935484
 40
0.3870967741935484
 40
0.4193548387096774
 40
0.4193548387096774
 40
0.4193548387096774
 40
0.4193548387096774
 40
0.4516129032258064
 40
0.4516129032258064
 40
0.4516129032258064
 40
0.4516129032258064
 40
0.4838709677419355
 40
0.4838709677419355
 40
0.4838709677419355
 40
0.4838709677419355
 40
0.5161290322580645
 40
0.5161290322580645
 40
0.5161290322580645
 40
0.5161290322580645
 40
0.5483870967741935
 40
0.5483870967741935
 40
0.5483870967741935
 40
0.5483870967741935
 40
0.5806451612903226
 40
0.5806451612903226
 40
0.5806451612903226
 40
0.5806451612903226
 40
0.6129032258064516
 40
0.6129032258064516
 40
0.6129032258064516
 40
0.6129032258064516
 40
0.6451612903225806
 40
0.6451612903225806
 40
0.6451612903225806
 40
0.6451612903225806
 40
0.6774193548387096
 40
0.6774193548387096
 40
0.6774193548387096
 40
0.6774193548387096
 40
0.7096774193548387
 40
0.7096774193548387
 40
0.7096774193548387
 40
0.7096774193548387
 40
0.7419354838709677
 40
0.7419354838709677
 40
0.7419354838709677
 40
0.7419354838709677
 40
0.7741935483870968
 40
0.7741935483870968
 40
0.7741935483870968
 40
0.7741935483870968
 40
0.8064516129032258
 40
0.8064516129032258
 40
0.8064516129032258
 40
0.8064516129032258
 40
0.8387096774193549
 40
0.8387096774193549
 40
0.8387096774193549
 40
0.8387096774193549
 40
0.8709677419354839
 40
0.8709677419354839
 40
0.8709677419354839
 40
0.8709677419354839
 40
0.9032258064516129
 40
0.9032258064516129
 40
0.9032258064516129
 40
0.9032258064516129
 40
0.9354838709677419
 40
0.9354838709677419
 40
0.9354838709677419
 40
0.9354838709677419
 40
1.0
 40
1.0
 40
1.0
 40
1.0
 10
-1.1562
 20
27.3685
 30
0.0
 10
-1.1154
 20
27.3666
 30
0.0
 10
-1.0682
 20
27.3666
 30
0.0
 10
-1.0152
 20
27.3698
 30
0.0
 10
-1.0152
 20
27.3698
 30
0.0
 10
-0.9621
 20
27.3724
 30
0.0
 10
-0.9039
 20
27.3782
 30
0.0
 10
-0.8418
 20
27.3879
 30
0.0
 10
-0.8418
 20
27.3879
 30
0.0
 10
-0.7506
 20
27.3982
 30
0.0
 10
-0.6614
 20
27.4183
 30
0.0
 10
-0.5741
 20
27.4468
 30
0.0
 10
-0.5741
 20
27.4468
 30
0.0
 10
-0.4868
 20
27.4759
 30
0.0
 10
-0.4033
 20
27.514
 30
0.0
 10
-0.3244
 20
27.5606
 30
0.0
 10
-0.3244
 20
27.5606
 30
0.0
 10
-0.2455
 20
27.6072
 30
0.0
 10
-0.1737
 20
27.6621
 30
0.0
 10
-0.1084
 20
27.7255
 30
0.0
 10
-0.1084
 20
27.7255
 30
0.0
 10
-0.025
 20
27.8057
 30
0.0
 10
0.0494
 20
27.9021
 30
0.0
 10
0.1147
 20
28.0159
 30
0.0
 10
0.1147
 20
28.0159
 30
0.0
 10
0.1801
 20
28.1291
 30
0.0
 10
0.2312
 20
28.2597
 30
0.0
 10
0.2687
 20
28.4078
 30
0.0
 10
0.2687
 20
28.4078
 30
0.0
 10
0.3062
 20
28.556
 30
0.0
 10
0.3256
 20
28.7215
 30
0.0
 10
0.3262
 20
28.9052
 30
0.0
 10
0.3262
 20
28.9052
 30
0.0
 10
0.3262
 20
29.0688
 30
0.0
 10
0.3068
 20
29.2157
 30
0.0
 10
0.2687
 20
29.347
 30
0.0
 10
0.2687
 20
29.347
 30
0.0
 10
0.2305
 20
29.4782
 30
0.0
 10
0.1749
 20
29.5901
 30
0.0
 10
0.1024
 20
29.6833
 30
0.0
 10
0.1024
 20
29.6833
 30
0.0
 10
0.03
 20
29.7764
 30
0.0
 10
-0.0573
 20
29.8476
 30
0.0
 10
-0.1601
 20
29.8974
 30
0.0
 10
-0.1601
 20
29.8974
 30
0.0
 10
-0.263
 20
29.9472
 30
0.0
 10
-0.3787
 20
29.9717
 30
0.0
 10
-0.5081
 20
29.9724
 30
0.0
 10
-0.5081
 20
29.9724
 30
0.0
 10
-0.6375
 20
29.9717
 30
0.0
 10
-0.7552
 20
29.9472
 30
0.0
 10
-0.8606
 20
29.8993
 30
0.0
 10
-0.8606
 20
29.8993
 30
0.0
 10
-0.966
 20
29.8521
 30
0.0
 10
-1.0566
 20
29.7861
 30
0.0
 10
-1.1322
 20
29.7033
 30
0.0
 10
-1.1322
 20
29.7033
 30
0.0
 10
-1.2086
 20
29.6199
 30
0.0
 10
-1.2668
 20
29.5248
 30
0.0
 10
-1.3075
 20
29.4175
 30
0.0
 10
-1.3075
 20
29.4175
 30
0.0
 10
-1.3483
 20
29.3101
 30
0.0
 10
-1.3689
 20
29.1963
 30
0.0
 10
-1.3696
 20
29.076
 30
0.0
 10
-1.3696
 20
29.076
 30
0.0
 10
-1.3689
 20
28.9679
 30
0.0
 10
-1.3515
 20
28.8671
 30
0.0
 10
-1.3172
 20
28.7739
 30
0.0
 10
-1.3172
 20
28.7739
 30
0.0
 10
-1.2823
 20
28.6801
 30
0.0
 10
-1.2325
 20
28.5986
 30
0.0
 10
-1.1678
 20
28.5281
 30
0.0
 10
-1.1678
 20
28.5281
 30
0.0
 10
-1.1031
 20
28.4583
 30
0.0
 10
-1.0249
 20
28.4033
 30
0.0
 10
-0.9343
 20
28.3639
 30
0.0
 10
-0.9343
 20
28.3639
 30
0.0
 10
-0.8431
 20
28.3244
 30
0.0
 10
-0.7416
 20
28.3044
 30
0.0
 10
-0.6284
 20
28.3037
 30
0.0
 10
-0.6284
 20
28.3037
 30
0.0
 10
-0.5003
 20
28.3044
 30
0.0
 10
-0.3859
 20
28.3276
 30
0.0
 10
-0.2856
 20
28.3736
 30
0.0
 10
-0.2856
 20
28.3736
 30
0.0
 10
-0.186
 20
28.4195
 30
0.0
 10
-0.1006
 20
28.4855
 30
0.0
 10
-0.0308
 20
28.5715
 30
0.0
 10
-0.0308
 20
28.5715
 30
0.0
 10
-0.0308
 20
28.5715
 30
0.0
 10
-0.0191
 20
28.5715
 30
0.0
 10
-0.0191
 20
28.5715
 30
0.0
 10
-0.0191
 20
28.5715
 30
0.0
 10
-0.0431
 20
28.424
 30
0.0
 10
-0.0838
 20
28.2947
 30
0.0
 10
-0.1407
 20
28.1841
 30
0.0
 10
-0.1407
 20
28.1841
 30
0.0
 10
-0.1983
 20
28.0728
 30
0.0
 10
-0.2688
 20
27.9797
 30
0.0
 10
-0.3529
 20
27.904
 30
0.0
 10
-0.3529
 20
27.904
 30
0.0
 10
-0.4253
 20
27.8342
 30
0.0
 10
-0.5062
 20
27.7798
 30
0.0
 10
-0.5961
 20
27.7397
 30
0.0
 10
-0.5961
 20
27.7397
 30
0.0
 10
-0.686
 20
27.6996
 30
0.0
 10
-0.781
 20
27.6731
 30
0.0
 10
-0.8806
 20
27.6595
 30
0.0
 10
-0.8806
 20
27.6595
 30
0.0
 10
-0.9382
 20
27.6537
 30
0.0
 10
-0.9899
 20
27.6492
 30
0.0
 10
-1.0346
 20
27.6466
 30
0.0
 10
-1.0346
 20
27.6466
 30
0.0
 10
-1.0792
 20
27.644
 30
0.0
 10
-1.1199
 20
27.644
 30
0.0
 10
-1.1562
 20
27.6479
 30
0.0
 10
-1.1562
 20
27.6479
 30
0.0
 10
-1.1562
 20
27.6479
 30
0.0
 10
-1.1562
 20
27.3685
 30
0.0
 10
-1.1562
 20
27.3685
 30
0.0
  0
SPLINE
  5
49
330
1F
100
AcDbEntity
  8
ROUND
 62
   250
100
AcDbSpline
210
0.0
220
0.0
230
1.0
 70
    11
 71
     3
 72
    64
 73
    60
 74
     0
 42
0.0000000001
 43
0.0000000001
 40
0.0
 40
0.0
 40
0.0
 40
0.0
 40
0.0625
 40
0.0625
 40
0.0625
 40
0.0625
 40
0.125
 40
0.125
 40
0.125
 40
0.125
 40
0.1875
 40
0.1875
 40
0.1875
 40
0.1875
 40
0.25
 40
0.25
 40
0.25
 40
0.25
 40
0.3125
 40
0.3125
 40
0.3125
 40
0.3125
 40
0.375
 40
0.375
 40
0.375
 40
0.375
 40
0.4375
 40
0.4375
 40
0.4375
 40
0.4375
 40
0.5
 40
0.5
 40
0.5
 40
0.5
 40
0.5625
 40
0.5625
 40
0.5625
 40
0.5625
 40
0.625
 40
0.625
 40
0.625
 40
0.625
 40
0.6875
 40
0.6875
 40
0.6875
 40
0.6875
 40
0.75
 40
0.75
 40
0.75
 40
0.75
 40
0.8125
 40
0.8125
 40
0.8125
 40
0.8125
 40
0.875
 40
0.875
 40
0.875
 40
0.875
 40
1.0
 40
1.0
 40
1.0
 40
1.0
 10
-0.5391
 20
29.7124
 30
0.0
 10
-0.4492
 20
29.7117
 30
0.0
 10
-0.371
 20
29.6923
 30
0.0
 10
-0.3057
 20
29.6542
 30
0.0
 10
-0.3057
 20
29.6542
 30
0.0
 10
-0.2403
 20
29.616
 30
0.0
 10
-0.186
 20
29.5623
 30
0.0
 10
-0.144
 20
29.4938
 30
0.0
 10
-0.144
 20
29.4938
 30
0.0
 10
-0.1013
 20
29.4252
 30
0.0
 10
-0.0702
 20
29.3444
 30
0.0
 10
-0.0495
 20
29.2525
 30
0.0
 10
-0.0495
 20
29.2525
 30
0.0
 10
-0.0288
 20
29.16
 30
0.0
 10
-0.0191
 20
29.0598
 30
0.0
 10
-0.0191
 20
28.9518
 30
0.0
 10
-0.0191
 20
28.9518
 30
0.0
 10
-0.0191
 20
28.9233
 30
0.0
 10
-0.0217
 20
28.8987
 30
0.0
 10
-0.0276
 20
28.8793
 30
0.0
 10
-0.0276
 20
28.8793
 30
0.0
 10
-0.0327
 20
28.8593
 30
0.0
 10
-0.0405
 20
28.8405
 30
0.0
 10
-0.0502
 20
28.8237
 30
0.0
 10
-0.0502
 20
28.8237
 30
0.0
 10
-0.0799
 20
28.7726
 30
0.0
 10
-0.1194
 20
28.7274
 30
0.0
 10
-0.1679
 20
28.6879
 30
0.0
 10
-0.1679
 20
28.6879
 30
0.0
 10
-0.2158
 20
28.6484
 30
0.0
 10
-0.272
 20
28.6174
 30
0.0
 10
-0.3361
 20
28.5948
 30
0.0
 10
-0.3361
 20
28.5948
 30
0.0
 10
-0.4001
 20
28.5721
 30
0.0
 10
-0.4706
 20
28.5605
 30
0.0
 10
-0.5469
 20
28.5598
 30
0.0
 10
-0.5469
 20
28.5598
 30
0.0
 10
-0.6459
 20
28.5605
 30
0.0
 10
-0.7312
 20
28.5838
 30
0.0
 10
-0.8037
 20
28.629
 30
0.0
 10
-0.8037
 20
28.629
 30
0.0
 10
-0.8761
 20
28.6743
 30
0.0
 10
-0.9324
 20
28.7364
 30
0.0
 10
-0.9718
 20
28.8166
 30
0.0
 10
-0.9718
 20
28.8166
 30
0.0
 10
-1.0113
 20
28.8968
 30
0.0
 10
-1.0313
 20
28.9899
 30
0.0
 10
-1.032
 20
29.0954
 30
0.0
 10
-1.032
 20
29.0954
 30
0.0
 10
-1.0313
 20
29.217
 30
0.0
 10
-1.01
 20
29.3237
 30
0.0
 10
-0.968
 20
29.4155
 30
0.0
 10
-0.968
 20
29.4155
 30
0.0
 10
-0.9259
 20
29.508
 30
0.0
 10
-0.8684
 20
29.5804
 30
0.0
 10
-0.7946
 20
29.6328
 30
0.0
 10
-0.7946
 20
29.6328
 30
0.0
 10
-0.7209
 20
29.6852
 30
0.0
 10
-0.6355
 20
29.7117
 30
0.0
 10
-0.5391
 20
29.7124
 30
0.0
  0
SPLINE
  5
4A
330
1F
100
AcDbEntity
  8
ROUND
 62
   250
100
AcDbSpline
210
0.0
220
0.0
230
1.0
 70
    11
 71
     3
 72
   132
 73
   128
 74
     0
 42
0.0000000001
 43
0.0000000001
 40
0.0
 40
0.0
 40
0.0
 40
0.0
 40
0.0303030303030303
 40
0.0303030303030303
 40
0.0303030303030303
 40
0.0303030303030303
 40
0.0606060606060606
 40
0.0606060606060606
 40
0.0606060606060606
 40
0.0606060606060606
 40
0.0909090909090909
 40
0.0909090909090909
 40
0.0909090909090909
 40
0.0909090909090909
 40
0.1212121212121212
 40
0.1212121212121212
 40
0.1212121212121212
 40
0.1212121212121212
 40
0.1515151515151515
 40
0.1515151515151515
 40
0.1515151515151515
 40
0.1515151515151515
 40
0.1818181818181818
 40
0.1818181818181818
 40
0.1818181818181818
 40
0.1818181818181818
 40
0.2121212121212121
 40
0.2121212121212121
 40
0.2121212121212121
 40
0.2121212121212121
 40
0.2424242424242424
 40
0.2424242424242424
 40
0.2424242424242424
 40
0.2424242424242424
 40
0.2727272727272727
 40
0.2727272727272727
 40
0.2727272727272727
 40
0.2727272727272727
 40
0.303030303030303
 40
0.303030303030303
 40
0.303030303030303
 40
0.303030303030303
 40
0.3333333333333333
 40
0.3333333333333333
 40
0.3333333333333333
 40
0.3333333333333333
 40
0.3636363636363636
 40
0.3636363636363636
 40
0.3636363636363636
 40
0.3636363636363636
 40
0.3939393939393939
 40
0.3939393939393939
 40
0.3939393939393939
 40
0.3939393939393939
 40
0.4242424242424243
 40
0.4242424242424243
 40
0.4242424242424243
 40
0.4242424242424243
 40
0.4545454545454545
 40
0.4545454545454545
 40
0.4545454545454545
 40
0.4545454545454545
 40
0.4848484848484849
 40
0.4848484848484849
 40
0.4848484848484849
 40
0.4848484848484849
 40
0.5151515151515151
 40
0.5151515151515151
 40
0.5151515151515151
 40
0.5151515151515151
 40
0.5454545454545454
 40
0.5454545454545454
 40
0.5454545454545454
 40
0.5454545454545454
 40
0.5757575757575758
 40
0.5757575757575758
 40
0.5757575757575758
 40
0.5757575757575758
 40
0.6060606060606061
 40
0.6060606060606061
 40
0.6060606060606061
 40
0.6060606060606061
 40
0.6363636363636364
 40
0.6363636363636364
 40
0.6363636363636364
 40
0.6363636363636364
 40
0.6666666666666666
 40
0.6666666666666666
 40
0.6666666666666666
 40
0.6666666666666666
 40
0.696969696969697
 40
0.696969696969697
 40
0.696969696969697
 40
0.696969696969697
 40
0.7272727272727273
 40
0.7272727272727273
 40
0.7272727272727273
 40
0.7272727272727273
 40
0.7575757575757576
 40
0.7575757575757576
 40
0.7575757575757576
 40
0.7575757575757576
 40
0.7878787878787878
 40
0.7878787878787878
 40
0.7878787878787878
 40
0.7878787878787878
 40
0.8181818181818182
 40
0.8181818181818182
 40
0.8181818181818182
 40
0.8181818181818182
 40
0.8484848484848485
 40
0.8484848484848485
 40
0.8484848484848485
 40
0.8484848484848485
 40
0.8787878787878788
 40
0.8787878787878788
 40
0.8787878787878788
 40
0.8787878787878788
 40
0.9090909090909091
 40
0.9090909090909091
 40
0.9090909090909091
 40
0.9090909090909091
 40
0.9393939393939394
 40
0.9393939393939394
 40
0.9393939393939394
 40
0.9393939393939394
 40
1.0
 40
1.0
 40
1.0
 40
1.0
 10
2.1423
 20
29.9297
 30
0.0
 10
2.1423
 20
29.9297
 30
0.0
 10
0.9354
 20
29.9297
 30
0.0
 10
0.9354
 20
29.9297
 30
0.0
 10
0.9354
 20
29.9297
 30
0.0
 10
0.9354
 20
29.9297
 30
0.0
 10
0.7724
 20
28.7189
 30
0.0
 10
0.7724
 20
28.7189
 30
0.0
 10
0.7724
 20
28.7189
 30
0.0
 10
0.819
 20
28.7254
 30
0.0
 10
0.8708
 20
28.7306
 30
0.0
 10
0.929
 20
28.7351
 30
0.0
 10
0.929
 20
28.7351
 30
0.0
 10
0.9865
 20
28.7396
 30
0.0
 10
1.0525
 20
28.7422
 30
0.0
 10
1.1256
 20
28.7422
 30
0.0
 10
1.1256
 20
28.7422
 30
0.0
 10
1.2924
 20
28.7416
 30
0.0
 10
1.4289
 20
28.7176
 30
0.0
 10
1.535
 20
28.6711
 30
0.0
 10
1.535
 20
28.6711
 30
0.0
 10
1.6417
 20
28.6239
 30
0.0
 10
1.7206
 20
28.5592
 30
0.0
 10
1.7717
 20
28.4764
 30
0.0
 10
1.7717
 20
28.4764
 30
0.0
 10
1.8228
 20
28.393
 30
0.0
 10
1.848
 20
28.2966
 30
0.0
 10
1.8474
 20
28.1873
 30
0.0
 10
1.8474
 20
28.1873
 30
0.0
 10
1.848
 20
28.1026
 30
0.0
 10
1.8325
 20
28.0269
 30
0.0
 10
1.8008
 20
27.9596
 30
0.0
 10
1.8008
 20
27.9596
 30
0.0
 10
1.7698
 20
27.8917
 30
0.0
 10
1.7264
 20
27.8348
 30
0.0
 10
1.6715
 20
27.787
 30
0.0
 10
1.6715
 20
27.787
 30
0.0
 10
1.6165
 20
27.7397
 30
0.0
 10
1.5531
 20
27.7035
 30
0.0
 10
1.4813
 20
27.6783
 30
0.0
 10
1.4813
 20
27.6783
 30
0.0
 10
1.4095
 20
27.6531
 30
0.0
 10
1.3338
 20
27.6401
 30
0.0
 10
1.2536
 20
27.6401
 30
0.0
 10
1.2536
 20
27.6401
 30
0.0
 10
1.1754
 20
27.6408
 30
0.0
 10
1.1017
 20
27.6479
 30
0.0
 10
1.0324
 20
27.6628
 30
0.0
 10
1.0324
 20
27.6628
 30
0.0
 10
0.9632
 20
27.677
 30
0.0
 10
0.9012
 20
27.6945
 30
0.0
 10
0.8462
 20
27.7158
 30
0.0
 10
0.8462
 20
27.7158
 30
0.0
 10
0.7912
 20
27.7372
 30
0.0
 10
0.7459
 20
27.7585
 30
0.0
 10
0.7104
 20
27.7798
 30
0.0
 10
0.7104
 20
27.7798
 30
0.0
 10
0.7104
 20
27.7798
 30
0.0
 10
0.625
 20
27.5198
 30
0.0
 10
0.625
 20
27.5198
 30
0.0
 10
0.625
 20
27.5198
 30
0.0
 10
0.667
 20
27.4933
 30
0.0
 10
0.7194
 20
27.4687
 30
0.0
 10
0.7821
 20
27.4448
 30
0.0
 10
0.7821
 20
27.4448
 30
0.0
 10
0.8449
 20
27.4215
 30
0.0
 10
0.916
 20
27.4028
 30
0.0
 10
0.9956
 20
27.3879
 30
0.0
 10
0.9956
 20
27.3879
 30
0.0
 10
1.0758
 20
27.373
 30
0.0
 10
1.1618
 20
27.3653
 30
0.0
 10
1.2536
 20
27.3646
 30
0.0
 10
1.2536
 20
27.3646
 30
0.0
 10
1.3914
 20
27.3653
 30
0.0
 10
1.5169
 20
27.3873
 30
0.0
 10
1.6314
 20
27.4299
 30
0.0
 10
1.6314
 20
27.4299
 30
0.0
 10
1.7458
 20
27.4726
 30
0.0
 10
1.8448
 20
27.5328
 30
0.0
 10
1.9282
 20
27.6104
 30
0.0
 10
1.9282
 20
27.6104
 30
0.0
 10
2.0123
 20
27.688
 30
0.0
 10
2.077
 20
27.7792
 30
0.0
 10
2.1229
 20
27.8833
 30
0.0
 10
2.1229
 20
27.8833
 30
0.0
 10
2.1688
 20
27.9881
 30
0.0
 10
2.1921
 20
28.1026
 30
0.0
 10
2.1927
 20
28.2261
 30
0.0
 10
2.1927
 20
28.2261
 30
0.0
 10
2.1921
 20
28.3309
 30
0.0
 10
2.1753
 20
28.4253
 30
0.0
 10
2.1429
 20
28.5087
 30
0.0
 10
2.1429
 20
28.5087
 30
0.0
 10
2.1106
 20
28.5922
 30
0.0
 10
2.0679
 20
28.664
 30
0.0
 10
2.0136
 20
28.7248
 30
0.0
 10
2.0136
 20
28.7248
 30
0.0
 10
1.9593
 20
28.7856
 30
0.0
 10
1.8985
 20
28.8341
 30
0.0
 10
1.8319
 20
28.8703
 30
0.0
 10
1.8319
 20
28.8703
 30
0.0
 10
1.7536
 20
28.9181
 30
0.0
 10
1.6689
 20
28.9531
 30
0.0
 10
1.5764
 20
28.9744
 30
0.0
 10
1.5764
 20
28.9744
 30
0.0
 10
1.4839
 20
28.9958
 30
0.0
 10
1.3882
 20
29.0068
 30
0.0
 10
1.2886
 20
29.0061
 30
0.0
 10
1.2886
 20
29.0061
 30
0.0
 10
1.2433
 20
29.0061
 30
0.0
 10
1.2045
 20
29.0055
 30
0.0
 10
1.1728
 20
29.0035
 30
0.0
 10
1.1728
 20
29.0035
 30
0.0
 10
1.1411
 20
29.0016
 30
0.0
 10
1.1114
 20
28.9983
 30
0.0
 10
1.0829
 20
28.9945
 30
0.0
 10
1.0829
 20
28.9945
 30
0.0
 10
1.0829
 20
28.9945
 30
0.0
 10
1.1799
 20
29.6425
 30
0.0
 10
1.1799
 20
29.6425
 30
0.0
 10
1.1799
 20
29.6425
 30
0.0
 10
1.1799
 20
29.6425
 30
0.0
 10
2.1423
 20
29.6425
 30
0.0
 10
2.1423
 20
29.6425
 30
0.0
 10
2.1423
 20
29.6425
 30
0.0
 10
2.1423
 20
29.6425
 30
0.0
 10
2.1423
 20
29.9297
 30
0.0
 10
2.1423
 20
29.9297
 30
0.0
  0
SPLINE
  5
4B
330
1F
100
AcDbEntity
  8
ROUND
 62
   250
370
    15
100
AcDbSpline
210
0.0
220
0.0
230
1.0
 70
    24
 71
     3
 72
     8
 73
     4
 74
     0
 42
0.0000000001
 43
0.0000000001
 40
0.0
 40
0.0
 40
0.0
 40
0.0
 40
1.0
 40
1.0
 40
1.0
 40
1.0
 10
0.8431
 20
-29.5032
 30
0.0
 10
0.8431
 20
-29.5032
 30
0.0
 10
-14.6426
 20
-29.5032
 30
0.0
 10
-14.6426
 20
-29.5032
 30
0.0
  0
SPLINE
  5
4C
330
1F
100
AcDbEntity
  8
ROUND
 62
   250
370
    15
100
AcDbSpline
210
0.0
220
0.0
230
1.0
 70
    24
 71
     3
 72
     8
 73
     4
 74
     0
 42
0.0000000001
 43
0.0000000001
 40
0.0
 40
0.0
 40
0.0
 40
0.0
 40
1.0
 40
1.0
 40
1.0
 40
1.0
 10
6.9015
 20
26.9142
 30
0.0
 10
6.9015
 20
26.9142
 30
0.0
 10
-6.62
 20
26.9142
 30
0.0
 10
-6.62
 20
26.9142
 30
0.0
  0
SPLINE
  5
4D
330
1F
100
AcDbEntity
  8
ROUND
 62
   250
100
AcDbSpline
210
0.0
220
0.0
230
1.0
 70
    11
 71
     3
 72
   104
 73
   100
 74
     0
 42
0.0000000001
 43
0.0000000001
 40
0.0
 40
0.0
 40
0.0
 40
0.0
 40
0.0384615384615385
 40
0.0384615384615385
 40
0.0384615384615385
 40
0.0384615384615385
 40
0.0769230769230769
 40
0.0769230769230769
 40
0.0769230769230769
 40
0.0769230769230769
 40
0.1153846153846154
 40
0.1153846153846154
 40
0.1153846153846154
 40
0.1153846153846154
 40
0.1538461538461539
 40
0.1538461538461539
 40
0.1538461538461539
 40
0.1538461538461539
 40
0.1923076923076923
 40
0.1923076923076923
 40
0.1923076923076923
 40
0.1923076923076923
 40
0.2307692307692308
 40
0.2307692307692308
 40
0.2307692307692308
 40
0.2307692307692308
 40
0.2692307692307692
 40
0.2692307692307692
 40
0.2692307692307692
 40
0.2692307692307692
 40
0.3076923076923077
 40
0.3076923076923077
 40
0.3076923076923077
 40
0.3076923076923077
 40
0.3461538461538461
 40
0.3461538461538461
 40
0.3461538461538461
 40
0.3461538461538461
 40
0.3846153846153846
 40
0.3846153846153846
 40
0.3846153846153846
 40
0.3846153846153846
 40
0.4230769230769231
 40
0.4230769230769231
 40
0.4230769230769231
 40
0.4230769230769231
 40
0.4615384615384616
 40
0.4615384615384616
 40
0.4615384615384616
 40
0.4615384615384616
 40
0.5
 40
0.5
 40
0.5
 40
0.5
 40
0.5384615384615384
 40
0.5384615384615384
 40
0.5384615384615384
 40
0.5384615384615384
 40
0.5769230769230769
 40
0.5769230769230769
 40
0.5769230769230769
 40
0.5769230769230769
 40
0.6153846153846154
 40
0.6153846153846154
 40
0.6153846153846154
 40
0.6153846153846154
 40
0.6538461538461539
 40
0.6538461538461539
 40
0.6538461538461539
 40
0.6538461538461539
 40
0.6923076923076923
 40
0.6923076923076923
 40
0.6923076923076923
 40
0.6923076923076923
 40
0.7307692307692307
 40
0.7307692307692307
 40
0.7307692307692307
 40
0.7307692307692307
 40
0.7692307692307693
 40
0.7692307692307693
 40
0.7692307692307693
 40
0.7692307692307693
 40
0.8076923076923077
 40
0.8076923076923077
 40
0.8076923076923077
 40
0.8076923076923077
 40
0.8461538461538461
 40
0.8461538461538461
 40
0.8461538461538461
 40
0.8461538461538461
 40
0.8846153846153846
 40
0.8846153846153846
 40
0.8846153846153846
 40
0.8846153846153846
 40
0.9230769230769231
 40
0.9230769230769231
 40
0.9230769230769231
 40
0.9230769230769231
 40
1.0
 40
1.0
 40
1.0
 40
1.0
 10
18.1261
 20
10.9017
 30
0.0
 10
18.1261
 20
10.9017
 30
0.0
 10
17.7923
 20
11.1462
 30
0.0
 10
17.7923
 20
11.1462
 30
0.0
 10
17.7923
 20
11.1462
 30
0.0
 10
17.8602
 20
11.24
 30
0.0
 10
17.9126
 20
11.3428
 30
0.0
 10
17.9482
 20
11.4541
 30
0.0
 10
17.9482
 20
11.4541
 30
0.0
 10
17.9838
 20
11.566
 30
0.0
 10
18.0019
 20
11.683
 30
0.0
 10
18.0019
 20
11.8059
 30
0.0
 10
18.0019
 20
11.8059
 30
0.0
 10
18.0019
 20
11.932
 30
0.0
 10
17.9831
 20
12.0543
 30
0.0
 10
17.9463
 20
12.1713
 30
0.0
 10
17.9463
 20
12.1713
 30
0.0
 10
17.9094
 20
12.2884
 30
0.0
 10
17.8544
 20
12.3971
 30
0.0
 10
17.7807
 20
12.4967
 30
0.0
 10
17.7807
 20
12.4967
 30
0.0
 10
17.7076
 20
12.5969
 30
0.0
 10
17.6158
 20
12.6842
 30
0.0
 10
17.5058
 20
12.7592
 30
0.0
 10
17.5058
 20
12.7592
 30
0.0
 10
17.3959
 20
12.8336
 30
0.0
 10
17.2678
 20
12.8918
 30
0.0
 10
17.121
 20
12.9339
 30
0.0
 10
17.121
 20
12.9339
 30
0.0
 10
16.9748
 20
12.9753
 30
0.0
 10
16.8105
 20
12.9966
 30
0.0
 10
16.6282
 20
12.9973
 30
0.0
 10
16.6282
 20
12.9973
 30
0.0
 10
16.4994
 20
12.9973
 30
0.0
 10
16.3772
 20
12.9843
 30
0.0
 10
16.2608
 20
12.9578
 30
0.0
 10
16.2608
 20
12.9578
 30
0.0
 10
16.1437
 20
12.9319
 30
0.0
 10
16.0351
 20
12.8938
 30
0.0
 10
15.9348
 20
12.844
 30
0.0
 10
15.9348
 20
12.844
 30
0.0
 10
15.8346
 20
12.7935
 30
0.0
 10
15.7453
 20
12.7321
 30
0.0
 10
15.6658
 20
12.6596
 30
0.0
 10
15.6658
 20
12.6596
 30
0.0
 10
15.6658
 20
12.6596
 30
0.0
 10
15.332
 20
12.9002
 30
0.0
 10
15.332
 20
12.9002
 30
0.0
 10
15.332
 20
12.9002
 30
0.0
 10
15.332
 20
12.9002
 30
0.0
 10
15.1923
 20
12.6946
 30
0.0
 10
15.1923
 20
12.6946
 30
0.0
 10
15.1923
 20
12.6946
 30
0.0
 10
15.1923
 20
12.6946
 30
0.0
 10
15.5067
 20
12.4656
 30
0.0
 10
15.5067
 20
12.4656
 30
0.0
 10
15.5067
 20
12.4656
 30
0.0
 10
15.4368
 20
12.3718
 30
0.0
 10
15.3844
 20
12.2703
 30
0.0
 10
15.3495
 20
12.1603
 30
0.0
 10
15.3495
 20
12.1603
 30
0.0
 10
15.3146
 20
12.0497
 30
0.0
 10
15.2971
 20
11.9346
 30
0.0
 10
15.2971
 20
11.8137
 30
0.0
 10
15.2971
 20
11.8137
 30
0.0
 10
15.2978
 20
11.641
 30
0.0
 10
15.3301
 20
11.4819
 30
0.0
 10
15.3941
 20
11.3351
 30
0.0
 10
15.3941
 20
11.3351
 30
0.0
 10
15.4582
 20
11.1889
 30
0.0
 10
15.5506
 20
11.0615
 30
0.0
 10
15.6703
 20
10.9528
 30
0.0
 10
15.6703
 20
10.9528
 30
0.0
 10
15.7899
 20
10.8435
 30
0.0
 10
15.9335
 20
10.7594
 30
0.0
 10
16.101
 20
10.6986
 30
0.0
 10
16.101
 20
10.6986
 30
0.0
 10
16.2686
 20
10.6385
 30
0.0
 10
16.4555
 20
10.6074
 30
0.0
 10
16.6631
 20
10.6068
 30
0.0
 10
16.6631
 20
10.6068
 30
0.0
 10
16.7937
 20
10.6068
 30
0.0
 10
16.9186
 20
10.621
 30
0.0
 10
17.0363
 20
10.6482
 30
0.0
 10
17.0363
 20
10.6482
 30
0.0
 10
17.154
 20
10.6754
 30
0.0
 10
17.2633
 20
10.7148
 30
0.0
 10
17.3635
 20
10.7659
 30
0.0
 10
17.3635
 20
10.7659
 30
0.0
 10
17.4638
 20
10.8176
 30
0.0
 10
17.5537
 20
10.8797
 30
0.0
 10
17.6332
 20
10.9522
 30
0.0
 10
17.6332
 20
10.9522
 30
0.0
 10
17.6332
 20
10.9522
 30
0.0
 10
17.9708
 20
10.7116
 30
0.0
 10
17.9708
 20
10.7116
 30
0.0
 10
17.9708
 20
10.7116
 30
0.0
 10
17.9708
 20
10.7116
 30
0.0
 10
18.1261
 20
10.9017
 30
0.0
 10
18.1261
 20
10.9017
 30
0.0
  0
SPLINE
  5
4E
330
1F
100
AcDbEntity
  8
ROUND
 62
   250
100
AcDbSpline
210
0.0
220
0.0
230
1.0
 70
    11
 71
     3
 72
    52
 73
    48
 74
     0
 42
0.0000000001
 43
0.0000000001
 40
0.0
 40
0.0
 40
0.0
 40
0.0
 40
0.0769230769230769
 40
0.0769230769230769
 40
0.0769230769230769
 40
0.0769230769230769
 40
0.1538461538461539
 40
0.1538461538461539
 40
0.1538461538461539
 40
0.1538461538461539
 40
0.2307692307692308
 40
0.2307692307692308
 40
0.2307692307692308
 40
0.2307692307692308
 40
0.3076923076923077
 40
0.3076923076923077
 40
0.3076923076923077
 40
0.3076923076923077
 40
0.3846153846153846
 40
0.3846153846153846
 40
0.3846153846153846
 40
0.3846153846153846
 40
0.4615384615384616
 40
0.4615384615384616
 40
0.4615384615384616
 40
0.4615384615384616
 40
0.5384615384615384
 40
0.5384615384615384
 40
0.5384615384615384
 40
0.5384615384615384
 40
0.6153846153846154
 40
0.6153846153846154
 40
0.6153846153846154
 40
0.6153846153846154
 40
0.6923076923076923
 40
0.6923076923076923
 40
0.6923076923076923
 40
0.6923076923076923
 40
0.7692307692307693
 40
0.7692307692307693
 40
0.7692307692307693
 40
0.7692307692307693
 40
0.8461538461538461
 40
0.8461538461538461
 40
0.8461538461538461
 40
0.8461538461538461
 40
1.0
 40
1.0
 40
1.0
 40
1.0
 10
17.3461
 20
11.1501
 30
0.0
 10
17.3461
 20
11.1501
 30
0.0
 10
17.3499
 20
11.1423
 30
0.0
 10
17.3499
 20
11.1423
 30
0.0
 10
17.3499
 20
11.1423
 30
0.0
 10
17.2833
 20
11.1035
 30
0.0
 10
17.2141
 20
11.0699
 30
0.0
 10
17.143
 20
11.0414
 30
0.0
 10
17.143
 20
11.0414
 30
0.0
 10
17.0712
 20
11.013
 30
0.0
 10
16.9955
 20
10.991
 30
0.0
 10
16.914
 20
10.9755
 30
0.0
 10
16.914
 20
10.9755
 30
0.0
 10
16.8332
 20
10.9599
 30
0.0
 10
16.7439
 20
10.9522
 30
0.0
 10
16.6476
 20
10.9522
 30
0.0
 10
16.6476
 20
10.9522
 30
0.0
 10
16.5363
 20
10.9522
 30
0.0
 10
16.429
 20
10.9638
 30
0.0
 10
16.3235
 20
10.9865
 30
0.0
 10
16.3235
 20
10.9865
 30
0.0
 10
16.2188
 20
11.0097
 30
0.0
 10
16.1204
 20
11.044
 30
0.0
 10
16.0299
 20
11.0893
 30
0.0
 10
16.0299
 20
11.0893
 30
0.0
 10
15.9387
 20
11.1352
 30
0.0
 10
15.8585
 20
11.1921
 30
0.0
 10
15.7899
 20
11.2607
 30
0.0
 10
15.7899
 20
11.2607
 30
0.0
 10
15.7207
 20
11.3292
 30
0.0
 10
15.6671
 20
11.4088
 30
0.0
 10
15.6283
 20
11.4993
 30
0.0
 10
15.6283
 20
11.4993
 30
0.0
 10
15.5888
 20
11.5905
 30
0.0
 10
15.5694
 20
11.6927
 30
0.0
 10
15.5688
 20
11.8059
 30
0.0
 10
15.5688
 20
11.8059
 30
0.0
 10
15.5694
 20
11.9049
 30
0.0
 10
15.5856
 20
11.9954
 30
0.0
 10
15.6179
 20
12.0769
 30
0.0
 10
15.6179
 20
12.0769
 30
0.0
 10
15.6496
 20
12.159
 30
0.0
 10
15.6942
 20
12.2328
 30
0.0
 10
15.7511
 20
12.2987
 30
0.0
 10
15.7511
 20
12.2987
 30
0.0
 10
15.7511
 20
12.2987
 30
0.0
 10
17.3461
 20
11.1501
 30
0.0
 10
17.3461
 20
11.1501
 30
0.0
  0
SPLINE
  5
4F
330
1F
100
AcDbEntity
  8
ROUND
 62
   250
100
AcDbSpline
210
0.0
220
0.0
230
1.0
 70
    11
 71
     3
 72
    48
 73
    44
 74
     0
 42
0.0000000001
 43
0.0000000001
 40
0.0
 40
0.0
 40
0.0
 40
0.0
 40
0.0833333333333333
 40
0.0833333333333333
 40
0.0833333333333333
 40
0.0833333333333333
 40
0.1666666666666667
 40
0.1666666666666667
 40
0.1666666666666667
 40
0.1666666666666667
 40
0.25
 40
0.25
 40
0.25
 40
0.25
 40
0.3333333333333333
 40
0.3333333333333333
 40
0.3333333333333333
 40
0.3333333333333333
 40
0.4166666666666667
 40
0.4166666666666667
 40
0.4166666666666667
 40
0.4166666666666667
 40
0.5
 40
0.5
 40
0.5
 40
0.5
 40
0.5833333333333334
 40
0.5833333333333334
 40
0.5833333333333334
 40
0.5833333333333334
 40
0.6666666666666666
 40
0.6666666666666666
 40
0.6666666666666666
 40
0.6666666666666666
 40
0.75
 40
0.75
 40
0.75
 40
0.75
 40
0.8333333333333334
 40
0.8333333333333334
 40
0.8333333333333334
 40
0.8333333333333334
 40
1.0
 40
1.0
 40
1.0
 40
1.0
 10
15.9568
 20
12.4578
 30
0.0
 10
15.9568
 20
12.4578
 30
0.0
 10
15.9568
 20
12.4695
 30
0.0
 10
15.9568
 20
12.4695
 30
0.0
 10
15.9568
 20
12.4695
 30
0.0
 10
16.0693
 20
12.5368
 30
0.0
 10
16.1832
 20
12.584
 30
0.0
 10
16.2983
 20
12.6118
 30
0.0
 10
16.2983
 20
12.6118
 30
0.0
 10
16.4128
 20
12.6396
 30
0.0
 10
16.5266
 20
12.6532
 30
0.0
 10
16.6398
 20
12.6519
 30
0.0
 10
16.6398
 20
12.6519
 30
0.0
 10
16.7575
 20
12.6519
 30
0.0
 10
16.87
 20
12.6396
 30
0.0
 10
16.9781
 20
12.6157
 30
0.0
 10
16.9781
 20
12.6157
 30
0.0
 10
17.0861
 20
12.5917
 30
0.0
 10
17.1857
 20
12.5562
 30
0.0
 10
17.2769
 20
12.5096
 30
0.0
 10
17.2769
 20
12.5096
 30
0.0
 10
17.3681
 20
12.4624
 30
0.0
 10
17.4476
 20
12.4048
 30
0.0
 10
17.5149
 20
12.3363
 30
0.0
 10
17.5149
 20
12.3363
 30
0.0
 10
17.5828
 20
12.2671
 30
0.0
 10
17.6358
 20
12.1881
 30
0.0
 10
17.6733
 20
12.0989
 30
0.0
 10
17.6733
 20
12.0989
 30
0.0
 10
17.7108
 20
12.0096
 30
0.0
 10
17.7296
 20
11.9107
 30
0.0
 10
17.7302
 20
11.802
 30
0.0
 10
17.7302
 20
11.802
 30
0.0
 10
17.7302
 20
11.6966
 30
0.0
 10
17.7141
 20
11.6041
 30
0.0
 10
17.6824
 20
11.5259
 30
0.0
 10
17.6824
 20
11.5259
 30
0.0
 10
17.6507
 20
11.447
 30
0.0
 10
17.6041
 20
11.3765
 30
0.0
 10
17.544
 20
11.3131
 30
0.0
 10
17.544
 20
11.3131
 30
0.0
 10
17.544
 20
11.3131
 30
0.0
 10
15.9568
 20
12.4578
 30
0.0
 10
15.9568
 20
12.4578
 30
0.0
  0
SPLINE
  5
50
330
1F
100
AcDbEntity
  8
ROUND
 62
   250
100
AcDbSpline
210
0.0
220
0.0
230
1.0
 70
    11
 71
     3
 72
    36
 73
    32
 74
     0
 42
0.0000000001
 43
0.0000000001
 40
0.0
 40
0.0
 40
0.0
 40
0.0
 40
0.1111111111111111
 40
0.1111111111111111
 40
0.1111111111111111
 40
0.1111111111111111
 40
0.2222222222222222
 40
0.2222222222222222
 40
0.2222222222222222
 40
0.2222222222222222
 40
0.3333333333333333
 40
0.3333333333333333
 40
0.3333333333333333
 40
0.3333333333333333
 40
0.4444444444444444
 40
0.4444444444444444
 40
0.4444444444444444
 40
0.4444444444444444
 40
0.5555555555555556
 40
0.5555555555555556
 40
0.5555555555555556
 40
0.5555555555555556
 40
0.6666666666666666
 40
0.6666666666666666
 40
0.6666666666666666
 40
0.6666666666666666
 40
0.7777777777777778
 40
0.7777777777777778
 40
0.7777777777777778
 40
0.7777777777777778
 40
1.0
 40
1.0
 40
1.0
 40
1.0
 10
17.9592
 20
14.0566
 30
0.0
 10
17.9592
 20
14.0566
 30
0.0
 10
17.9592
 20
14.3865
 30
0.0
 10
17.9592
 20
14.3865
 30
0.0
 10
17.9592
 20
14.3865
 30
0.0
 10
17.9592
 20
14.3865
 30
0.0
 10
15.4368
 20
14.3865
 30
0.0
 10
15.4368
 20
14.3865
 30
0.0
 10
15.4368
 20
14.3865
 30
0.0
 10
15.4368
 20
14.3865
 30
0.0
 10
15.4368
 20
14.0954
 30
0.0
 10
15.4368
 20
14.0954
 30
0.0
 10
15.4368
 20
14.0954
 30
0.0
 10
15.4368
 20
14.0954
 30
0.0
 10
15.7317
 20
13.5444
 30
0.0
 10
15.7317
 20
13.5444
 30
0.0
 10
15.7317
 20
13.5444
 30
0.0
 10
15.7317
 20
13.5444
 30
0.0
 10
15.9917
 20
13.6104
 30
0.0
 10
15.9917
 20
13.6104
 30
0.0
 10
15.9917
 20
13.6104
 30
0.0
 10
15.9917
 20
13.6104
 30
0.0
 10
15.755
 20
14.0489
 30
0.0
 10
15.755
 20
14.0489
 30
0.0
 10
15.755
 20
14.0489
 30
0.0
 10
15.755
 20
14.0489
 30
0.0
 10
15.755
 20
14.0566
 30
0.0
 10
15.755
 20
14.0566
 30
0.0
 10
15.755
 20
14.0566
 30
0.0
 10
15.755
 20
14.0566
 30
0.0
 10
17.9592
 20
14.0566
 30
0.0
 10
17.9592
 20
14.0566
 30
0.0
  0
SPLINE
  5
51
330
1F
100
AcDbEntity
  8
ROUND
 62
   250
100
AcDbSpline
210
0.0
220
0.0
230
1.0
 70
    11
 71
     3
 72
    36
 73
    32
 74
     0
 42
0.0000000001
 43
0.0000000001
 40
0.0
 40
0.0
 40
0.0
 40
0.0
 40
0.1111111111111111
 40
0.1111111111111111
 40
0.1111111111111111
 40
0.1111111111111111
 40
0.2222222222222222
 40
0.2222222222222222
 40
0.2222222222222222
 40
0.2222222222222222
 40
0.3333333333333333
 40
0.3333333333333333
 40
0.3333333333333333
 40
0.3333333333333333
 40
0.4444444444444444
 40
0.4444444444444444
 40
0.4444444444444444
 40
0.4444444444444444
 40
0.5555555555555556
 40
0.5555555555555556
 40
0.5555555555555556
 40
0.5555555555555556
 40
0.6666666666666666
 40
0.6666666666666666
 40
0.6666666666666666
 40
0.6666666666666666
 40
0.7777777777777778
 40
0.7777777777777778
 40
0.7777777777777778
 40
0.7777777777777778
 40
1.0
 40
1.0
 40
1.0
 40
1.0
 10
17.9592
 20
16.0473
 30
0.0
 10
17.9592
 20
16.0473
 30
0.0
 10
17.9592
 20
16.3772
 30
0.0
 10
17.9592
 20
16.3772
 30
0.0
 10
17.9592
 20
16.3772
 30
0.0
 10
17.9592
 20
16.3772
 30
0.0
 10
15.4368
 20
16.3772
 30
0.0
 10
15.4368
 20
16.3772
 30
0.0
 10
15.4368
 20
16.3772
 30
0.0
 10
15.4368
 20
16.3772
 30
0.0
 10
15.4368
 20
16.0861
 30
0.0
 10
15.4368
 20
16.0861
 30
0.0
 10
15.4368
 20
16.0861
 30
0.0
 10
15.4368
 20
16.0861
 30
0.0
 10
15.7317
 20
15.5351
 30
0.0
 10
15.7317
 20
15.5351
 30
0.0
 10
15.7317
 20
15.5351
 30
0.0
 10
15.7317
 20
15.5351
 30
0.0
 10
15.9917
 20
15.6011
 30
0.0
 10
15.9917
 20
15.6011
 30
0.0
 10
15.9917
 20
15.6011
 30
0.0
 10
15.9917
 20
15.6011
 30
0.0
 10
15.755
 20
16.0396
 30
0.0
 10
15.755
 20
16.0396
 30
0.0
 10
15.755
 20
16.0396
 30
0.0
 10
15.755
 20
16.0396
 30
0.0
 10
15.755
 20
16.0473
 30
0.0
 10
15.755
 20
16.0473
 30
0.0
 10
15.755
 20
16.0473
 30
0.0
 10
15.755
 20
16.0473
 30
0.0
 10
17.9592
 20
16.0473
 30
0.0
 10
17.9592
 20
16.0473
 30
0.0
  0
SPLINE
  5
52
330
1F
100
AcDbEntity
  8
ROUND
 62
   250
100
AcDbSpline
210
0.0
220
0.0
230
1.0
 70
    11
 71
     3
 72
    56
 73
    52
 74
     0
 42
0.0000000001
 43
0.0000000001
 40
0.0
 40
0.0
 40
0.0
 40
0.0
 40
0.0714285714285714
 40
0.0714285714285714
 40
0.0714285714285714
 40
0.0714285714285714
 40
0.1428571428571428
 40
0.1428571428571428
 40
0.1428571428571428
 40
0.1428571428571428
 40
0.2142857142857143
 40
0.2142857142857143
 40
0.2142857142857143
 40
0.2142857142857143
 40
0.2857142857142857
 40
0.2857142857142857
 40
0.2857142857142857
 40
0.2857142857142857
 40
0.3571428571428572
 40
0.3571428571428572
 40
0.3571428571428572
 40
0.3571428571428572
 40
0.4285714285714285
 40
0.4285714285714285
 40
0.4285714285714285
 40
0.4285714285714285
 40
0.5
 40
0.5
 40
0.5
 40
0.5
 40
0.5714285714285714
 40
0.5714285714285714
 40
0.5714285714285714
 40
0.5714285714285714
 40
0.6428571428571429
 40
0.6428571428571429
 40
0.6428571428571429
 40
0.6428571428571429
 40
0.7142857142857143
 40
0.7142857142857143
 40
0.7142857142857143
 40
0.7142857142857143
 40
0.7857142857142857
 40
0.7857142857142857
 40
0.7857142857142857
 40
0.7857142857142857
 40
0.8571428571428571
 40
0.8571428571428571
 40
0.8571428571428571
 40
0.8571428571428571
 40
1.0
 40
1.0
 40
1.0
 40
1.0
 10
15.3941
 20
18.1428
 30
0.0
 10
15.3941
 20
18.0141
 30
0.0
 10
15.4226
 20
17.8964
 30
0.0
 10
15.4795
 20
17.789
 30
0.0
 10
15.4795
 20
17.789
 30
0.0
 10
15.5364
 20
17.6817
 30
0.0
 10
15.6198
 20
17.5892
 30
0.0
 10
15.7311
 20
17.5103
 30
0.0
 10
15.7311
 20
17.5103
 30
0.0
 10
15.8423
 20
17.4314
 30
0.0
 10
15.9794
 20
17.3706
 30
0.0
 10
16.1424
 20
17.3272
 30
0.0
 10
16.1424
 20
17.3272
 30
0.0
 10
16.3054
 20
17.2845
 30
0.0
 10
16.493
 20
17.2625
 30
0.0
 10
16.7058
 20
17.2619
 30
0.0
 10
16.7058
 20
17.2619
 30
0.0
 10
16.9845
 20
17.2658
 30
0.0
 10
17.2199
 20
17.3026
 30
0.0
 10
17.4127
 20
17.3731
 30
0.0
 10
17.4127
 20
17.3731
 30
0.0
 10
17.6054
 20
17.4436
 30
0.0
 10
17.7516
 20
17.5413
 30
0.0
 10
17.8512
 20
17.6655
 30
0.0
 10
17.8512
 20
17.6655
 30
0.0
 10
17.9508
 20
17.7897
 30
0.0
 10
18.0012
 20
17.9345
 30
0.0
 10
18.0019
 20
18.1001
 30
0.0
 10
18.0019
 20
18.1001
 30
0.0
 10
18.0012
 20
18.2857
 30
0.0
 10
17.9495
 20
18.4435
 30
0.0
 10
17.8473
 20
18.5742
 30
0.0
 10
17.8473
 20
18.5742
 30
0.0
 10
17.7451
 20
18.7048
 30
0.0
 10
17.5951
 20
18.8044
 30
0.0
 10
17.3972
 20
18.873
 30
0.0
 10
17.3972
 20
18.873
 30
0.0
 10
17.1992
 20
18.9422
 30
0.0
 10
16.9574
 20
18.9765
 30
0.0
 10
16.6708
 20
18.9771
 30
0.0
 10
16.6708
 20
18.9771
 30
0.0
 10
16.4024
 20
18.9765
 30
0.0
 10
16.1728
 20
18.9435
 30
0.0
 10
15.9827
 20
18.8782
 30
0.0
 10
15.9827
 20
18.8782
 30
0.0
 10
15.7925
 20
18.8128
 30
0.0
 10
15.647
 20
18.7178
 30
0.0
 10
15.5468
 20
18.5936
 30
0.0
 10
15.5468
 20
18.5936
 30
0.0
 10
15.4459
 20
18.4694
 30
0.0
 10
15.3948
 20
18.3194
 30
0.0
 10
15.3941
 20
18.1428
 30
0.0
  0
SPLINE
  5
53
330
1F
100
AcDbEntity
  8
ROUND
 62
   250
100
AcDbSpline
210
0.0
220
0.0
230
1.0
 70
    11
 71
     3
 72
    56
 73
    52
 74
     0
 42
0.0000000001
 43
0.0000000001
 40
0.0
 40
0.0
 40
0.0
 40
0.0
 40
0.0714285714285714
 40
0.0714285714285714
 40
0.0714285714285714
 40
0.0714285714285714
 40
0.1428571428571428
 40
0.1428571428571428
 40
0.1428571428571428
 40
0.1428571428571428
 40
0.2142857142857143
 40
0.2142857142857143
 40
0.2142857142857143
 40
0.2142857142857143
 40
0.2857142857142857
 40
0.2857142857142857
 40
0.2857142857142857
 40
0.2857142857142857
 40
0.3571428571428572
 40
0.3571428571428572
 40
0.3571428571428572
 40
0.3571428571428572
 40
0.4285714285714285
 40
0.4285714285714285
 40
0.4285714285714285
 40
0.4285714285714285
 40
0.5
 40
0.5
 40
0.5
 40
0.5
 40
0.5714285714285714
 40
0.5714285714285714
 40
0.5714285714285714
 40
0.5714285714285714
 40
0.6428571428571429
 40
0.6428571428571429
 40
0.6428571428571429
 40
0.6428571428571429
 40
0.7142857142857143
 40
0.7142857142857143
 40
0.7142857142857143
 40
0.7142857142857143
 40
0.7857142857142857
 40
0.7857142857142857
 40
0.7857142857142857
 40
0.7857142857142857
 40
0.8571428571428571
 40
0.8571428571428571
 40
0.8571428571428571
 40
0.8571428571428571
 40
1.0
 40
1.0
 40
1.0
 40
1.0
 10
15.658
 20
18.1195
 30
0.0
 10
15.6587
 20
18.2088
 30
0.0
 10
15.6826
 20
18.2857
 30
0.0
 10
15.7311
 20
18.3504
 30
0.0
 10
15.7311
 20
18.3504
 30
0.0
 10
15.7796
 20
18.4151
 30
0.0
 10
15.8488
 20
18.4681
 30
0.0
 10
15.9393
 20
18.5095
 30
0.0
 10
15.9393
 20
18.5095
 30
0.0
 10
16.0292
 20
18.5509
 30
0.0
 10
16.1379
 20
18.582
 30
0.0
 10
16.2634
 20
18.602
 30
0.0
 10
16.2634
 20
18.602
 30
0.0
 10
16.3895
 20
18.6221
 30
0.0
 10
16.5305
 20
18.6318
 30
0.0
 10
16.6864
 20
18.6318
 30
0.0
 10
16.6864
 20
18.6318
 30
0.0
 10
16.9024
 20
18.6318
 30
0.0
 10
17.0887
 20
18.613
 30
0.0
 10
17.2452
 20
18.5755
 30
0.0
 10
17.2452
 20
18.5755
 30
0.0
 10
17.4023
 20
18.5386
 30
0.0
 10
17.5233
 20
18.4817
 30
0.0
 10
17.6087
 20
18.406
 30
0.0
 10
17.6087
 20
18.406
 30
0.0
 10
17.694
 20
18.3304
 30
0.0
 10
17.7367
 20
18.2346
 30
0.0
 10
17.738
 20
18.1195
 30
0.0
 10
17.738
 20
18.1195
 30
0.0
 10
17.7374
 20
18.0154
 30
0.0
 10
17.6973
 20
17.9255
 30
0.0
 10
17.6171
 20
17.8485
 30
0.0
 10
17.6171
 20
17.8485
 30
0.0
 10
17.5369
 20
17.7722
 30
0.0
 10
17.4204
 20
17.7133
 30
0.0
 10
17.2678
 20
17.6713
 30
0.0
 10
17.2678
 20
17.6713
 30
0.0
 10
17.1145
 20
17.6293
 30
0.0
 10
16.9289
 20
17.6079
 30
0.0
 10
16.7096
 20
17.6073
 30
0.0
 10
16.7096
 20
17.6073
 30
0.0
 10
16.48
 20
17.6079
 30
0.0
 10
16.288
 20
17.6306
 30
0.0
 10
16.1314
 20
17.6745
 30
0.0
 10
16.1314
 20
17.6745
 30
0.0
 10
15.9756
 20
17.7185
 30
0.0
 10
15.8579
 20
17.7787
 30
0.0
 10
15.7777
 20
17.8556
 30
0.0
 10
15.7777
 20
17.8556
 30
0.0
 10
15.6981
 20
17.9326
 30
0.0
 10
15.658
 20
18.0206
 30
0.0
 10
15.658
 20
18.1195
 30
0.0
  0
SPLINE
  5
54
330
1F
100
AcDbEntity
  8
ROUND
 62
   250
370
    15
100
AcDbSpline
210
0.0
220
0.0
230
1.0
 70
    24
 71
     3
 72
     8
 73
     4
 74
     0
 42
0.0000000001
 43
0.0000000001
 40
0.0
 40
0.0
 40
0.0
 40
0.0
 40
1.0
 40
1.0
 40
1.0
 40
1.0
 10
18.6339
 20
23.117
 30
0.0
 10
18.6339
 20
23.117
 30
0.0
 10
18.6339
 20
7.0106
 30
0.0
 10
18.6339
 20
7.0106
 30
0.0
  0
SPLINE
  5
55
330
1F
100
AcDbEntity
  8
ROUND
 62
   250
100
AcDbSpline
210
0.0
220
0.0
230
1.0
 70
    11
 71
     3
 72
   124
 73
   120
 74
     0
 42
0.0000000001
 43
0.0000000001
 40
0.0
 40
0.0
 40
0.0
 40
0.0
 40
0.032258064516129
 40
0.032258064516129
 40
0.032258064516129
 40
0.032258064516129
 40
0.0645161290322581
 40
0.0645161290322581
 40
0.0645161290322581
 40
0.0645161290322581
 40
0.0967741935483871
 40
0.0967741935483871
 40
0.0967741935483871
 40
0.0967741935483871
 40
0.1290322580645161
 40
0.1290322580645161
 40
0.1290322580645161
 40
0.1290322580645161
 40
0.1612903225806452
 40
0.1612903225806452
 40
0.1612903225806452
 40
0.1612903225806452
 40
0.1935483870967742
 40
0.1935483870967742
 40
0.1935483870967742
 40
0.1935483870967742
 40
0.2258064516129032
 40
0.2258064516129032
 40
0.2258064516129032
 40
0.2258064516129032
 40
0.2580645161290323
 40
0.2580645161290323
 40
0.2580645161290323
 40
0.2580645161290323
 40
0.2903225806451613
 40
0.2903225806451613
 40
0.2903225806451613
 40
0.2903225806451613
 40
0.3225806451612903
 40
0.3225806451612903
 40
0.3225806451612903
 40
0.3225806451612903
 40
0.3548387096774194
 40
0.3548387096774194
 40
0.3548387096774194
 40
0.3548387096774194
 40
0.3870967741935484
 40
0.3870967741935484
 40
0.3870967741935484
 40
0.3870967741935484
 40
0.4193548387096774
 40
0.4193548387096774
 40
0.4193548387096774
 40
0.4193548387096774
 40
0.4516129032258064
 40
0.4516129032258064
 40
0.4516129032258064
 40
0.4516129032258064
 40
0.4838709677419355
 40
0.4838709677419355
 40
0.4838709677419355
 40
0.4838709677419355
 40
0.5161290322580645
 40
0.5161290322580645
 40
0.5161290322580645
 40
0.5161290322580645
 40
0.5483870967741935
 40
0.5483870967741935
 40
0.5483870967741935
 40
0.5483870967741935
 40
0.5806451612903226
 40
0.5806451612903226
 40
0.5806451612903226
 40
0.5806451612903226
 40
0.6129032258064516
 40
0.6129032258064516
 40
0.6129032258064516
 40
0.6129032258064516
 40
0.6451612903225806
 40
0.6451612903225806
 40
0.6451612903225806
 40
0.6451612903225806
 40
0.6774193548387096
 40
0.6774193548387096
 40
0.6774193548387096
 40
0.6774193548387096
 40
0.7096774193548387
 40
0.7096774193548387
 40
0.7096774193548387
 40
0.7096774193548387
 40
0.7419354838709677
 40
0.7419354838709677
 40
0.7419354838709677
 40
0.7419354838709677
 40
0.7741935483870968
 40
0.7741935483870968
 40
0.7741935483870968
 40
0.7741935483870968
 40
0.8064516129032258
 40
0.8064516129032258
 40
0.8064516129032258
 40
0.8064516129032258
 40
0.8387096774193549
 40
0.8387096774193549
 40
0.8387096774193549
 40
0.8387096774193549
 40
0.8709677419354839
 40
0.8709677419354839
 40
0.8709677419354839
 40
0.8709677419354839
 40
0.9032258064516129
 40
0.9032258064516129
 40
0.9032258064516129
 40
0.9032258064516129
 40
0.9354838709677419
 40
0.9354838709677419
 40
0.9354838709677419
 40
0.9354838709677419
 40
1.0
 40
1.0
 40
1.0
 40
1.0
 10
-21.8048
 20
-6.7312
 30
0.0
 10
-21.8048
 20
-6.7312
 30
0.0
 10
-22.0881
 20
-6.7312
 30
0.0
 10
-22.0881
 20
-6.7312
 30
0.0
 10
-22.0881
 20
-6.7312
 30
0.0
 10
-22.0881
 20
-6.7312
 30
0.0
 10
-22.0881
 20
-7.8605
 30
0.0
 10
-22.0881
 20
-7.8605
 30
0.0
 10
-22.0881
 20
-7.8605
 30
0.0
 10
-22.0881
 20
-7.8605
 30
0.0
 10
-22.0958
 20
-7.8605
 30
0.0
 10
-22.0958
 20
-7.8605
 30
0.0
 10
-22.0958
 20
-7.8605
 30
0.0
 10
-22.0958
 20
-7.8605
 30
0.0
 10
-22.2821
 20
-7.6626
 30
0.0
 10
-22.2821
 20
-7.6626
 30
0.0
 10
-22.2821
 20
-7.6626
 30
0.0
 10
-22.4095
 20
-7.5293
 30
0.0
 10
-22.5305
 20
-7.409
 30
0.0
 10
-22.6443
 20
-7.3023
 30
0.0
 10
-22.6443
 20
-7.3023
 30
0.0
 10
-22.7581
 20
-7.1956
 30
0.0
 10
-22.8694
 20
-7.1044
 30
0.0
 10
-22.9767
 20
-7.0287
 30
0.0
 10
-22.9767
 20
-7.0287
 30
0.0
 10
-23.0841
 20
-6.9524
 30
0.0
 10
-23.1921
 20
-6.8949
 30
0.0
 10
-23.3008
 20
-6.8541
 30
0.0
 10
-23.3008
 20
-6.8541
 30
0.0
 10
-23.4088
 20
-6.814
 30
0.0
 10
-23.5207
 20
-6.794
 30
0.0
 10
-23.6364
 20
-6.7933
 30
0.0
 10
-23.6364
 20
-6.7933
 30
0.0
 10
-23.7276
 20
-6.7933
 30
0.0
 10
-23.8169
 20
-6.8075
 30
0.0
 10
-23.9036
 20
-6.8373
 30
0.0
 10
-23.9036
 20
-6.8373
 30
0.0
 10
-23.9902
 20
-6.867
 30
0.0
 10
-24.0685
 20
-6.9136
 30
0.0
 10
-24.1383
 20
-6.9757
 30
0.0
 10
-24.1383
 20
-6.9757
 30
0.0
 10
-24.2088
 20
-7.0378
 30
0.0
 10
-24.2645
 20
-7.118
 30
0.0
 10
-24.3058
 20
-7.2157
 30
0.0
 10
-24.3058
 20
-7.2157
 30
0.0
 10
-24.3479
 20
-7.3133
 30
0.0
 10
-24.3692
 20
-7.4297
 30
0.0
 10
-24.3699
 20
-7.5656
 30
0.0
 10
-24.3699
 20
-7.5656
 30
0.0
 10
-24.3692
 20
-7.6613
 30
0.0
 10
-24.3582
 20
-7.7525
 30
0.0
 10
-24.3356
 20
-7.8391
 30
0.0
 10
-24.3356
 20
-7.8391
 30
0.0
 10
-24.313
 20
-7.9258
 30
0.0
 10
-24.2826
 20
-8.006
 30
0.0
 10
-24.2438
 20
-8.0797
 30
0.0
 10
-24.2438
 20
-8.0797
 30
0.0
 10
-24.2056
 20
-8.1528
 30
0.0
 10
-24.1623
 20
-8.2181
 30
0.0
 10
-24.1138
 20
-8.2757
 30
0.0
 10
-24.1138
 20
-8.2757
 30
0.0
 10
-24.1138
 20
-8.2757
 30
0.0
 10
-23.8732
 20
-8.167
 30
0.0
 10
-23.8732
 20
-8.167
 30
0.0
 10
-23.8732
 20
-8.167
 30
0.0
 10
-23.9061
 20
-8.1282
 30
0.0
 10
-23.9391
 20
-8.0817
 30
0.0
 10
-23.9715
 20
-8.0273
 30
0.0
 10
-23.9715
 20
-8.0273
 30
0.0
 10
-24.0045
 20
-7.973
 30
0.0
 10
-24.031
 20
-7.9129
 30
0.0
 10
-24.053
 20
-7.8462
 30
0.0
 10
-24.053
 20
-7.8462
 30
0.0
 10
-24.0743
 20
-7.7796
 30
0.0
 10
-24.0859
 20
-7.7078
 30
0.0
 10
-24.0866
 20
-7.6315
 30
0.0
 10
-24.0866
 20
-7.6315
 30
0.0
 10
-24.0859
 20
-7.5377
 30
0.0
 10
-24.0724
 20
-7.4588
 30
0.0
 10
-24.0458
 20
-7.3948
 30
0.0
 10
-24.0458
 20
-7.3948
 30
0.0
 10
-24.0187
 20
-7.3314
 30
0.0
 10
-23.9825
 20
-7.2803
 30
0.0
 10
-23.9365
 20
-7.2422
 30
0.0
 10
-23.9365
 20
-7.2422
 30
0.0
 10
-23.89
 20
-7.204
 30
0.0
 10
-23.8376
 20
-7.1762
 30
0.0
 10
-23.7787
 20
-7.1594
 30
0.0
 10
-23.7787
 20
-7.1594
 30
0.0
 10
-23.7199
 20
-7.1426
 30
0.0
 10
-23.6584
 20
-7.1342
 30
0.0
 10
-23.5938
 20
-7.1348
 30
0.0
 10
-23.5938
 20
-7.1348
 30
0.0
 10
-23.4993
 20
-7.1348
 30
0.0
 10
-23.4062
 20
-7.1536
 30
0.0
 10
-23.3137
 20
-7.1911
 30
0.0
 10
-23.3137
 20
-7.1911
 30
0.0
 10
-23.2206
 20
-7.2286
 30
0.0
 10
-23.1236
 20
-7.2855
 30
0.0
 10
-23.0214
 20
-7.3625
 30
0.0
 10
-23.0214
 20
-7.3625
 30
0.0
 10
-22.9192
 20
-7.4394
 30
0.0
 10
-22.8073
 20
-7.5371
 30
0.0
 10
-22.6857
 20
-7.6555
 30
0.0
 10
-22.6857
 20
-7.6555
 30
0.0
 10
-22.5641
 20
-7.7732
 30
0.0
 10
-22.427
 20
-7.9129
 30
0.0
 10
-22.2744
 20
-8.0739
 30
0.0
 10
-22.2744
 20
-8.0739
 30
0.0
 10
-22.2744
 20
-8.0739
 30
0.0
 10
-22.0144
 20
-8.3417
 30
0.0
 10
-22.0144
 20
-8.3417
 30
0.0
 10
-22.0144
 20
-8.3417
 30
0.0
 10
-22.0144
 20
-8.3417
 30
0.0
 10
-21.8048
 20
-8.3417
 30
0.0
 10
-21.8048
 20
-8.3417
 30
0.0
 10
-21.8048
 20
-8.3417
 30
0.0
 10
-21.8048
 20
-8.3417
 30
0.0
 10
-21.8048
 20
-6.7312
 30
0.0
 10
-21.8048
 20
-6.7312
 30
0.0
  0
SPLINE
  5
56
330
1F
100
AcDbEntity
  8
ROUND
 62
   250
100
AcDbSpline
210
0.0
220
0.0
230
1.0
 70
    11
 71
     3
 72
   124
 73
   120
 74
     0
 42
0.0000000001
 43
0.0000000001
 40
0.0
 40
0.0
 40
0.0
 40
0.0
 40
0.032258064516129
 40
0.032258064516129
 40
0.032258064516129
 40
0.032258064516129
 40
0.0645161290322581
 40
0.0645161290322581
 40
0.0645161290322581
 40
0.0645161290322581
 40
0.0967741935483871
 40
0.0967741935483871
 40
0.0967741935483871
 40
0.0967741935483871
 40
0.1290322580645161
 40
0.1290322580645161
 40
0.1290322580645161
 40
0.1290322580645161
 40
0.1612903225806452
 40
0.1612903225806452
 40
0.1612903225806452
 40
0.1612903225806452
 40
0.1935483870967742
 40
0.1935483870967742
 40
0.1935483870967742
 40
0.1935483870967742
 40
0.2258064516129032
 40
0.2258064516129032
 40
0.2258064516129032
 40
0.2258064516129032
 40
0.2580645161290323
 40
0.2580645161290323
 40
0.2580645161290323
 40
0.2580645161290323
 40
0.2903225806451613
 40
0.2903225806451613
 40
0.2903225806451613
 40
0.2903225806451613
 40
0.3225806451612903
 40
0.3225806451612903
 40
0.3225806451612903
 40
0.3225806451612903
 40
0.3548387096774194
 40
0.3548387096774194
 40
0.3548387096774194
 40
0.3548387096774194
 40
0.3870967741935484
 40
0.3870967741935484
 40
0.3870967741935484
 40
0.3870967741935484
 40
0.4193548387096774
 40
0.4193548387096774
 40
0.4193548387096774
 40
0.4193548387096774
 40
0.4516129032258064
 40
0.4516129032258064
 40
0.4516129032258064
 40
0.4516129032258064
 40
0.4838709677419355
 40
0.4838709677419355
 40
0.4838709677419355
 40
0.4838709677419355
 40
0.5161290322580645
 40
0.5161290322580645
 40
0.5161290322580645
 40
0.5161290322580645
 40
0.5483870967741935
 40
0.5483870967741935
 40
0.5483870967741935
 40
0.5483870967741935
 40
0.5806451612903226
 40
0.5806451612903226
 40
0.5806451612903226
 40
0.5806451612903226
 40
0.6129032258064516
 40
0.6129032258064516
 40
0.6129032258064516
 40
0.6129032258064516
 40
0.6451612903225806
 40
0.6451612903225806
 40
0.6451612903225806
 40
0.6451612903225806
 40
0.6774193548387096
 40
0.6774193548387096
 40
0.6774193548387096
 40
0.6774193548387096
 40
0.7096774193548387
 40
0.7096774193548387
 40
0.7096774193548387
 40
0.7096774193548387
 40
0.7419354838709677
 40
0.7419354838709677
 40
0.7419354838709677
 40
0.7419354838709677
 40
0.7741935483870968
 40
0.7741935483870968
 40
0.7741935483870968
 40
0.7741935483870968
 40
0.8064516129032258
 40
0.8064516129032258
 40
0.8064516129032258
 40
0.8064516129032258
 40
0.8387096774193549
 40
0.8387096774193549
 40
0.8387096774193549
 40
0.8387096774193549
 40
0.8709677419354839
 40
0.8709677419354839
 40
0.8709677419354839
 40
0.8709677419354839
 40
0.9032258064516129
 40
0.9032258064516129
 40
0.9032258064516129
 40
0.9032258064516129
 40
0.9354838709677419
 40
0.9354838709677419
 40
0.9354838709677419
 40
0.9354838709677419
 40
1.0
 40
1.0
 40
1.0
 40
1.0
 10
-21.8048
 20
-4.7405
 30
0.0
 10
-21.8048
 20
-4.7405
 30
0.0
 10
-22.0881
 20
-4.7405
 30
0.0
 10
-22.0881
 20
-4.7405
 30
0.0
 10
-22.0881
 20
-4.7405
 30
0.0
 10
-22.0881
 20
-4.7405
 30
0.0
 10
-22.0881
 20
-5.8698
 30
0.0
 10
-22.0881
 20
-5.8698
 30
0.0
 10
-22.0881
 20
-5.8698
 30
0.0
 10
-22.0881
 20
-5.8698
 30
0.0
 10
-22.0958
 20
-5.8698
 30
0.0
 10
-22.0958
 20
-5.8698
 30
0.0
 10
-22.0958
 20
-5.8698
 30
0.0
 10
-22.0958
 20
-5.8698
 30
0.0
 10
-22.2821
 20
-5.6719
 30
0.0
 10
-22.2821
 20
-5.6719
 30
0.0
 10
-22.2821
 20
-5.6719
 30
0.0
 10
-22.4095
 20
-5.5386
 30
0.0
 10
-22.5305
 20
-5.4183
 30
0.0
 10
-22.6443
 20
-5.3116
 30
0.0
 10
-22.6443
 20
-5.3116
 30
0.0
 10
-22.7581
 20
-5.2049
 30
0.0
 10
-22.8694
 20
-5.1137
 30
0.0
 10
-22.9767
 20
-5.038
 30
0.0
 10
-22.9767
 20
-5.038
 30
0.0
 10
-23.0841
 20
-4.9617
 30
0.0
 10
-23.1921
 20
-4.9042
 30
0.0
 10
-23.3008
 20
-4.8634
 30
0.0
 10
-23.3008
 20
-4.8634
 30
0.0
 10
-23.4088
 20
-4.8233
 30
0.0
 10
-23.5207
 20
-4.8033
 30
0.0
 10
-23.6364
 20
-4.8026
 30
0.0
 10
-23.6364
 20
-4.8026
 30
0.0
 10
-23.7276
 20
-4.8026
 30
0.0
 10
-23.8169
 20
-4.8168
 30
0.0
 10
-23.9036
 20
-4.8466
 30
0.0
 10
-23.9036
 20
-4.8466
 30
0.0
 10
-23.9902
 20
-4.8763
 30
0.0
 10
-24.0685
 20
-4.9229
 30
0.0
 10
-24.1383
 20
-4.985
 30
0.0
 10
-24.1383
 20
-4.985
 30
0.0
 10
-24.2088
 20
-5.0471
 30
0.0
 10
-24.2645
 20
-5.1273
 30
0.0
 10
-24.3058
 20
-5.225
 30
0.0
 10
-24.3058
 20
-5.225
 30
0.0
 10
-24.3479
 20
-5.3226
 30
0.0
 10
-24.3692
 20
-5.439
 30
0.0
 10
-24.3699
 20
-5.5749
 30
0.0
 10
-24.3699
 20
-5.5749
 30
0.0
 10
-24.3692
 20
-5.6706
 30
0.0
 10
-24.3582
 20
-5.7618
 30
0.0
 10
-24.3356
 20
-5.8484
 30
0.0
 10
-24.3356
 20
-5.8484
 30
0.0
 10
-24.313
 20
-5.9351
 30
0.0
 10
-24.2826
 20
-6.0153
 30
0.0
 10
-24.2438
 20
-6.089
 30
0.0
 10
-24.2438
 20
-6.089
 30
0.0
 10
-24.2056
 20
-6.1621
 30
0.0
 10
-24.1623
 20
-6.2274
 30
0.0
 10
-24.1138
 20
-6.285
 30
0.0
 10
-24.1138
 20
-6.285
 30
0.0
 10
-24.1138
 20
-6.285
 30
0.0
 10
-23.8732
 20
-6.1763
 30
0.0
 10
-23.8732
 20
-6.1763
 30
0.0
 10
-23.8732
 20
-6.1763
 30
0.0
 10
-23.9061
 20
-6.1375
 30
0.0
 10
-23.9391
 20
-6.091
 30
0.0
 10
-23.9715
 20
-6.0366
 30
0.0
 10
-23.9715
 20
-6.0366
 30
0.0
 10
-24.0045
 20
-5.9823
 30
0.0
 10
-24.031
 20
-5.9222
 30
0.0
 10
-24.053
 20
-5.8555
 30
0.0
 10
-24.053
 20
-5.8555
 30
0.0
 10
-24.0743
 20
-5.7889
 30
0.0
 10
-24.0859
 20
-5.7171
 30
0.0
 10
-24.0866
 20
-5.6408
 30
0.0
 10
-24.0866
 20
-5.6408
 30
0.0
 10
-24.0859
 20
-5.547
 30
0.0
 10
-24.0724
 20
-5.4681
 30
0.0
 10
-24.0458
 20
-5.4041
 30
0.0
 10
-24.0458
 20
-5.4041
 30
0.0
 10
-24.0187
 20
-5.3407
 30
0.0
 10
-23.9825
 20
-5.2896
 30
0.0
 10
-23.9365
 20
-5.2515
 30
0.0
 10
-23.9365
 20
-5.2515
 30
0.0
 10
-23.89
 20
-5.2133
 30
0.0
 10
-23.8376
 20
-5.1855
 30
0.0
 10
-23.7787
 20
-5.1687
 30
0.0
 10
-23.7787
 20
-5.1687
 30
0.0
 10
-23.7199
 20
-5.1519
 30
0.0
 10
-23.6584
 20
-5.1435
 30
0.0
 10
-23.5938
 20
-5.1441
 30
0.0
 10
-23.5938
 20
-5.1441
 30
0.0
 10
-23.4993
 20
-5.1441
 30
0.0
 10
-23.4062
 20
-5.1629
 30
0.0
 10
-23.3137
 20
-5.2004
 30
0.0
 10
-23.3137
 20
-5.2004
 30
0.0
 10
-23.2206
 20
-5.2379
 30
0.0
 10
-23.1236
 20
-5.2948
 30
0.0
 10
-23.0214
 20
-5.3718
 30
0.0
 10
-23.0214
 20
-5.3718
 30
0.0
 10
-22.9192
 20
-5.4487
 30
0.0
 10
-22.8073
 20
-5.5464
 30
0.0
 10
-22.6857
 20
-5.6648
 30
0.0
 10
-22.6857
 20
-5.6648
 30
0.0
 10
-22.5641
 20
-5.7825
 30
0.0
 10
-22.427
 20
-5.9222
 30
0.0
 10
-22.2744
 20
-6.0832
 30
0.0
 10
-22.2744
 20
-6.0832
 30
0.0
 10
-22.2744
 20
-6.0832
 30
0.0
 10
-22.0144
 20
-6.351
 30
0.0
 10
-22.0144
 20
-6.351
 30
0.0
 10
-22.0144
 20
-6.351
 30
0.0
 10
-22.0144
 20
-6.351
 30
0.0
 10
-21.8048
 20
-6.351
 30
0.0
 10
-21.8048
 20
-6.351
 30
0.0
 10
-21.8048
 20
-6.351
 30
0.0
 10
-21.8048
 20
-6.351
 30
0.0
 10
-21.8048
 20
-4.7405
 30
0.0
 10
-21.8048
 20
-4.7405
 30
0.0
  0
SPLINE
  5
57
330
1F
100
AcDbEntity
  8
ROUND
 62
   250
100
AcDbSpline
210
0.0
220
0.0
230
1.0
 70
    11
 71
     3
 72
   132
 73
   128
 74
     0
 42
0.0000000001
 43
0.0000000001
 40
0.0
 40
0.0
 40
0.0
 40
0.0
 40
0.0303030303030303
 40
0.0303030303030303
 40
0.0303030303030303
 40
0.0303030303030303
 40
0.0606060606060606
 40
0.0606060606060606
 40
0.0606060606060606
 40
0.0606060606060606
 40
0.0909090909090909
 40
0.0909090909090909
 40
0.0909090909090909
 40
0.0909090909090909
 40
0.1212121212121212
 40
0.1212121212121212
 40
0.1212121212121212
 40
0.1212121212121212
 40
0.1515151515151515
 40
0.1515151515151515
 40
0.1515151515151515
 40
0.1515151515151515
 40
0.1818181818181818
 40
0.1818181818181818
 40
0.1818181818181818
 40
0.1818181818181818
 40
0.2121212121212121
 40
0.2121212121212121
 40
0.2121212121212121
 40
0.2121212121212121
 40
0.2424242424242424
 40
0.2424242424242424
 40
0.2424242424242424
 40
0.2424242424242424
 40
0.2727272727272727
 40
0.2727272727272727
 40
0.2727272727272727
 40
0.2727272727272727
 40
0.303030303030303
 40
0.303030303030303
 40
0.303030303030303
 40
0.303030303030303
 40
0.3333333333333333
 40
0.3333333333333333
 40
0.3333333333333333
 40
0.3333333333333333
 40
0.3636363636363636
 40
0.3636363636363636
 40
0.3636363636363636
 40
0.3636363636363636
 40
0.3939393939393939
 40
0.3939393939393939
 40
0.3939393939393939
 40
0.3939393939393939
 40
0.4242424242424243
 40
0.4242424242424243
 40
0.4242424242424243
 40
0.4242424242424243
 40
0.4545454545454545
 40
0.4545454545454545
 40
0.4545454545454545
 40
0.4545454545454545
 40
0.4848484848484849
 40
0.4848484848484849
 40
0.4848484848484849
 40
0.4848484848484849
 40
0.5151515151515151
 40
0.5151515151515151
 40
0.5151515151515151
 40
0.5151515151515151
 40
0.5454545454545454
 40
0.5454545454545454
 40
0.5454545454545454
 40
0.5454545454545454
 40
0.5757575757575758
 40
0.5757575757575758
 40
0.5757575757575758
 40
0.5757575757575758
 40
0.6060606060606061
 40
0.6060606060606061
 40
0.6060606060606061
 40
0.6060606060606061
 40
0.6363636363636364
 40
0.6363636363636364
 40
0.6363636363636364
 40
0.6363636363636364
 40
0.6666666666666666
 40
0.6666666666666666
 40
0.6666666666666666
 40
0.6666666666666666
 40
0.696969696969697
 40
0.696969696969697
 40
0.696969696969697
 40
0.696969696969697
 40
0.7272727272727273
 40
0.7272727272727273
 40
0.7272727272727273
 40
0.7272727272727273
 40
0.7575757575757576
 40
0.7575757575757576
 40
0.7575757575757576
 40
0.7575757575757576
 40
0.7878787878787878
 40
0.7878787878787878
 40
0.7878787878787878
 40
0.7878787878787878
 40
0.8181818181818182
 40
0.8181818181818182
 40
0.8181818181818182
 40
0.8181818181818182
 40
0.8484848484848485
 40
0.8484848484848485
 40
0.8484848484848485
 40
0.8484848484848485
 40
0.8787878787878788
 40
0.8787878787878788
 40
0.8787878787878788
 40
0.8787878787878788
 40
0.9090909090909091
 40
0.9090909090909091
 40
0.9090909090909091
 40
0.9090909090909091
 40
0.9393939393939394
 40
0.9393939393939394
 40
0.9393939393939394
 40
0.9393939393939394
 40
1.0
 40
1.0
 40
1.0
 40
1.0
 10
-24.3272
 20
-2.8546
 30
0.0
 10
-24.3272
 20
-2.8546
 30
0.0
 10
-24.3272
 20
-4.0615
 30
0.0
 10
-24.3272
 20
-4.0615
 30
0.0
 10
-24.3272
 20
-4.0615
 30
0.0
 10
-24.3272
 20
-4.0615
 30
0.0
 10
-23.1164
 20
-4.2245
 30
0.0
 10
-23.1164
 20
-4.2245
 30
0.0
 10
-23.1164
 20
-4.2245
 30
0.0
 10
-23.1229
 20
-4.1779
 30
0.0
 10
-23.1281
 20
-4.1261
 30
0.0
 10
-23.1326
 20
-4.0679
 30
0.0
 10
-23.1326
 20
-4.0679
 30
0.0
 10
-23.1371
 20
-4.0104
 30
0.0
 10
-23.1397
 20
-3.9444
 30
0.0
 10
-23.1397
 20
-3.8713
 30
0.0
 10
-23.1397
 20
-3.8713
 30
0.0
 10
-23.1391
 20
-3.7045
 30
0.0
 10
-23.1151
 20
-3.568
 30
0.0
 10
-23.0686
 20
-3.4619
 30
0.0
 10
-23.0686
 20
-3.4619
 30
0.0
 10
-23.0214
 20
-3.3552
 30
0.0
 10
-22.9567
 20
-3.2763
 30
0.0
 10
-22.8739
 20
-3.2252
 30
0.0
 10
-22.8739
 20
-3.2252
 30
0.0
 10
-22.7905
 20
-3.1741
 30
0.0
 10
-22.6941
 20
-3.1489
 30
0.0
 10
-22.5848
 20
-3.1495
 30
0.0
 10
-22.5848
 20
-3.1495
 30
0.0
 10
-22.5001
 20
-3.1489
 30
0.0
 10
-22.4244
 20
-3.1644
 30
0.0
 10
-22.3571
 20
-3.1961
 30
0.0
 10
-22.3571
 20
-3.1961
 30
0.0
 10
-22.2892
 20
-3.2271
 30
0.0
 10
-22.2323
 20
-3.2705
 30
0.0
 10
-22.1845
 20
-3.3254
 30
0.0
 10
-22.1845
 20
-3.3254
 30
0.0
 10
-22.1372
 20
-3.3804
 30
0.0
 10
-22.101
 20
-3.4438
 30
0.0
 10
-22.0758
 20
-3.5156
 30
0.0
 10
-22.0758
 20
-3.5156
 30
0.0
 10
-22.0506
 20
-3.5874
 30
0.0
 10
-22.0376
 20
-3.6631
 30
0.0
 10
-22.0376
 20
-3.7433
 30
0.0
 10
-22.0376
 20
-3.7433
 30
0.0
 10
-22.0383
 20
-3.8215
 30
0.0
 10
-22.0454
 20
-3.8952
 30
0.0
 10
-22.0603
 20
-3.9645
 30
0.0
 10
-22.0603
 20
-3.9645
 30
0.0
 10
-22.0745
 20
-4.0337
 30
0.0
 10
-22.092
 20
-4.0957
 30
0.0
 10
-22.1133
 20
-4.1507
 30
0.0
 10
-22.1133
 20
-4.1507
 30
0.0
 10
-22.1347
 20
-4.2057
 30
0.0
 10
-22.156
 20
-4.251
 30
0.0
 10
-22.1773
 20
-4.2865
 30
0.0
 10
-22.1773
 20
-4.2865
 30
0.0
 10
-22.1773
 20
-4.2865
 30
0.0
 10
-21.9173
 20
-4.3719
 30
0.0
 10
-21.9173
 20
-4.3719
 30
0.0
 10
-21.9173
 20
-4.3719
 30
0.0
 10
-21.8908
 20
-4.3299
 30
0.0
 10
-21.8662
 20
-4.2775
 30
0.0
 10
-21.8423
 20
-4.2148
 30
0.0
 10
-21.8423
 20
-4.2148
 30
0.0
 10
-21.819
 20
-4.152
 30
0.0
 10
-21.8003
 20
-4.0809
 30
0.0
 10
-21.7854
 20
-4.0013
 30
0.0
 10
-21.7854
 20
-4.0013
 30
0.0
 10
-21.7705
 20
-3.9211
 30
0.0
 10
-21.7628
 20
-3.8351
 30
0.0
 10
-21.7621
 20
-3.7433
 30
0.0
 10
-21.7621
 20
-3.7433
 30
0.0
 10
-21.7628
 20
-3.6055
 30
0.0
 10
-21.7848
 20
-3.48
 30
0.0
 10
-21.8274
 20
-3.3655
 30
0.0
 10
-21.8274
 20
-3.3655
 30
0.0
 10
-21.8701
 20
-3.2511
 30
0.0
 10
-21.9303
 20
-3.1521
 30
0.0
 10
-22.0079
 20
-3.0687
 30
0.0
 10
-22.0079
 20
-3.0687
 30
0.0
 10
-22.0855
 20
-2.9846
 30
0.0
 10
-22.1767
 20
-2.9199
 30
0.0
 10
-22.2808
 20
-2.874
 30
0.0
 10
-22.2808
 20
-2.874
 30
0.0
 10
-22.3856
 20
-2.8281
 30
0.0
 10
-22.5001
 20
-2.8048
 30
0.0
 10
-22.6236
 20
-2.8042
 30
0.0
 10
-22.6236
 20
-2.8042
 30
0.0
 10
-22.7284
 20
-2.8048
 30
0.0
 10
-22.8228
 20
-2.8216
 30
0.0
 10
-22.9062
 20
-2.854
 30
0.0
 10
-22.9062
 20
-2.854
 30
0.0
 10
-22.9897
 20
-2.8863
 30
0.0
 10
-23.0615
 20
-2.929
 30
0.0
 10
-23.1223
 20
-2.9833
 30
0.0
 10
-23.1223
 20
-2.9833
 30
0.0
 10
-23.1831
 20
-3.0376
 30
0.0
 10
-23.2316
 20
-3.0984
 30
0.0
 10
-23.2678
 20
-3.165
 30
0.0
 10
-23.2678
 20
-3.165
 30
0.0
 10
-23.3156
 20
-3.2433
 30
0.0
 10
-23.3506
 20
-3.328
 30
0.0
 10
-23.3719
 20
-3.4205
 30
0.0
 10
-23.3719
 20
-3.4205
 30
0.0
 10
-23.3933
 20
-3.513
 30
0.0
 10
-23.4043
 20
-3.6087
 30
0.0
 10
-23.4036
 20
-3.7083
 30
0.0
 10
-23.4036
 20
-3.7083
 30
0.0
 10
-23.4036
 20
-3.7536
 30
0.0
 10
-23.403
 20
-3.7924
 30
0.0
 10
-23.401
 20
-3.8241
 30
0.0
 10
-23.401
 20
-3.8241
 30
0.0
 10
-23.3991
 20
-3.8558
 30
0.0
 10
-23.3958
 20
-3.8855
 30
0.0
 10
-23.392
 20
-3.914
 30
0.0
 10
-23.392
 20
-3.914
 30
0.0
 10
-23.392
 20
-3.914
 30
0.0
 10
-24.04
 20
-3.817
 30
0.0
 10
-24.04
 20
-3.817
 30
0.0
 10
-24.04
 20
-3.817
 30
0.0
 10
-24.04
 20
-3.817
 30
0.0
 10
-24.04
 20
-2.8546
 30
0.0
 10
-24.04
 20
-2.8546
 30
0.0
 10
-24.04
 20
-2.8546
 30
0.0
 10
-24.04
 20
-2.8546
 30
0.0
 10
-24.3272
 20
-2.8546
 30
0.0
 10
-24.3272
 20
-2.8546
 30
0.0
  0
SPLINE
  5
58
330
1F
100
AcDbEntity
  8
ROUND
 62
   250
370
    15
100
AcDbSpline
210
0.0
220
0.0
230
1.0
 70
    24
 71
     3
 72
     8
 73
     4
 74
     0
 42
0.0000000001
 43
0.0000000001
 40
0.0
 40
0.0
 40
0.0
 40
0.0
 40
1.0
 40
1.0
 40
1.0
 40
1.0
 10
-21.2696
 20
14.2601
 30
0.0
 10
-21.2696
 20
14.2601
 30
0.0
 10
-21.2696
 20
-21.8424
 30
0.0
 10
-21.2696
 20
-21.8424
 30
0.0
  0
SPLINE
  5
59
330
1F
100
AcDbEntity
  8
ROUND
 62
   250
100
AcDbSpline
210
0.0
220
0.0
230
1.0
 70
    11
 71
     3
 72
   124
 73
   120
 74
     0
 42
0.0000000001
 43
0.0000000001
 40
0.0
 40
0.0
 40
0.0
 40
0.0
 40
0.032258064516129
 40
0.032258064516129
 40
0.032258064516129
 40
0.032258064516129
 40
0.0645161290322581
 40
0.0645161290322581
 40
0.0645161290322581
 40
0.0645161290322581
 40
0.0967741935483871
 40
0.0967741935483871
 40
0.0967741935483871
 40
0.0967741935483871
 40
0.1290322580645161
 40
0.1290322580645161
 40
0.1290322580645161
 40
0.1290322580645161
 40
0.1612903225806452
 40
0.1612903225806452
 40
0.1612903225806452
 40
0.1612903225806452
 40
0.1935483870967742
 40
0.1935483870967742
 40
0.1935483870967742
 40
0.1935483870967742
 40
0.2258064516129032
 40
0.2258064516129032
 40
0.2258064516129032
 40
0.2258064516129032
 40
0.2580645161290323
 40
0.2580645161290323
 40
0.2580645161290323
 40
0.2580645161290323
 40
0.2903225806451613
 40
0.2903225806451613
 40
0.2903225806451613
 40
0.2903225806451613
 40
0.3225806451612903
 40
0.3225806451612903
 40
0.3225806451612903
 40
0.3225806451612903
 40
0.3548387096774194
 40
0.3548387096774194
 40
0.3548387096774194
 40
0.3548387096774194
 40
0.3870967741935484
 40
0.3870967741935484
 40
0.3870967741935484
 40
0.3870967741935484
 40
0.4193548387096774
 40
0.4193548387096774
 40
0.4193548387096774
 40
0.4193548387096774
 40
0.4516129032258064
 40
0.4516129032258064
 40
0.4516129032258064
 40
0.4516129032258064
 40
0.4838709677419355
 40
0.4838709677419355
 40
0.4838709677419355
 40
0.4838709677419355
 40
0.5161290322580645
 40
0.5161290322580645
 40
0.5161290322580645
 40
0.5161290322580645
 40
0.5483870967741935
 40
0.5483870967741935
 40
0.5483870967741935
 40
0.5483870967741935
 40
0.5806451612903226
 40
0.5806451612903226
 40
0.5806451612903226
 40
0.5806451612903226
 40
0.6129032258064516
 40
0.6129032258064516
 40
0.6129032258064516
 40
0.6129032258064516
 40
0.6451612903225806
 40
0.6451612903225806
 40
0.6451612903225806
 40
0.6451612903225806
 40
0.6774193548387096
 40
0.6774193548387096
 40
0.6774193548387096
 40
0.6774193548387096
 40
0.7096774193548387
 40
0.7096774193548387
 40
0.7096774193548387
 40
0.7096774193548387
 40
0.7419354838709677
 40
0.7419354838709677
 40
0.7419354838709677
 40
0.7419354838709677
 40
0.7741935483870968
 40
0.7741935483870968
 40
0.7741935483870968
 40
0.7741935483870968
 40
0.8064516129032258
 40
0.8064516129032258
 40
0.8064516129032258
 40
0.8064516129032258
 40
0.8387096774193549
 40
0.8387096774193549
 40
0.8387096774193549
 40
0.8387096774193549
 40
0.8709677419354839
 40
0.8709677419354839
 40
0.8709677419354839
 40
0.8709677419354839
 40
0.9032258064516129
 40
0.9032258064516129
 40
0.9032258064516129
 40
0.9032258064516129
 40
0.9354838709677419
 40
0.9354838709677419
 40
0.9354838709677419
 40
0.9354838709677419
 40
1.0
 40
1.0
 40
1.0
 40
1.0
 10
5.085
 20
-0.7255
 30
0.0
 10
5.1206
 20
-0.7056
 30
0.0
 10
5.1607
 20
-0.6806
 30
0.0
 10
5.2039
 20
-0.6498
 30
0.0
 10
5.2039
 20
-0.6498
 30
0.0
 10
5.2476
 20
-0.6195
 30
0.0
 10
5.2939
 20
-0.5838
 30
0.0
 10
5.3415
 20
-0.5427
 30
0.0
 10
5.3415
 20
-0.5427
 30
0.0
 10
5.4134
 20
-0.4857
 30
0.0
 10
5.4785
 20
-0.4215
 30
0.0
 10
5.5375
 20
-0.3511
 30
0.0
 10
5.5375
 20
-0.3511
 30
0.0
 10
5.5962
 20
-0.2802
 30
0.0
 10
5.6469
 20
-0.2037
 30
0.0
 10
5.6892
 20
-0.1224
 30
0.0
 10
5.6892
 20
-0.1224
 30
0.0
 10
5.7315
 20
-0.0411
 30
0.0
 10
5.7633
 20
0.0435
 30
0.0
 10
5.7852
 20
0.1318
 30
0.0
 10
5.7852
 20
0.1318
 30
0.0
 10
5.8135
 20
0.244
 30
0.0
 10
5.8257
 20
0.3652
 30
0.0
 10
5.8209
 20
0.4963
 30
0.0
 10
5.8209
 20
0.4963
 30
0.0
 10
5.8164
 20
0.6269
 30
0.0
 10
5.7907
 20
0.7648
 30
0.0
 10
5.7442
 20
0.9103
 30
0.0
 10
5.7442
 20
0.9103
 30
0.0
 10
5.6976
 20
1.0559
 30
0.0
 10
5.6265
 20
1.2066
 30
0.0
 10
5.5298
 20
1.3628
 30
0.0
 10
5.5298
 20
1.3628
 30
0.0
 10
5.4432
 20
1.5016
 30
0.0
 10
5.349
 20
1.616
 30
0.0
 10
5.2472
 20
1.7073
 30
0.0
 10
5.2472
 20
1.7073
 30
0.0
 10
5.1454
 20
1.7984
 30
0.0
 10
5.039
 20
1.8639
 30
0.0
 10
4.9282
 20
1.9046
 30
0.0
 10
4.9282
 20
1.9046
 30
0.0
 10
4.8175
 20
1.9453
 30
0.0
 10
4.7057
 20
1.9595
 30
0.0
 10
4.5921
 20
1.9474
 30
0.0
 10
4.5921
 20
1.9474
 30
0.0
 10
4.4785
 20
1.9352
 30
0.0
 10
4.3673
 20
1.8948
 30
0.0
 10
4.2571
 20
1.8269
 30
0.0
 10
4.2571
 20
1.8269
 30
0.0
 10
4.1477
 20
1.7579
 30
0.0
 10
4.0608
 20
1.6748
 30
0.0
 10
3.9967
 20
1.5784
 30
0.0
 10
3.9967
 20
1.5784
 30
0.0
 10
3.9323
 20
1.4826
 30
0.0
 10
3.8903
 20
1.3786
 30
0.0
 10
3.87
 20
1.2683
 30
0.0
 10
3.87
 20
1.2683
 30
0.0
 10
3.8493
 20
1.1572
 30
0.0
 10
3.8502
 20
1.0457
 30
0.0
 10
3.8724
 20
0.9331
 30
0.0
 10
3.8724
 20
0.9331
 30
0.0
 10
3.8946
 20
0.8204
 30
0.0
 10
3.9374
 20
0.7129
 30
0.0
 10
4.0004
 20
0.6104
 30
0.0
 10
4.0004
 20
0.6104
 30
0.0
 10
4.0582
 20
0.5191
 30
0.0
 10
4.1263
 20
0.4428
 30
0.0
 10
4.2047
 20
0.3818
 30
0.0
 10
4.2047
 20
0.3818
 30
0.0
 10
4.284
 20
0.3207
 30
0.0
 10
4.3694
 20
0.2779
 30
0.0
 10
4.4616
 20
0.2523
 30
0.0
 10
4.4616
 20
0.2523
 30
0.0
 10
4.5534
 20
0.2273
 30
0.0
 10
4.6489
 20
0.222
 30
0.0
 10
4.7466
 20
0.2365
 30
0.0
 10
4.7466
 20
0.2365
 30
0.0
 10
4.8449
 20
0.2513
 30
0.0
 10
4.9416
 20
0.288
 30
0.0
 10
5.038
 20
0.3473
 30
0.0
 10
5.038
 20
0.3473
 30
0.0
 10
5.1463
 20
0.4157
 30
0.0
 10
5.2311
 20
0.4959
 30
0.0
 10
5.2919
 20
0.588
 30
0.0
 10
5.2919
 20
0.588
 30
0.0
 10
5.3521
 20
0.6796
 30
0.0
 10
5.3897
 20
0.7808
 30
0.0
 10
5.4034
 20
0.8907
 30
0.0
 10
5.4034
 20
0.8907
 30
0.0
 10
5.4034
 20
0.8907
 30
0.0
 10
5.4133
 20
0.8969
 30
0.0
 10
5.4133
 20
0.8969
 30
0.0
 10
5.4133
 20
0.8969
 30
0.0
 10
5.471
 20
0.7591
 30
0.0
 10
5.5049
 20
0.6278
 30
0.0
 10
5.5151
 20
0.5039
 30
0.0
 10
5.5151
 20
0.5039
 30
0.0
 10
5.5251
 20
0.3789
 30
0.0
 10
5.5146
 20
0.2626
 30
0.0
 10
5.4833
 20
0.1539
 30
0.0
 10
5.4833
 20
0.1539
 30
0.0
 10
5.4588
 20
0.0564
 30
0.0
 10
5.4189
 20
-0.0326
 30
0.0
 10
5.3638
 20
-0.1142
 30
0.0
 10
5.3638
 20
-0.1142
 30
0.0
 10
5.3088
 20
-0.1958
 30
0.0
 10
5.2422
 20
-0.2685
 30
0.0
 10
5.1649
 20
-0.3328
 30
0.0
 10
5.1649
 20
-0.3328
 30
0.0
 10
5.1191
 20
-0.3682
 30
0.0
 10
5.0776
 20
-0.3994
 30
0.0
 10
5.041
 20
-0.4252
 30
0.0
 10
5.041
 20
-0.4252
 30
0.0
 10
5.0046
 20
-0.451
 30
0.0
 10
4.97
 20
-0.4726
 30
0.0
 10
4.9372
 20
-0.4884
 30
0.0
 10
4.9372
 20
-0.4884
 30
0.0
 10
4.9372
 20
-0.4884
 30
0.0
 10
5.085
 20
-0.7255
 30
0.0
 10
5.085
 20
-0.7255
 30
0.0
  0
SPLINE
  5
5A
330
1F
100
AcDbEntity
  8
ROUND
 62
   250
100
AcDbSpline
210
0.0
220
0.0
230
1.0
 70
    11
 71
     3
 72
    64
 73
    60
 74
     0
 42
0.0000000001
 43
0.0000000001
 40
0.0
 40
0.0
 40
0.0
 40
0.0
 40
0.0625
 40
0.0625
 40
0.0625
 40
0.0625
 40
0.125
 40
0.125
 40
0.125
 40
0.125
 40
0.1875
 40
0.1875
 40
0.1875
 40
0.1875
 40
0.25
 40
0.25
 40
0.25
 40
0.25
 40
0.3125
 40
0.3125
 40
0.3125
 40
0.3125
 40
0.375
 40
0.375
 40
0.375
 40
0.375
 40
0.4375
 40
0.4375
 40
0.4375
 40
0.4375
 40
0.5
 40
0.5
 40
0.5
 40
0.5
 40
0.5625
 40
0.5625
 40
0.5625
 40
0.5625
 40
0.625
 40
0.625
 40
0.625
 40
0.625
 40
0.6875
 40
0.6875
 40
0.6875
 40
0.6875
 40
0.75
 40
0.75
 40
0.75
 40
0.75
 40
0.8125
 40
0.8125
 40
0.8125
 40
0.8125
 40
0.875
 40
0.875
 40
0.875
 40
0.875
 40
1.0
 40
1.0
 40
1.0
 40
1.0
 10
4.3684
 20
1.5899
 30
0.0
 10
4.4451
 20
1.6369
 30
0.0
 10
4.5217
 20
1.6618
 30
0.0
 10
4.5973
 20
1.664
 30
0.0
 10
4.5973
 20
1.664
 30
0.0
 10
4.673
 20
1.6662
 30
0.0
 10
4.7475
 20
1.6494
 30
0.0
 10
4.8193
 20
1.6135
 30
0.0
 10
4.8193
 20
1.6135
 30
0.0
 10
4.8919
 20
1.5778
 30
0.0
 10
4.961
 20
1.5257
 30
0.0
 10
5.0272
 20
1.4587
 30
0.0
 10
5.0272
 20
1.4587
 30
0.0
 10
5.0937
 20
1.3912
 30
0.0
 10
5.155
 20
1.3113
 30
0.0
 10
5.2121
 20
1.2196
 30
0.0
 10
5.2121
 20
1.2196
 30
0.0
 10
5.2272
 20
1.1954
 30
0.0
 10
5.238
 20
1.1732
 30
0.0
 10
5.2433
 20
1.1536
 30
0.0
 10
5.2433
 20
1.1536
 30
0.0
 10
5.2495
 20
1.1339
 30
0.0
 10
5.2528
 20
1.1139
 30
0.0
 10
5.2535
 20
1.0945
 30
0.0
 10
5.2535
 20
1.0945
 30
0.0
 10
5.2553
 20
1.0354
 30
0.0
 10
5.2457
 20
0.9761
 30
0.0
 10
5.2255
 20
0.917
 30
0.0
 10
5.2255
 20
0.917
 30
0.0
 10
5.2057
 20
0.8581
 30
0.0
 10
5.1745
 20
0.8021
 30
0.0
 10
5.132
 20
0.749
 30
0.0
 10
5.132
 20
0.749
 30
0.0
 10
5.0897
 20
0.6958
 30
0.0
 10
5.036
 20
0.6487
 30
0.0
 10
4.9717
 20
0.6077
 30
0.0
 10
4.9717
 20
0.6077
 30
0.0
 10
4.8873
 20
0.5559
 30
0.0
 10
4.8026
 20
0.5306
 30
0.0
 10
4.7171
 20
0.5306
 30
0.0
 10
4.7171
 20
0.5306
 30
0.0
 10
4.6317
 20
0.5307
 30
0.0
 10
4.5511
 20
0.5536
 30
0.0
 10
4.4752
 20
0.6008
 30
0.0
 10
4.4752
 20
0.6008
 30
0.0
 10
4.3993
 20
0.648
 30
0.0
 10
4.3331
 20
0.7164
 30
0.0
 10
4.2766
 20
0.8055
 30
0.0
 10
4.2766
 20
0.8055
 30
0.0
 10
4.2129
 20
0.9091
 30
0.0
 10
4.1745
 20
1.0109
 30
0.0
 10
4.1616
 20
1.111
 30
0.0
 10
4.1616
 20
1.111
 30
0.0
 10
4.1484
 20
1.2118
 30
0.0
 10
4.1588
 20
1.3036
 30
0.0
 10
4.1937
 20
1.3872
 30
0.0
 10
4.1937
 20
1.3872
 30
0.0
 10
4.2285
 20
1.4706
 30
0.0
 10
4.287
 20
1.5383
 30
0.0
 10
4.3684
 20
1.5899
 30
0.0
  0
SPLINE
  5
5B
330
1F
100
AcDbEntity
  8
ROUND
 62
   250
100
AcDbSpline
210
0.0
220
0.0
230
1.0
 70
    11
 71
     3
 72
    56
 73
    52
 74
     0
 42
0.0000000001
 43
0.0000000001
 40
0.0
 40
0.0
 40
0.0
 40
0.0
 40
0.0714285714285714
 40
0.0714285714285714
 40
0.0714285714285714
 40
0.0714285714285714
 40
0.1428571428571428
 40
0.1428571428571428
 40
0.1428571428571428
 40
0.1428571428571428
 40
0.2142857142857143
 40
0.2142857142857143
 40
0.2142857142857143
 40
0.2142857142857143
 40
0.2857142857142857
 40
0.2857142857142857
 40
0.2857142857142857
 40
0.2857142857142857
 40
0.3571428571428572
 40
0.3571428571428572
 40
0.3571428571428572
 40
0.3571428571428572
 40
0.4285714285714285
 40
0.4285714285714285
 40
0.4285714285714285
 40
0.4285714285714285
 40
0.5
 40
0.5
 40
0.5
 40
0.5
 40
0.5714285714285714
 40
0.5714285714285714
 40
0.5714285714285714
 40
0.5714285714285714
 40
0.6428571428571429
 40
0.6428571428571429
 40
0.6428571428571429
 40
0.6428571428571429
 40
0.7142857142857143
 40
0.7142857142857143
 40
0.7142857142857143
 40
0.7142857142857143
 40
0.7857142857142857
 40
0.7857142857142857
 40
0.7857142857142857
 40
0.7857142857142857
 40
0.8571428571428571
 40
0.8571428571428571
 40
0.8571428571428571
 40
0.8571428571428571
 40
1.0
 40
1.0
 40
1.0
 40
1.0
 10
5.9463
 20
2.8802
 30
0.0
 10
5.8371
 20
2.8121
 30
0.0
 10
5.7523
 20
2.7257
 30
0.0
 10
5.6913
 20
2.6206
 30
0.0
 10
5.6913
 20
2.6206
 30
0.0
 10
5.6304
 20
2.5155
 30
0.0
 10
5.596
 20
2.3958
 30
0.0
 10
5.588
 20
2.2596
 30
0.0
 10
5.588
 20
2.2596
 30
0.0
 10
5.5798
 20
2.1235
 30
0.0
 10
5.6008
 20
1.975
 30
0.0
 10
5.6502
 20
1.8137
 30
0.0
 10
5.6502
 20
1.8137
 30
0.0
 10
5.7002
 20
1.6528
 30
0.0
 10
5.7808
 20
1.482
 30
0.0
 10
5.8929
 20
1.3011
 30
0.0
 10
5.8929
 20
1.3011
 30
0.0
 10
6.0437
 20
1.0667
 30
0.0
 10
6.1995
 20
0.8864
 30
0.0
 10
6.3613
 20
0.7601
 30
0.0
 10
6.3613
 20
0.7601
 30
0.0
 10
6.5231
 20
0.6339
 30
0.0
 10
6.6834
 20
0.5615
 30
0.0
 10
6.8414
 20
0.5427
 30
0.0
 10
6.8414
 20
0.5427
 30
0.0
 10
6.9995
 20
0.5239
 30
0.0
 10
7.1491
 20
0.5578
 30
0.0
 10
7.29
 20
0.6448
 30
0.0
 10
7.29
 20
0.6448
 30
0.0
 10
7.4471
 20
0.7436
 30
0.0
 10
7.5536
 20
0.871
 30
0.0
 10
7.6105
 20
1.0269
 30
0.0
 10
7.6105
 20
1.0269
 30
0.0
 10
7.6672
 20
1.1827
 30
0.0
 10
7.6723
 20
1.3627
 30
0.0
 10
7.6258
 20
1.5669
 30
0.0
 10
7.6258
 20
1.5669
 30
0.0
 10
7.5798
 20
1.7715
 30
0.0
 10
7.481
 20
1.9948
 30
0.0
 10
7.3298
 20
2.2384
 30
0.0
 10
7.3298
 20
2.2384
 30
0.0
 10
7.1873
 20
2.4658
 30
0.0
 10
7.0378
 20
2.6431
 30
0.0
 10
6.8818
 20
2.7699
 30
0.0
 10
6.8818
 20
2.7699
 30
0.0
 10
6.7257
 20
2.8967
 30
0.0
 10
6.5681
 20
2.9699
 30
0.0
 10
6.4097
 20
2.9892
 30
0.0
 10
6.4097
 20
2.9892
 30
0.0
 10
6.2509
 20
3.0091
 30
0.0
 10
6.0966
 20
2.9731
 30
0.0
 10
5.9463
 20
2.8802
 30
0.0
  0
SPLINE
  5
5C
330
1F
100
AcDbEntity
  8
ROUND
 62
   250
100
AcDbSpline
210
0.0
220
0.0
230
1.0
 70
    11
 71
     3
 72
    56
 73
    52
 74
     0
 42
0.0000000001
 43
0.0000000001
 40
0.0
 40
0.0
 40
0.0
 40
0.0
 40
0.0714285714285714
 40
0.0714285714285714
 40
0.0714285714285714
 40
0.0714285714285714
 40
0.1428571428571428
 40
0.1428571428571428
 40
0.1428571428571428
 40
0.1428571428571428
 40
0.2142857142857143
 40
0.2142857142857143
 40
0.2142857142857143
 40
0.2142857142857143
 40
0.2857142857142857
 40
0.2857142857142857
 40
0.2857142857142857
 40
0.2857142857142857
 40
0.3571428571428572
 40
0.3571428571428572
 40
0.3571428571428572
 40
0.3571428571428572
 40
0.4285714285714285
 40
0.4285714285714285
 40
0.4285714285714285
 40
0.4285714285714285
 40
0.5
 40
0.5
 40
0.5
 40
0.5
 40
0.5714285714285714
 40
0.5714285714285714
 40
0.5714285714285714
 40
0.5714285714285714
 40
0.6428571428571429
 40
0.6428571428571429
 40
0.6428571428571429
 40
0.6428571428571429
 40
0.7142857142857143
 40
0.7142857142857143
 40
0.7142857142857143
 40
0.7142857142857143
 40
0.7857142857142857
 40
0.7857142857142857
 40
0.7857142857142857
 40
0.7857142857142857
 40
0.8571428571428571
 40
0.8571428571428571
 40
0.8571428571428571
 40
0.8571428571428571
 40
1.0
 40
1.0
 40
1.0
 40
1.0
 10
6.0662
 20
2.644
 30
0.0
 10
6.1424
 20
2.6906
 30
0.0
 10
6.2203
 20
2.711
 30
0.0
 10
6.3008
 20
2.7041
 30
0.0
 10
6.3008
 20
2.7041
 30
0.0
 10
6.3814
 20
2.6972
 30
0.0
 10
6.463
 20
2.6665
 30
0.0
 10
6.546
 20
2.6116
 30
0.0
 10
6.546
 20
2.6116
 30
0.0
 10
6.6287
 20
2.5573
 30
0.0
 10
6.7126
 20
2.4815
 30
0.0
 10
6.796
 20
2.3856
 30
0.0
 10
6.796
 20
2.3856
 30
0.0
 10
6.8797
 20
2.2892
 30
0.0
 10
6.9626
 20
2.1747
 30
0.0
 10
7.0451
 20
2.0424
 30
0.0
 10
7.0451
 20
2.0424
 30
0.0
 10
7.1594
 20
1.8591
 30
0.0
 10
7.242
 20
1.6911
 30
0.0
 10
7.293
 20
1.5385
 30
0.0
 10
7.293
 20
1.5385
 30
0.0
 10
7.3448
 20
1.3856
 30
0.0
 10
7.3605
 20
1.2528
 30
0.0
 10
7.3415
 20
1.1403
 30
0.0
 10
7.3415
 20
1.1403
 30
0.0
 10
7.3225
 20
1.0279
 30
0.0
 10
7.2638
 20
0.941
 30
0.0
 10
7.1668
 20
0.879
 30
0.0
 10
7.1668
 20
0.879
 30
0.0
 10
7.0781
 20
0.8244
 30
0.0
 10
6.9806
 20
0.8109
 30
0.0
 10
6.8729
 20
0.8382
 30
0.0
 10
6.8729
 20
0.8382
 30
0.0
 10
6.7657
 20
0.8659
 30
0.0
 10
6.6541
 20
0.9336
 30
0.0
 10
6.5377
 20
1.0408
 30
0.0
 10
6.5377
 20
1.0408
 30
0.0
 10
6.4209
 20
1.1487
 30
0.0
 10
6.3046
 20
1.2949
 30
0.0
 10
6.188
 20
1.4806
 30
0.0
 10
6.188
 20
1.4806
 30
0.0
 10
6.067
 20
1.6758
 30
0.0
 10
5.9847
 20
1.8507
 30
0.0
 10
5.9391
 20
2.0068
 30
0.0
 10
5.9391
 20
2.0068
 30
0.0
 10
5.894
 20
2.1623
 30
0.0
 10
5.8828
 20
2.294
 30
0.0
 10
5.9056
 20
2.4028
 30
0.0
 10
5.9056
 20
2.4028
 30
0.0
 10
5.9288
 20
2.5111
 30
0.0
 10
5.9823
 20
2.5917
 30
0.0
 10
6.0662
 20
2.644
 30
0.0
  0
SPLINE
  5
5D
330
1F
100
AcDbEntity
  8
ROUND
 62
   250
100
AcDbSpline
210
0.0
220
0.0
230
1.0
 70
    11
 71
     3
 72
    64
 73
    60
 74
     0
 42
0.0000000001
 43
0.0000000001
 40
0.0
 40
0.0
 40
0.0
 40
0.0
 40
0.0625
 40
0.0625
 40
0.0625
 40
0.0625
 40
0.125
 40
0.125
 40
0.125
 40
0.125
 40
0.1875
 40
0.1875
 40
0.1875
 40
0.1875
 40
0.25
 40
0.25
 40
0.25
 40
0.25
 40
0.3125
 40
0.3125
 40
0.3125
 40
0.3125
 40
0.375
 40
0.375
 40
0.375
 40
0.375
 40
0.4375
 40
0.4375
 40
0.4375
 40
0.4375
 40
0.5
 40
0.5
 40
0.5
 40
0.5
 40
0.5625
 40
0.5625
 40
0.5625
 40
0.5625
 40
0.625
 40
0.625
 40
0.625
 40
0.625
 40
0.6875
 40
0.6875
 40
0.6875
 40
0.6875
 40
0.75
 40
0.75
 40
0.75
 40
0.75
 40
0.8125
 40
0.8125
 40
0.8125
 40
0.8125
 40
0.875
 40
0.875
 40
0.875
 40
0.875
 40
1.0
 40
1.0
 40
1.0
 40
1.0
 10
7.2549
 20
3.8105
 30
0.0
 10
7.1719
 20
3.7579
 30
0.0
 10
7.1095
 20
3.6917
 30
0.0
 10
7.0677
 20
3.6122
 30
0.0
 10
7.0677
 20
3.6122
 30
0.0
 10
7.0252
 20
3.5323
 30
0.0
 10
7.0054
 20
3.4468
 30
0.0
 10
7.0082
 20
3.3556
 30
0.0
 10
7.0082
 20
3.3556
 30
0.0
 10
7.0111
 20
3.2652
 30
0.0
 10
7.0386
 20
3.1771
 30
0.0
 10
7.0909
 20
3.0908
 30
0.0
 10
7.0909
 20
3.0908
 30
0.0
 10
7.1277
 20
3.0331
 30
0.0
 10
7.1715
 20
2.9848
 30
0.0
 10
7.2241
 20
2.9468
 30
0.0
 10
7.2241
 20
2.9468
 30
0.0
 10
7.2769
 20
2.9088
 30
0.0
 10
7.334
 20
2.8819
 30
0.0
 10
7.3967
 20
2.8669
 30
0.0
 10
7.3967
 20
2.8669
 30
0.0
 10
7.4592
 20
2.851
 30
0.0
 10
7.5239
 20
2.8487
 30
0.0
 10
7.5903
 20
2.8595
 30
0.0
 10
7.5903
 20
2.8595
 30
0.0
 10
7.6567
 20
2.8704
 30
0.0
 10
7.7225
 20
2.8956
 30
0.0
 10
7.7871
 20
2.935
 30
0.0
 10
7.7871
 20
2.935
 30
0.0
 10
7.8439
 20
2.9713
 30
0.0
 10
7.8928
 20
3.0162
 30
0.0
 10
7.9322
 20
3.069
 30
0.0
 10
7.9322
 20
3.069
 30
0.0
 10
7.9719
 20
3.1227
 30
0.0
 10
8.0006
 20
3.1818
 30
0.0
 10
8.0175
 20
3.2464
 30
0.0
 10
8.0175
 20
3.2464
 30
0.0
 10
8.0353
 20
3.3109
 30
0.0
 10
8.0391
 20
3.3781
 30
0.0
 10
8.0298
 20
3.4469
 30
0.0
 10
8.0298
 20
3.4469
 30
0.0
 10
8.02
 20
3.5163
 30
0.0
 10
7.9944
 20
3.5841
 30
0.0
 10
7.9532
 20
3.6514
 30
0.0
 10
7.9532
 20
3.6514
 30
0.0
 10
7.918
 20
3.7079
 30
0.0
 10
7.8746
 20
3.7556
 30
0.0
 10
7.823
 20
3.7944
 30
0.0
 10
7.823
 20
3.7944
 30
0.0
 10
7.7719
 20
3.8333
 30
0.0
 10
7.715
 20
3.8611
 30
0.0
 10
7.6533
 20
3.8783
 30
0.0
 10
7.6533
 20
3.8783
 30
0.0
 10
7.591
 20
3.895
 30
0.0
 10
7.5259
 20
3.8979
 30
0.0
 10
7.458
 20
3.8884
 30
0.0
 10
7.458
 20
3.8884
 30
0.0
 10
7.3903
 20
3.8782
 30
0.0
 10
7.3228
 20
3.852
 30
0.0
 10
7.2549
 20
3.8105
 30
0.0
  0
SPLINE
  5
5E
330
1F
100
AcDbEntity
  8
ROUND
 62
   250
100
AcDbSpline
210
0.0
220
0.0
230
1.0
 70
    11
 71
     3
 72
    60
 73
    56
 74
     0
 42
0.0000000001
 43
0.0000000001
 40
0.0
 40
0.0
 40
0.0
 40
0.0
 40
0.0666666666666667
 40
0.0666666666666667
 40
0.0666666666666667
 40
0.0666666666666667
 40
0.1333333333333333
 40
0.1333333333333333
 40
0.1333333333333333
 40
0.1333333333333333
 40
0.2
 40
0.2
 40
0.2
 40
0.2
 40
0.2666666666666667
 40
0.2666666666666667
 40
0.2666666666666667
 40
0.2666666666666667
 40
0.3333333333333333
 40
0.3333333333333333
 40
0.3333333333333333
 40
0.3333333333333333
 40
0.4
 40
0.4
 40
0.4
 40
0.4
 40
0.4666666666666667
 40
0.4666666666666667
 40
0.4666666666666667
 40
0.4666666666666667
 40
0.5333333333333333
 40
0.5333333333333333
 40
0.5333333333333333
 40
0.5333333333333333
 40
0.6
 40
0.6
 40
0.6
 40
0.6
 40
0.6666666666666666
 40
0.6666666666666666
 40
0.6666666666666666
 40
0.6666666666666666
 40
0.7333333333333333
 40
0.7333333333333333
 40
0.7333333333333333
 40
0.7333333333333333
 40
0.8
 40
0.8
 40
0.8
 40
0.8
 40
0.8666666666666667
 40
0.8666666666666667
 40
0.8666666666666667
 40
0.8666666666666667
 40
1.0
 40
1.0
 40
1.0
 40
1.0
 10
7.3416
 20
3.6496
 30
0.0
 10
7.3897
 20
3.6789
 30
0.0
 10
7.4357
 20
3.6954
 30
0.0
 10
7.4795
 20
3.6998
 30
0.0
 10
7.4795
 20
3.6998
 30
0.0
 10
7.5235
 20
3.7037
 30
0.0
 10
7.5651
 20
3.6982
 30
0.0
 10
7.603
 20
3.6838
 30
0.0
 10
7.603
 20
3.6838
 30
0.0
 10
7.6409
 20
3.6694
 30
0.0
 10
7.6743
 20
3.649
 30
0.0
 10
7.704
 20
3.6233
 30
0.0
 10
7.704
 20
3.6233
 30
0.0
 10
7.7341
 20
3.5971
 30
0.0
 10
7.7579
 20
3.5685
 30
0.0
 10
7.7774
 20
3.5372
 30
0.0
 10
7.7774
 20
3.5372
 30
0.0
 10
7.8108
 20
3.4826
 30
0.0
 10
7.83
 20
3.4275
 30
0.0
 10
7.8343
 20
3.3715
 30
0.0
 10
7.8343
 20
3.3715
 30
0.0
 10
7.8386
 20
3.3147
 30
0.0
 10
7.8292
 20
3.2624
 30
0.0
 10
7.8057
 20
3.2134
 30
0.0
 10
7.8057
 20
3.2134
 30
0.0
 10
7.7818
 20
3.1649
 30
0.0
 10
7.7446
 20
3.1242
 30
0.0
 10
7.6939
 20
3.0919
 30
0.0
 10
7.6939
 20
3.0919
 30
0.0
 10
7.6436
 20
3.0612
 30
0.0
 10
7.5922
 20
3.046
 30
0.0
 10
7.5391
 20
3.0456
 30
0.0
 10
7.5391
 20
3.0456
 30
0.0
 10
7.4859
 20
3.0452
 30
0.0
 10
7.435
 20
3.0585
 30
0.0
 10
7.3877
 20
3.0854
 30
0.0
 10
7.3877
 20
3.0854
 30
0.0
 10
7.3405
 20
3.1124
 30
0.0
 10
7.301
 20
3.151
 30
0.0
 10
7.2687
 20
3.2017
 30
0.0
 10
7.2687
 20
3.2017
 30
0.0
 10
7.2464
 20
3.2375
 30
0.0
 10
7.2301
 20
3.2759
 30
0.0
 10
7.2192
 20
3.3164
 30
0.0
 10
7.2192
 20
3.3164
 30
0.0
 10
7.2087
 20
3.3579
 30
0.0
 10
7.2054
 20
3.3985
 30
0.0
 10
7.2088
 20
3.4395
 30
0.0
 10
7.2088
 20
3.4395
 30
0.0
 10
7.2127
 20
3.4809
 30
0.0
 10
7.2255
 20
3.5192
 30
0.0
 10
7.247
 20
3.5556
 30
0.0
 10
7.247
 20
3.5556
 30
0.0
 10
7.268
 20
3.5916
 30
0.0
 10
7.3001
 20
3.6231
 30
0.0
 10
7.3416
 20
3.6496
 30
0.0
  0
SPLINE
  5
5F
330
1F
100
AcDbEntity
  8
ROUND
 62
   250
370
    30
100
AcDbSpline
210
0.0
220
0.0
230
1.0
 70
    24
 71
     3
 72
     8
 73
     4
 74
     0
 42
0.0000000001
 43
0.0000000001
 40
0.0
 40
0.0
 40
0.0
 40
0.0
 40
1.0
 40
1.0
 40
1.0
 40
1.0
 10
4.985
 20
25.3915
 30
0.0
 10
4.985
 20
25.3915
 30
0.0
 10
3.7569
 20
23.5456
 30
0.0
 10
3.7569
 20
23.5456
 30
0.0
  0
SPLINE
  5
60
330
1F
100
AcDbEntity
  8
ROUND
 62
   250
370
    30
100
AcDbSpline
210
0.0
220
0.0
230
1.0
 70
    24
 71
     3
 72
     8
 73
     4
 74
     0
 42
0.0000000001
 43
0.0000000001
 40
0.0
 40
0.0
 40
0.0
 40
0.0
 40
1.0
 40
1.0
 40
1.0
 40
1.0
 10
3.7459
 20
6.7103
 30
0.0
 10
3.7459
 20
6.7103
 30
0.0
 10
4.984
 20
4.8614
 30
0.0
 10
4.984
 20
4.8614
 30
0.0
  0
SPLINE
  5
61
330
1F
100
AcDbEntity
  8
ROUND
 62
   250
370
    15
100
AcDbSpline
210
0.0
220
0.0
230
1.0
 70
    24
 71
     3
 72
     8
 73
     4
 74
     0
 42
0.0000000001
 43
0.0000000001
 40
0.0
 40
0.0
 40
0.0
 40
0.0
 40
1.0
 40
1.0
 40
1.0
 40
1.0
 10
8.134
 20
25.3865
 30
0.0
 10
8.134
 20
25.3865
 30
0.0
 10
24.37
 20
25.3865
 30
0.0
 10
24.37
 20
25.3865
 30
0.0
  0
SPLINE
  5
62
330
1F
100
AcDbEntity
  8
ROUND
 62
   250
370
    15
100
AcDbSpline
210
0.0
220
0.0
230
1.0
 70
    24
 71
     3
 72
     8
 73
     4
 74
     0
 42
0.0000000001
 43
0.0000000001
 40
0.0
 40
0.0
 40
0.0
 40
0.0
 40
1.0
 40
1.0
 40
1.0
 40
1.0
 10
8.0017
 20
4.8688
 30
0.0
 10
8.0017
 20
4.8688
 30
0.0
 10
24.3261
 20
4.8688
 30
0.0
 10
24.3261
 20
4.8688
 30
0.0
  0
SPLINE
  5
63
330
1F
100
AcDbEntity
  8
ROUND
 62
   250
370
    15
100
AcDbSpline
210
0.0
220
0.0
230
1.0
 70
    24
 71
     3
 72
     8
 73
     4
 74
     0
 42
0.0000000001
 43
0.0000000001
 40
0.0
 40
0.0
 40
0.0
 40
0.0
 40
1.0
 40
1.0
 40
1.0
 40
1.0
 10
-15.386
 20
-22.5401
 30
0.0
 10
-15.386
 20
-22.5401
 30
0.0
 10
-15.386
 20
-29.9439
 30
0.0
 10
-15.386
 20
-29.9439
 30
0.0
  0
SPLINE
  5
64
330
1F
100
AcDbEntity
  8
ROUND
 62
   250
370
    15
100
AcDbSpline
210
0.0
220
0.0
230
1.0
 70
    24
 71
     3
 72
     8
 73
     4
 74
     0
 42
0.0000000001
 43
0.0000000001
 40
0.0
 40
0.0
 40
0.0
 40
0.0
 40
1.0
 40
1.0
 40
1.0
 40
1.0
 10
-6.9018
 20
27.2291
 30
0.0
 10
-6.9018
 20
27.2291
 30
0.0
 10
-6.9018
 20
14.4351
 30
0.0
 10
-6.9018
 20
14.4351
 30
0.0
  0
SPLINE
  5
65
330
1F
100
AcDbEntity
  8
ROUND
 62
   250
370
    15
100
AcDbSpline
210
0.0
220
0.0
230
1.0
 70
    24
 71
     3
 72
     8
 73
     4
 74
     0
 42
0.0000000001
 43
0.0000000001
 40
0.0
 40
0.0
 40
0.0
 40
0.0
 40
1.0
 40
1.0
 40
1.0
 40
1.0
 10
8.0321
 20
6.6719
 30
0.0
 10
8.0321
 20
6.6719
 30
0.0
 10
11.3173
 20
6.6719
 30
0.0
 10
11.3173
 20
6.6719
 30
0.0
  0
SPLINE
  5
66
330
1F
100
AcDbEntity
  8
ROUND
 62
   250
370
    15
100
AcDbSpline
210
0.0
220
0.0
230
1.0
 70
    24
 71
     3
 72
     8
 73
     4
 74
     0
 42
0.0000000001
 43
0.0000000001
 40
0.0
 40
0.0
 40
0.0
 40
0.0
 40
1.0
 40
1.0
 40
1.0
 40
1.0
 10
1.4575
 20
-22.5401
 30
0.0
 10
1.4575
 20
-22.5401
 30
0.0
 10
1.4575
 20
-29.8852
 30
0.0
 10
1.4575
 20
-29.8852
 30
0.0
  0
SPLINE
  5
67
330
1F
100
AcDbEntity
  8
ROUND
 62
   250
370
    15
100
AcDbSpline
210
0.0
220
0.0
230
1.0
 70
    24
 71
     3
 72
     8
 73
     4
 74
     0
 42
0.0000000001
 43
0.0000000001
 40
0.0
 40
0.0
 40
0.0
 40
0.0
 40
1.0
 40
1.0
 40
1.0
 40
1.0
 10
7.5159
 20
27.5927
 30
0.0
 10
7.5159
 20
27.5927
 30
0.0
 10
7.5159
 20
25.7077
 30
0.0
 10
7.5159
 20
25.7077
 30
0.0
  0
SPLINE
  5
68
330
1F
100
AcDbEntity
  8
ROUND
 62
   250
370
    15
100
AcDbSpline
210
0.0
220
0.0
230
1.0
 70
    24
 71
     3
 72
     8
 73
     4
 74
     0
 42
0.0000000001
 43
0.0000000001
 40
0.0
 40
0.0
 40
0.0
 40
0.0
 40
1.0
 40
1.0
 40
1.0
 40
1.0
 10
8.1532
 20
23.5154
 30
0.0
 10
8.1532
 20
23.5154
 30
0.0
 10
19.3541
 20
23.5154
 30
0.0
 10
19.3541
 20
23.5154
 30
0.0
  0
SPLINE
  5
69
330
1F
100
AcDbEntity
  8
ROUND
 62
   250
370
    15
100
AcDbSpline
210
0.0
220
0.0
230
1.0
 70
     8
 71
     3
 72
     8
 73
     4
 74
     0
 42
0.0000000001
 43
0.0000000001
 40
0.0
 40
0.0
 40
0.0
 40
0.0
 40
1.0
 40
1.0
 40
1.0
 40
1.0
 10
-6.9643
 20
-5.6513
 30
0.0
 10
-1.4532
 20
-5.6513
 30
0.0
 10
3.8321
 20
-3.462
 30
0.0
 10
7.729
 20
0.4348
 30
0.0
  0
SPLINE
  5
6A
330
1F
100
AcDbEntity
  8
ROUND
 62
   250
370
    15
100
AcDbSpline
210
0.0
220
0.0
230
1.0
 70
     8
 71
     3
 72
     8
 73
     4
 74
     0
 42
0.0000000001
 43
0.0000000001
 40
0.0
 40
0.0
 40
0.0
 40
0.0
 40
1.0
 40
1.0
 40
1.0
 40
1.0
 10
7.729
 20
0.4348
 30
0.0
 10
11.6259
 20
4.3317
 30
0.0
 10
13.8152
 20
9.617
 30
0.0
 10
13.8152
 20
15.1281
 30
0.0
  0
SPLINE
  5
6B
330
1F
100
AcDbEntity
  8
ROUND
 62
   250
370
    30
100
AcDbSpline
210
0.0
220
0.0
230
1.0
 70
    24
 71
     3
 72
     8
 73
     4
 74
     0
 42
0.0000000001
 43
0.0000000001
 40
0.0
 40
0.0
 40
0.0
 40
0.0
 40
1.0
 40
1.0
 40
1.0
 40
1.0
 10
1.1053
 20
-23.1526
 30
0.0
 10
1.1053
 20
-23.1526
 30
0.0
 10
-15.0338
 20
-23.1526
 30
0.0
 10
-15.0338
 20
-23.1526
 30
0.0
  0
SPLINE
  5
6C
330
1F
100
AcDbEntity
  8
ROUND
 62
   250
370
    30
100
AcDbSpline
210
0.0
220
0.0
230
1.0
 70
    24
 71
     3
 72
     8
 73
     4
 74
     0
 42
0.0000000001
 43
0.0000000001
 40
0.0
 40
0.0
 40
0.0
 40
0.0
 40
1.0
 40
1.0
 40
1.0
 40
1.0
 10
1.4575
 20
-22.5401
 30
0.0
 10
1.4575
 20
-22.5401
 30
0.0
 10
-15.386
 20
-22.5401
 30
0.0
 10
-15.386
 20
-22.5401
 30
0.0
  0
SPLINE
  5
6D
330
1F
100
AcDbEntity
  8
ROUND
 62
   250
370
    30
100
AcDbSpline
210
0.0
220
0.0
230
1.0
 70
    24
 71
     3
 72
     8
 73
     4
 74
     0
 42
0.0000000001
 43
0.0000000001
 40
0.0
 40
0.0
 40
0.0
 40
0.0
 40
1.0
 40
1.0
 40
1.0
 40
1.0
 10
-15.0338
 20
-23.1526
 30
0.0
 10
-15.0338
 20
-23.1526
 30
0.0
 10
-15.386
 20
-22.5401
 30
0.0
 10
-15.386
 20
-22.5401
 30
0.0
  0
SPLINE
  5
6E
330
1F
100
AcDbEntity
  8
ROUND
 62
   250
370
    30
100
AcDbSpline
210
0.0
220
0.0
230
1.0
 70
    24
 71
     3
 72
     8
 73
     4
 74
     0
 42
0.0000000001
 43
0.0000000001
 40
0.0
 40
0.0
 40
0.0
 40
0.0
 40
1.0
 40
1.0
 40
1.0
 40
1.0
 10
-15.386
 20
-22.5401
 30
0.0
 10
-15.386
 20
-22.5401
 30
0.0
 10
-15.386
 20
6.7063
 30
0.0
 10
-15.386
 20
6.7063
 30
0.0
  0
SPLINE
  5
6F
330
1F
100
AcDbEntity
  8
ROUND
 62
   250
370
    30
100
AcDbSpline
210
0.0
220
0.0
230
1.0
 70
    24
 71
     3
 72
     8
 73
     4
 74
     0
 42
0.0000000001
 43
0.0000000001
 40
0.0
 40
0.0
 40
0.0
 40
0.0
 40
1.0
 40
1.0
 40
1.0
 40
1.0
 10
7.123
 20
4.8688
 30
0.0
 10
7.123
 20
4.8688
 30
0.0
 10
4.9793
 20
4.8688
 30
0.0
 10
4.9793
 20
4.8688
 30
0.0
  0
SPLINE
  5
70
330
1F
100
AcDbEntity
  8
ROUND
 62
   250
370
    30
100
AcDbSpline
210
0.0
220
0.0
230
1.0
 70
    24
 71
     3
 72
     8
 73
     4
 74
     0
 42
0.0000000001
 43
0.0000000001
 40
0.0
 40
0.0
 40
0.0
 40
0.0
 40
1.0
 40
1.0
 40
1.0
 40
1.0
 10
1.4575
 20
-22.5401
 30
0.0
 10
1.4575
 20
-22.5401
 30
0.0
 10
1.4575
 20
6.7063
 30
0.0
 10
1.4575
 20
6.7063
 30
0.0
  0
SPLINE
  5
71
330
1F
100
AcDbEntity
  8
ROUND
 62
   250
370
    30
100
AcDbSpline
210
0.0
220
0.0
230
1.0
 70
    24
 71
     3
 72
     8
 73
     4
 74
     0
 42
0.0000000001
 43
0.0000000001
 40
0.0
 40
0.0
 40
0.0
 40
0.0
 40
1.0
 40
1.0
 40
1.0
 40
1.0
 10
1.4575
 20
6.7063
 30
0.0
 10
1.4575
 20
6.7063
 30
0.0
 10
3.7543
 20
6.7063
 30
0.0
 10
3.7543
 20
6.7063
 30
0.0
  0
SPLINE
  5
72
330
1F
100
AcDbEntity
  8
ROUND
 62
   250
370
    30
100
AcDbSpline
210
0.0
220
0.0
230
1.0
 70
    24
 71
     3
 72
     8
 73
     4
 74
     0
 42
0.0000000001
 43
0.0000000001
 40
0.0
 40
0.0
 40
0.0
 40
0.0
 40
1.0
 40
1.0
 40
1.0
 40
1.0
 10
4.9793
 20
4.8688
 30
0.0
 10
4.9793
 20
4.8688
 30
0.0
 10
4.9793
 20
25.3873
 30
0.0
 10
4.9793
 20
25.3873
 30
0.0
  0
SPLINE
  5
73
330
1F
100
AcDbEntity
  8
ROUND
 62
   250
370
    30
100
AcDbSpline
210
0.0
220
0.0
230
1.0
 70
    24
 71
     3
 72
     8
 73
     4
 74
     0
 42
0.0000000001
 43
0.0000000001
 40
0.0
 40
0.0
 40
0.0
 40
0.0
 40
1.0
 40
1.0
 40
1.0
 40
1.0
 10
1.1053
 20
-23.1526
 30
0.0
 10
1.1053
 20
-23.1526
 30
0.0
 10
1.4575
 20
-22.5401
 30
0.0
 10
1.4575
 20
-22.5401
 30
0.0
  0
SPLINE
  5
74
330
1F
100
AcDbEntity
  8
ROUND
 62
   250
370
    30
100
AcDbSpline
210
0.0
220
0.0
230
1.0
 70
    24
 71
     3
 72
     8
 73
     4
 74
     0
 42
0.0000000001
 43
0.0000000001
 40
0.0
 40
0.0
 40
0.0
 40
0.0
 40
1.0
 40
1.0
 40
1.0
 40
1.0
 10
1.4575
 20
23.5498
 30
0.0
 10
1.4575
 20
23.5498
 30
0.0
 10
3.7543
 20
23.5498
 30
0.0
 10
3.7543
 20
23.5498
 30
0.0
  0
SPLINE
  5
75
330
1F
100
AcDbEntity
  8
ROUND
 62
   250
370
    30
100
AcDbSpline
210
0.0
220
0.0
230
1.0
 70
    24
 71
     3
 72
     8
 73
     4
 74
     0
 42
0.0000000001
 43
0.0000000001
 40
0.0
 40
0.0
 40
0.0
 40
0.0
 40
1.0
 40
1.0
 40
1.0
 40
1.0
 10
7.123
 20
25.3873
 30
0.0
 10
7.123
 20
25.3873
 30
0.0
 10
4.9793
 20
25.3873
 30
0.0
 10
4.9793
 20
25.3873
 30
0.0
  0
SPLINE
  5
76
330
1F
100
AcDbEntity
  8
ROUND
 62
   250
370
    30
100
AcDbSpline
210
0.0
220
0.0
230
1.0
 70
     8
 71
     3
 72
     8
 73
     4
 74
     0
 42
0.0000000001
 43
0.0000000001
 40
0.0
 40
0.0
 40
0.0
 40
0.0
 40
1.0
 40
1.0
 40
1.0
 40
1.0
 10
1.4575
 20
23.5498
 30
0.0
 10
-7.845
 20
23.5498
 30
0.0
 10
-15.386
 20
16.0087
 30
0.0
 10
-15.386
 20
6.7063
 30
0.0
  0
SPLINE
  5
77
330
1F
100
AcDbEntity
  8
ROUND
  6
New Line1
 62
   250
370
    15
100
AcDbSpline
210
0.0
220
0.0
230
1.0
 70
    24
 71
     3
 72
     8
 73
     4
 74
     0
 42
0.0000000001
 43
0.0000000001
 40
0.0
 40
0.0
 40
0.0
 40
0.0
 40
1.0
 40
1.0
 40
1.0
 40
1.0
 10
-6.9643
 20
13.7882
 30
0.0
 10
-6.9643
 20
13.7882
 30
0.0
 10
-6.9643
 20
-23.7651
 30
0.0
 10
-6.9643
 20
-23.7651
 30
0.0
  0
SPLINE
  5
79
330
1F
100
AcDbEntity
  8
ROUND
 62
   250
370
    30
100
AcDbSpline
210
0.0
220
0.0
230
1.0
 70
    24
 71
     3
 72
     8
 73
     4
 74
     0
 42
0.0000000001
 43
0.0000000001
 40
0.0
 40
0.0
 40
0.0
 40
0.0
 40
1.0
 40
1.0
 40
1.0
 40
1.0
 10
3.7543
 20
23.5498
 30
0.0
 10
3.7543
 20
23.5498
 30
0.0
 10
3.7543
 20
6.7063
 30
0.0
 10
3.7543
 20
6.7063
 30
0.0
  0
SPLINE
  5
7A
330
1F
100
AcDbEntity
  8
ROUND
  6
New Line2
 62
   250
370
    15
100
AcDbSpline
210
0.0
220
0.0
230
1.0
 70
    24
 71
     3
 72
     8
 73
     4
 74
     0
 42
0.0000000001
 43
0.0000000001
 40
0.0
 40
0.0
 40
0.0
 40
0.0
 40
1.0
 40
1.0
 40
1.0
 40
1.0
 10
-3.2559
 20
15.1278
 30
0.0
 10
-3.2559
 20
15.1278
 30
0.0
 10
14.6517
 20
15.1278
 30
0.0
 10
14.6517
 20
15.1278
 30
0.0
  0
SPLINE
  5
7C
330
1F
100
AcDbEntity
  8
ROUND
 62
   250
370
    30
100
AcDbSpline
210
0.0
220
0.0
230
1.0
 70
    24
 71
     3
 72
     8
 73
     4
 74
     0
 42
0.0000000001
 43
0.0000000001
 40
0.0
 40
0.0
 40
0.0
 40
0.0
 40
1.0
 40
1.0
 40
1.0
 40
1.0
 10
7.5824
 20
24.9279
 30
0.0
 10
7.5824
 20
24.9279
 30
0.0
 10
7.5824
 20
5.3282
 30
0.0
 10
7.5824
 20
5.3282
 30
0.0
  0
SPLINE
  5
7D
330
1F
100
AcDbEntity
  8
ROUND
 62
   250
370
    30
100
AcDbSpline
210
0.0
220
0.0
230
1.0
 70
     8
 71
     3
 72
     8
 73
     4
 74
     0
 42
0.0000000001
 43
0.0000000001
 40
0.0
 40
0.0
 40
0.0
 40
0.0
 40
1.0
 40
1.0
 40
1.0
 40
1.0
 10
7.123
 20
4.8688
 30
0.0
 10
7.3767
 20
4.8688
 30
0.0
 10
7.5824
 20
5.0745
 30
0.0
 10
7.5824
 20
5.3282
 30
0.0
  0
SPLINE
  5
7E
330
1F
100
AcDbEntity
  8
ROUND
 62
   250
370
    30
100
AcDbSpline
210
0.0
220
0.0
230
1.0
 70
     8
 71
     3
 72
     8
 73
     4
 74
     0
 42
0.0000000001
 43
0.0000000001
 40
0.0
 40
0.0
 40
0.0
 40
0.0
 40
1.0
 40
1.0
 40
1.0
 40
1.0
 10
7.5824
 20
24.9279
 30
0.0
 10
7.5824
 20
25.1816
 30
0.0
 10
7.3767
 20
25.3873
 30
0.0
 10
7.123
 20
25.3873
 30
0.0
  0
SPLINE
  5
7F
330
1F
100
AcDbEntity
  8
ROUND
 62
   250
370
    15
100
AcDbSpline
210
0.0
220
0.0
230
1.0
 70
    24
 71
     3
 72
     8
 73
     4
 74
     0
 42
0.0000000001
 43
0.0000000001
 40
0.0
 40
0.0
 40
0.0
 40
0.0
 40
1.0
 40
1.0
 40
1.0
 40
1.0
 10
-16.6381
 20
-23.1526
 30
0.0
 10
-16.6381
 20
-23.1526
 30
0.0
 10
-21.4989
 20
-23.1526
 30
0.0
 10
-21.4989
 20
-23.1526
 30
0.0
  0
SPLINE
  5
80
330
1F
100
AcDbEntity
  8
ROUND
 62
   250
370
    15
100
AcDbSpline
210
0.0
220
0.0
230
1.0
 70
    24
 71
     3
 72
     8
 73
     4
 74
     0
 42
0.0000000001
 43
0.0000000001
 40
0.0
 40
0.0
 40
0.0
 40
0.0
 40
1.0
 40
1.0
 40
1.0
 40
1.0
 10
-6.0685
 20
15.1277
 30
0.0
 10
-6.0685
 20
15.1277
 30
0.0
 10
-21.7765
 20
15.1277
 30
0.0
 10
-21.7765
 20
15.1277
 30
0.0
  0
SPLINE
  5
81
330
1F
100
AcDbEntity
  8
ROUND
 62
   250
370
     9
100
AcDbSpline
210
0.0
220
0.0
230
1.0
 70
    11
 71
     3
 72
    32
 73
    28
 74
     0
 42
0.0000000001
 43
0.0000000001
 40
0.0
 40
0.0
 40
0.0
 40
0.0
 40
0.125
 40
0.125
 40
0.125
 40
0.125
 40
0.25
 40
0.25
 40
0.25
 40
0.25
 40
0.375
 40
0.375
 40
0.375
 40
0.375
 40
0.5
 40
0.5
 40
0.5
 40
0.5
 40
0.625
 40
0.625
 40
0.625
 40
0.625
 40
0.75
 40
0.75
 40
0.75
 40
0.75
 40
1.0
 40
1.0
 40
1.0
 40
1.0
 10
0.0803
 20
-29.9723
 30
0.0
 10
0.0803
 20
-29.9723
 30
0.0
 10
0.0803
 20
-29.9723
 30
0.0
 10
0.0803
 20
-29.9723
 30
0.0
 10
0.0803
 20
-29.9723
 30
0.0
 10
0.0803
 20
-29.9723
 30
0.0
 10
0.0803
 20
-29.9723
 30
0.0
 10
0.0803
 20
-29.9723
 30
0.0
 10
0.0803
 20
-29.9723
 30
0.0
 10
0.0803
 20
-29.9723
 30
0.0
 10
1.3531
 20
-29.5289
 30
0.0
 10
1.3531
 20
-29.5289
 30
0.0
 10
1.3531
 20
-29.5289
 30
0.0
 10
1.3531
 20
-29.5289
 30
0.0
 10
0.0803
 20
-29.0855
 30
0.0
 10
0.0803
 20
-29.0855
 30
0.0
 10
0.0803
 20
-29.0855
 30
0.0
 10
0.0803
 20
-29.0855
 30
0.0
 10
0.0803
 20
-29.0855
 30
0.0
 10
0.0803
 20
-29.0855
 30
0.0
 10
0.0803
 20
-29.0855
 30
0.0
 10
0.0803
 20
-29.0855
 30
0.0
 10
0.0803
 20
-29.0855
 30
0.0
 10
0.0803
 20
-29.0855
 30
0.0
 10
0.0803
 20
-29.0855
 30
0.0
 10
0.0803
 20
-29.0855
 30
0.0
 10
0.0803
 20
-29.9723
 30
0.0
 10
0.0803
 20
-29.9723
 30
0.0
  0
SPLINE
  5
82
330
1F
100
AcDbEntity
  8
ROUND
 62
   250
370
     9
100
AcDbSpline
210
0.0
220
0.0
230
1.0
 70
    11
 71
     3
 72
    32
 73
    28
 74
     0
 42
0.0000000001
 43
0.0000000001
 40
0.0
 40
0.0
 40
0.0
 40
0.0
 40
0.125
 40
0.125
 40
0.125
 40
0.125
 40
0.25
 40
0.25
 40
0.25
 40
0.25
 40
0.375
 40
0.375
 40
0.375
 40
0.375
 40
0.5
 40
0.5
 40
0.5
 40
0.5
 40
0.625
 40
0.625
 40
0.625
 40
0.625
 40
0.75
 40
0.75
 40
0.75
 40
0.75
 40
1.0
 40
1.0
 40
1.0
 40
1.0
 10
6.1387
 20
26.4451
 30
0.0
 10
6.1387
 20
26.4451
 30
0.0
 10
6.1387
 20
26.4451
 30
0.0
 10
6.1387
 20
26.4451
 30
0.0
 10
6.1387
 20
26.4451
 30
0.0
 10
6.1387
 20
26.4451
 30
0.0
 10
6.1387
 20
26.4451
 30
0.0
 10
6.1387
 20
26.4451
 30
0.0
 10
6.1387
 20
26.4451
 30
0.0
 10
6.1387
 20
26.4451
 30
0.0
 10
7.4115
 20
26.8885
 30
0.0
 10
7.4115
 20
26.8885
 30
0.0
 10
7.4115
 20
26.8885
 30
0.0
 10
7.4115
 20
26.8885
 30
0.0
 10
6.1387
 20
27.3319
 30
0.0
 10
6.1387
 20
27.3319
 30
0.0
 10
6.1387
 20
27.3319
 30
0.0
 10
6.1387
 20
27.3319
 30
0.0
 10
6.1387
 20
27.3319
 30
0.0
 10
6.1387
 20
27.3319
 30
0.0
 10
6.1387
 20
27.3319
 30
0.0
 10
6.1387
 20
27.3319
 30
0.0
 10
6.1387
 20
27.3319
 30
0.0
 10
6.1387
 20
27.3319
 30
0.0
 10
6.1387
 20
27.3319
 30
0.0
 10
6.1387
 20
27.3319
 30
0.0
 10
6.1387
 20
26.4451
 30
0.0
 10
6.1387
 20
26.4451
 30
0.0
  0
SPLINE
  5
83
330
1F
100
AcDbEntity
  8
ROUND
 62
   250
370
     9
100
AcDbSpline
210
0.0
220
0.0
230
1.0
 70
    11
 71
     3
 72
    32
 73
    28
 74
     0
 42
0.0000000001
 43
0.0000000001
 40
0.0
 40
0.0
 40
0.0
 40
0.0
 40
0.125
 40
0.125
 40
0.125
 40
0.125
 40
0.25
 40
0.25
 40
0.25
 40
0.25
 40
0.375
 40
0.375
 40
0.375
 40
0.375
 40
0.5
 40
0.5
 40
0.5
 40
0.5
 40
0.625
 40
0.625
 40
0.625
 40
0.625
 40
0.75
 40
0.75
 40
0.75
 40
0.75
 40
1.0
 40
1.0
 40
1.0
 40
1.0
 10
-14.0638
 20
-29.9553
 30
0.0
 10
-14.0638
 20
-29.9553
 30
0.0
 10
-14.0638
 20
-29.9553
 30
0.0
 10
-14.0638
 20
-29.9553
 30
0.0
 10
-14.0638
 20
-29.9553
 30
0.0
 10
-14.0638
 20
-29.9553
 30
0.0
 10
-14.0638
 20
-29.9553
 30
0.0
 10
-14.0638
 20
-29.9553
 30
0.0
 10
-14.0638
 20
-29.9553
 30
0.0
 10
-14.0638
 20
-29.9553
 30
0.0
 10
-15.3366
 20
-29.5119
 30
0.0
 10
-15.3366
 20
-29.5119
 30
0.0
 10
-15.3366
 20
-29.5119
 30
0.0
 10
-15.3366
 20
-29.5119
 30
0.0
 10
-14.0638
 20
-29.0685
 30
0.0
 10
-14.0638
 20
-29.0685
 30
0.0
 10
-14.0638
 20
-29.0685
 30
0.0
 10
-14.0638
 20
-29.0685
 30
0.0
 10
-14.0638
 20
-29.0685
 30
0.0
 10
-14.0638
 20
-29.0685
 30
0.0
 10
-14.0638
 20
-29.0685
 30
0.0
 10
-14.0638
 20
-29.0685
 30
0.0
 10
-14.0638
 20
-29.0685
 30
0.0
 10
-14.0638
 20
-29.0685
 30
0.0
 10
-14.0638
 20
-29.0685
 30
0.0
 10
-14.0638
 20
-29.0685
 30
0.0
 10
-14.0638
 20
-29.9553
 30
0.0
 10
-14.0638
 20
-29.9553
 30
0.0
  0
SPLINE
  5
84
330
1F
100
AcDbEntity
  8
ROUND
 62
   250
370
     9
100
AcDbSpline
210
0.0
220
0.0
230
1.0
 70
    11
 71
     3
 72
    32
 73
    28
 74
     0
 42
0.0000000001
 43
0.0000000001
 40
0.0
 40
0.0
 40
0.0
 40
0.0
 40
0.125
 40
0.125
 40
0.125
 40
0.125
 40
0.25
 40
0.25
 40
0.25
 40
0.25
 40
0.375
 40
0.375
 40
0.375
 40
0.375
 40
0.5
 40
0.5
 40
0.5
 40
0.5
 40
0.625
 40
0.625
 40
0.625
 40
0.625
 40
0.75
 40
0.75
 40
0.75
 40
0.75
 40
1.0
 40
1.0
 40
1.0
 40
1.0
 10
-5.5911
 20
26.4511
 30
0.0
 10
-5.5911
 20
26.4511
 30
0.0
 10
-5.5911
 20
26.4511
 30
0.0
 10
-5.5911
 20
26.4511
 30
0.0
 10
-5.5911
 20
26.4511
 30
0.0
 10
-5.5911
 20
26.4511
 30
0.0
 10
-5.5911
 20
26.4511
 30
0.0
 10
-5.5911
 20
26.4511
 30
0.0
 10
-5.5911
 20
26.4511
 30
0.0
 10
-5.5911
 20
26.4511
 30
0.0
 10
-6.8639
 20
26.8945
 30
0.0
 10
-6.8639
 20
26.8945
 30
0.0
 10
-6.8639
 20
26.8945
 30
0.0
 10
-6.8639
 20
26.8945
 30
0.0
 10
-5.5911
 20
27.3379
 30
0.0
 10
-5.5911
 20
27.3379
 30
0.0
 10
-5.5911
 20
27.3379
 30
0.0
 10
-5.5911
 20
27.3379
 30
0.0
 10
-5.5911
 20
27.3379
 30
0.0
 10
-5.5911
 20
27.3379
 30
0.0
 10
-5.5911
 20
27.3379
 30
0.0
 10
-5.5911
 20
27.3379
 30
0.0
 10
-5.5911
 20
27.3379
 30
0.0
 10
-5.5911
 20
27.3379
 30
0.0
 10
-5.5911
 20
27.3379
 30
0.0
 10
-5.5911
 20
27.3379
 30
0.0
 10
-5.5911
 20
26.4511
 30
0.0
 10
-5.5911
 20
26.4511
 30
0.0
  0
SPLINE
  5
85
330
1F
100
AcDbEntity
  8
ROUND
 62
   250
370
     9
100
AcDbSpline
210
0.0
220
0.0
230
1.0
 70
    11
 71
     3
 72
    32
 73
    28
 74
     0
 42
0.0000000001
 43
0.0000000001
 40
0.0
 40
0.0
 40
0.0
 40
0.0
 40
0.125
 40
0.125
 40
0.125
 40
0.125
 40
0.25
 40
0.25
 40
0.25
 40
0.25
 40
0.375
 40
0.375
 40
0.375
 40
0.375
 40
0.5
 40
0.5
 40
0.5
 40
0.5
 40
0.625
 40
0.625
 40
0.625
 40
0.625
 40
0.75
 40
0.75
 40
0.75
 40
0.75
 40
1.0
 40
1.0
 40
1.0
 40
1.0
 10
-5.7125
 20
-6.1148
 30
0.0
 10
-5.7125
 20
-6.1148
 30
0.0
 10
-5.7125
 20
-6.1148
 30
0.0
 10
-5.7125
 20
-6.1148
 30
0.0
 10
-5.7125
 20
-6.1148
 30
0.0
 10
-5.7125
 20
-6.1148
 30
0.0
 10
-5.7125
 20
-6.1148
 30
0.0
 10
-5.7125
 20
-6.1148
 30
0.0
 10
-5.7125
 20
-6.1148
 30
0.0
 10
-5.7125
 20
-6.1148
 30
0.0
 10
-6.9853
 20
-5.6714
 30
0.0
 10
-6.9853
 20
-5.6714
 30
0.0
 10
-6.9853
 20
-5.6714
 30
0.0
 10
-6.9853
 20
-5.6714
 30
0.0
 10
-5.7125
 20
-5.228
 30
0.0
 10
-5.7125
 20
-5.228
 30
0.0
 10
-5.7125
 20
-5.228
 30
0.0
 10
-5.7125
 20
-5.228
 30
0.0
 10
-5.7125
 20
-5.228
 30
0.0
 10
-5.7125
 20
-5.228
 30
0.0
 10
-5.7125
 20
-5.228
 30
0.0
 10
-5.7125
 20
-5.228
 30
0.0
 10
-5.7125
 20
-5.228
 30
0.0
 10
-5.7125
 20
-5.228
 30
0.0
 10
-5.7125
 20
-5.228
 30
0.0
 10
-5.7125
 20
-5.228
 30
0.0
 10
-5.7125
 20
-6.1148
 30
0.0
 10
-5.7125
 20
-6.1148
 30
0.0
  0
SPLINE
  5
86
330
1F
100
AcDbEntity
  8
ROUND
 62
   250
370
     9
100
AcDbSpline
210
0.0
220
0.0
230
1.0
 70
    11
 71
     3
 72
    32
 73
    28
 74
     0
 42
0.0000000001
 43
0.0000000001
 40
0.0
 40
0.0
 40
0.0
 40
0.0
 40
0.125
 40
0.125
 40
0.125
 40
0.125
 40
0.25
 40
0.25
 40
0.25
 40
0.25
 40
0.375
 40
0.375
 40
0.375
 40
0.375
 40
0.5
 40
0.5
 40
0.5
 40
0.5
 40
0.625
 40
0.625
 40
0.625
 40
0.625
 40
0.75
 40
0.75
 40
0.75
 40
0.75
 40
1.0
 40
1.0
 40
1.0
 40
1.0
 10
-20.8145
 20
13.8219
 30
0.0
 10
-20.8145
 20
13.8219
 30
0.0
 10
-20.8145
 20
13.8219
 30
0.0
 10
-20.8145
 20
13.8219
 30
0.0
 10
-20.8145
 20
13.8219
 30
0.0
 10
-20.8145
 20
13.8219
 30
0.0
 10
-20.8145
 20
13.8219
 30
0.0
 10
-20.8145
 20
13.8219
 30
0.0
 10
-20.8145
 20
13.8219
 30
0.0
 10
-20.8145
 20
13.8219
 30
0.0
 10
-21.2579
 20
15.0947
 30
0.0
 10
-21.2579
 20
15.0947
 30
0.0
 10
-21.2579
 20
15.0947
 30
0.0
 10
-21.2579
 20
15.0947
 30
0.0
 10
-21.7013
 20
13.8219
 30
0.0
 10
-21.7013
 20
13.8219
 30
0.0
 10
-21.7013
 20
13.8219
 30
0.0
 10
-21.7013
 20
13.8219
 30
0.0
 10
-21.7013
 20
13.8219
 30
0.0
 10
-21.7013
 20
13.8219
 30
0.0
 10
-21.7013
 20
13.8219
 30
0.0
 10
-21.7013
 20
13.8219
 30
0.0
 10
-21.7013
 20
13.8219
 30
0.0
 10
-21.7013
 20
13.8219
 30
0.0
 10
-21.7013
 20
13.8219
 30
0.0
 10
-21.7013
 20
13.8219
 30
0.0
 10
-20.8145
 20
13.8219
 30
0.0
 10
-20.8145
 20
13.8219
 30
0.0
  0
SPLINE
  5
87
330
1F
100
AcDbEntity
  8
ROUND
 62
   250
370
     9
100
AcDbSpline
210
0.0
220
0.0
230
1.0
 70
    11
 71
     3
 72
    32
 73
    28
 74
     0
 42
0.0000000001
 43
0.0000000001
 40
0.0
 40
0.0
 40
0.0
 40
0.0
 40
0.125
 40
0.125
 40
0.125
 40
0.125
 40
0.25
 40
0.25
 40
0.25
 40
0.25
 40
0.375
 40
0.375
 40
0.375
 40
0.375
 40
0.5
 40
0.5
 40
0.5
 40
0.5
 40
0.625
 40
0.625
 40
0.625
 40
0.625
 40
0.75
 40
0.75
 40
0.75
 40
0.75
 40
1.0
 40
1.0
 40
1.0
 40
1.0
 10
19.1238
 20
22.2175
 30
0.0
 10
19.1238
 20
22.2175
 30
0.0
 10
19.1238
 20
22.2175
 30
0.0
 10
19.1238
 20
22.2175
 30
0.0
 10
19.1238
 20
22.2175
 30
0.0
 10
19.1238
 20
22.2175
 30
0.0
 10
19.1238
 20
22.2175
 30
0.0
 10
19.1238
 20
22.2175
 30
0.0
 10
19.1238
 20
22.2175
 30
0.0
 10
19.1238
 20
22.2175
 30
0.0
 10
18.6804
 20
23.4903
 30
0.0
 10
18.6804
 20
23.4903
 30
0.0
 10
18.6804
 20
23.4903
 30
0.0
 10
18.6804
 20
23.4903
 30
0.0
 10
18.237
 20
22.2175
 30
0.0
 10
18.237
 20
22.2175
 30
0.0
 10
18.237
 20
22.2175
 30
0.0
 10
18.237
 20
22.2175
 30
0.0
 10
18.237
 20
22.2175
 30
0.0
 10
18.237
 20
22.2175
 30
0.0
 10
18.237
 20
22.2175
 30
0.0
 10
18.237
 20
22.2175
 30
0.0
 10
18.237
 20
22.2175
 30
0.0
 10
18.237
 20
22.2175
 30
0.0
 10
18.237
 20
22.2175
 30
0.0
 10
18.237
 20
22.2175
 30
0.0
 10
19.1238
 20
22.2175
 30
0.0
 10
19.1238
 20
22.2175
 30
0.0
  0
SPLINE
  5
88
330
1F
100
AcDbEntity
  8
ROUND
 62
   250
370
     9
100
AcDbSpline
210
0.0
220
0.0
230
1.0
 70
    11
 71
     3
 72
    32
 73
    28
 74
     0
 42
0.0000000001
 43
0.0000000001
 40
0.0
 40
0.0
 40
0.0
 40
0.0
 40
0.125
 40
0.125
 40
0.125
 40
0.125
 40
0.25
 40
0.25
 40
0.25
 40
0.25
 40
0.375
 40
0.375
 40
0.375
 40
0.375
 40
0.5
 40
0.5
 40
0.5
 40
0.5
 40
0.625
 40
0.625
 40
0.625
 40
0.625
 40
0.75
 40
0.75
 40
0.75
 40
0.75
 40
1.0
 40
1.0
 40
1.0
 40
1.0
 10
14.2438
 20
13.845
 30
0.0
 10
14.2438
 20
13.845
 30
0.0
 10
14.2438
 20
13.845
 30
0.0
 10
14.2438
 20
13.845
 30
0.0
 10
14.2438
 20
13.845
 30
0.0
 10
14.2438
 20
13.845
 30
0.0
 10
14.2438
 20
13.845
 30
0.0
 10
14.2438
 20
13.845
 30
0.0
 10
14.2438
 20
13.845
 30
0.0
 10
14.2438
 20
13.845
 30
0.0
 10
13.8004
 20
15.1178
 30
0.0
 10
13.8004
 20
15.1178
 30
0.0
 10
13.8004
 20
15.1178
 30
0.0
 10
13.8004
 20
15.1178
 30
0.0
 10
13.357
 20
13.845
 30
0.0
 10
13.357
 20
13.845
 30
0.0
 10
13.357
 20
13.845
 30
0.0
 10
13.357
 20
13.845
 30
0.0
 10
13.357
 20
13.845
 30
0.0
 10
13.357
 20
13.845
 30
0.0
 10
13.357
 20
13.845
 30
0.0
 10
13.357
 20
13.845
 30
0.0
 10
13.357
 20
13.845
 30
0.0
 10
13.357
 20
13.845
 30
0.0
 10
13.357
 20
13.845
 30
0.0
 10
13.357
 20
13.845
 30
0.0
 10
14.2438
 20
13.845
 30
0.0
 10
14.2438
 20
13.845
 30
0.0
  0
SPLINE
  5
89
330
1F
100
AcDbEntity
  8
ROUND
 62
   250
370
     9
100
AcDbSpline
210
0.0
220
0.0
230
1.0
 70
    11
 71
     3
 72
    32
 73
    28
 74
     0
 42
0.0000000001
 43
0.0000000001
 40
0.0
 40
0.0
 40
0.0
 40
0.0
 40
0.125
 40
0.125
 40
0.125
 40
0.125
 40
0.25
 40
0.25
 40
0.25
 40
0.25
 40
0.375
 40
0.375
 40
0.375
 40
0.375
 40
0.5
 40
0.5
 40
0.5
 40
0.5
 40
0.625
 40
0.625
 40
0.625
 40
0.625
 40
0.75
 40
0.75
 40
0.75
 40
0.75
 40
1.0
 40
1.0
 40
1.0
 40
1.0
 10
-20.7816
 20
-21.8407
 30
0.0
 10
-20.7816
 20
-21.8407
 30
0.0
 10
-20.7816
 20
-21.8407
 30
0.0
 10
-20.7816
 20
-21.8407
 30
0.0
 10
-20.7816
 20
-21.8407
 30
0.0
 10
-20.7816
 20
-21.8407
 30
0.0
 10
-20.7816
 20
-21.8407
 30
0.0
 10
-20.7816
 20
-21.8407
 30
0.0
 10
-20.7816
 20
-21.8407
 30
0.0
 10
-20.7816
 20
-21.8407
 30
0.0
 10
-21.225
 20
-23.1153
 30
0.0
 10
-21.225
 20
-23.1153
 30
0.0
 10
-21.225
 20
-23.1153
 30
0.0
 10
-21.225
 20
-23.1153
 30
0.0
 10
-21.6684
 20
-21.8407
 30
0.0
 10
-21.6684
 20
-21.8407
 30
0.0
 10
-21.6684
 20
-21.8407
 30
0.0
 10
-21.6684
 20
-21.8407
 30
0.0
 10
-21.6684
 20
-21.8407
 30
0.0
 10
-21.6684
 20
-21.8407
 30
0.0
 10
-21.6684
 20
-21.8407
 30
0.0
 10
-21.6684
 20
-21.8407
 30
0.0
 10
-21.6684
 20
-21.8407
 30
0.0
 10
-21.6684
 20
-21.8407
 30
0.0
 10
-21.6684
 20
-21.8407
 30
0.0
 10
-21.6684
 20
-21.8407
 30
0.0
 10
-20.7816
 20
-21.8407
 30
0.0
 10
-20.7816
 20
-21.8407
 30
0.0
  0
SPLINE
  5
8A
330
1F
100
AcDbEntity
  8
ROUND
 62
   250
370
     9
100
AcDbSpline
210
0.0
220
0.0
230
1.0
 70
    11
 71
     3
 72
    32
 73
    28
 74
     0
 42
0.0000000001
 43
0.0000000001
 40
0.0
 40
0.0
 40
0.0
 40
0.0
 40
0.125
 40
0.125
 40
0.125
 40
0.125
 40
0.25
 40
0.25
 40
0.25
 40
0.25
 40
0.375
 40
0.375
 40
0.375
 40
0.375
 40
0.5
 40
0.5
 40
0.5
 40
0.5
 40
0.625
 40
0.625
 40
0.625
 40
0.625
 40
0.75
 40
0.75
 40
0.75
 40
0.75
 40
1.0
 40
1.0
 40
1.0
 40
1.0
 10
19.0795
 20
8.0411
 30
0.0
 10
19.0795
 20
8.0411
 30
0.0
 10
19.0795
 20
8.0411
 30
0.0
 10
19.0795
 20
8.0411
 30
0.0
 10
19.0795
 20
8.0411
 30
0.0
 10
19.0795
 20
8.0411
 30
0.0
 10
19.0795
 20
8.0411
 30
0.0
 10
19.0795
 20
8.0411
 30
0.0
 10
19.0795
 20
8.0411
 30
0.0
 10
19.0795
 20
8.0411
 30
0.0
 10
18.6361
 20
6.7665
 30
0.0
 10
18.6361
 20
6.7665
 30
0.0
 10
18.6361
 20
6.7665
 30
0.0
 10
18.6361
 20
6.7665
 30
0.0
 10
18.1927
 20
8.0411
 30
0.0
 10
18.1927
 20
8.0411
 30
0.0
 10
18.1927
 20
8.0411
 30
0.0
 10
18.1927
 20
8.0411
 30
0.0
 10
18.1927
 20
8.0411
 30
0.0
 10
18.1927
 20
8.0411
 30
0.0
 10
18.1927
 20
8.0411
 30
0.0
 10
18.1927
 20
8.0411
 30
0.0
 10
18.1927
 20
8.0411
 30
0.0
 10
18.1927
 20
8.0411
 30
0.0
 10
18.1927
 20
8.0411
 30
0.0
 10
18.1927
 20
8.0411
 30
0.0
 10
19.0795
 20
8.0411
 30
0.0
 10
19.0795
 20
8.0411
 30
0.0
  0
SPLINE
  5
8B
330
1F
100
AcDbEntity
  8
ROUND
 62
   250
100
AcDbSpline
210
0.0
220
0.0
230
1.0
 70
    11
 71
     3
 72
   104
 73
   100
 74
     0
 42
0.0000000001
 43
0.0000000001
 40
0.0
 40
0.0
 40
0.0
 40
0.0
 40
0.0384615384615385
 40
0.0384615384615385
 40
0.0384615384615385
 40
0.0384615384615385
 40
0.0769230769230769
 40
0.0769230769230769
 40
0.0769230769230769
 40
0.0769230769230769
 40
0.1153846153846154
 40
0.1153846153846154
 40
0.1153846153846154
 40
0.1153846153846154
 40
0.1538461538461539
 40
0.1538461538461539
 40
0.1538461538461539
 40
0.1538461538461539
 40
0.1923076923076923
 40
0.1923076923076923
 40
0.1923076923076923
 40
0.1923076923076923
 40
0.2307692307692308
 40
0.2307692307692308
 40
0.2307692307692308
 40
0.2307692307692308
 40
0.2692307692307692
 40
0.2692307692307692
 40
0.2692307692307692
 40
0.2692307692307692
 40
0.3076923076923077
 40
0.3076923076923077
 40
0.3076923076923077
 40
0.3076923076923077
 40
0.3461538461538461
 40
0.3461538461538461
 40
0.3461538461538461
 40
0.3461538461538461
 40
0.3846153846153846
 40
0.3846153846153846
 40
0.3846153846153846
 40
0.3846153846153846
 40
0.4230769230769231
 40
0.4230769230769231
 40
0.4230769230769231
 40
0.4230769230769231
 40
0.4615384615384616
 40
0.4615384615384616
 40
0.4615384615384616
 40
0.4615384615384616
 40
0.5
 40
0.5
 40
0.5
 40
0.5
 40
0.5384615384615384
 40
0.5384615384615384
 40
0.5384615384615384
 40
0.5384615384615384
 40
0.5769230769230769
 40
0.5769230769230769
 40
0.5769230769230769
 40
0.5769230769230769
 40
0.6153846153846154
 40
0.6153846153846154
 40
0.6153846153846154
 40
0.6153846153846154
 40
0.6538461538461539
 40
0.6538461538461539
 40
0.6538461538461539
 40
0.6538461538461539
 40
0.6923076923076923
 40
0.6923076923076923
 40
0.6923076923076923
 40
0.6923076923076923
 40
0.7307692307692307
 40
0.7307692307692307
 40
0.7307692307692307
 40
0.7307692307692307
 40
0.7692307692307693
 40
0.7692307692307693
 40
0.7692307692307693
 40
0.7692307692307693
 40
0.8076923076923077
 40
0.8076923076923077
 40
0.8076923076923077
 40
0.8076923076923077
 40
0.8461538461538461
 40
0.8461538461538461
 40
0.8461538461538461
 40
0.8461538461538461
 40
0.8846153846153846
 40
0.8846153846153846
 40
0.8846153846153846
 40
0.8846153846153846
 40
0.9230769230769231
 40
0.9230769230769231
 40
0.9230769230769231
 40
0.9230769230769231
 40
1.0
 40
1.0
 40
1.0
 40
1.0
 10
23.2943
 20
11.5632
 30
0.0
 10
23.2943
 20
11.5632
 30
0.0
 10
22.9605
 20
11.8077
 30
0.0
 10
22.9605
 20
11.8077
 30
0.0
 10
22.9605
 20
11.8077
 30
0.0
 10
23.0284
 20
11.9015
 30
0.0
 10
23.0808
 20
12.0043
 30
0.0
 10
23.1164
 20
12.1156
 30
0.0
 10
23.1164
 20
12.1156
 30
0.0
 10
23.152
 20
12.2275
 30
0.0
 10
23.1701
 20
12.3445
 30
0.0
 10
23.1701
 20
12.4674
 30
0.0
 10
23.1701
 20
12.4674
 30
0.0
 10
23.1701
 20
12.5935
 30
0.0
 10
23.1513
 20
12.7158
 30
0.0
 10
23.1145
 20
12.8328
 30
0.0
 10
23.1145
 20
12.8328
 30
0.0
 10
23.0776
 20
12.9499
 30
0.0
 10
23.0226
 20
13.0586
 30
0.0
 10
22.9489
 20
13.1582
 30
0.0
 10
22.9489
 20
13.1582
 30
0.0
 10
22.8758
 20
13.2584
 30
0.0
 10
22.784
 20
13.3457
 30
0.0
 10
22.674
 20
13.4207
 30
0.0
 10
22.674
 20
13.4207
 30
0.0
 10
22.5641
 20
13.4951
 30
0.0
 10
22.436
 20
13.5533
 30
0.0
 10
22.2892
 20
13.5954
 30
0.0
 10
22.2892
 20
13.5954
 30
0.0
 10
22.143
 20
13.6368
 30
0.0
 10
21.9787
 20
13.6581
 30
0.0
 10
21.7964
 20
13.6588
 30
0.0
 10
21.7964
 20
13.6588
 30
0.0
 10
21.6676
 20
13.6588
 30
0.0
 10
21.5454
 20
13.6458
 30
0.0
 10
21.429
 20
13.6193
 30
0.0
 10
21.429
 20
13.6193
 30
0.0
 10
21.3119
 20
13.5934
 30
0.0
 10
21.2033
 20
13.5553
 30
0.0
 10
21.103
 20
13.5055
 30
0.0
 10
21.103
 20
13.5055
 30
0.0
 10
21.0028
 20
13.455
 30
0.0
 10
20.9135
 20
13.3936
 30
0.0
 10
20.834
 20
13.3211
 30
0.0
 10
20.834
 20
13.3211
 30
0.0
 10
20.834
 20
13.3211
 30
0.0
 10
20.5002
 20
13.5617
 30
0.0
 10
20.5002
 20
13.5617
 30
0.0
 10
20.5002
 20
13.5617
 30
0.0
 10
20.5002
 20
13.5617
 30
0.0
 10
20.3605
 20
13.3561
 30
0.0
 10
20.3605
 20
13.3561
 30
0.0
 10
20.3605
 20
13.3561
 30
0.0
 10
20.3605
 20
13.3561
 30
0.0
 10
20.6749
 20
13.1271
 30
0.0
 10
20.6749
 20
13.1271
 30
0.0
 10
20.6749
 20
13.1271
 30
0.0
 10
20.605
 20
13.0333
 30
0.0
 10
20.5526
 20
12.9318
 30
0.0
 10
20.5177
 20
12.8218
 30
0.0
 10
20.5177
 20
12.8218
 30
0.0
 10
20.4828
 20
12.7112
 30
0.0
 10
20.4653
 20
12.5961
 30
0.0
 10
20.4653
 20
12.4752
 30
0.0
 10
20.4653
 20
12.4752
 30
0.0
 10
20.466
 20
12.3025
 30
0.0
 10
20.4983
 20
12.1434
 30
0.0
 10
20.5623
 20
11.9966
 30
0.0
 10
20.5623
 20
11.9966
 30
0.0
 10
20.6264
 20
11.8504
 30
0.0
 10
20.7188
 20
11.723
 30
0.0
 10
20.8385
 20
11.6143
 30
0.0
 10
20.8385
 20
11.6143
 30
0.0
 10
20.9581
 20
11.505
 30
0.0
 10
21.1017
 20
11.4209
 30
0.0
 10
21.2692
 20
11.3601
 30
0.0
 10
21.2692
 20
11.3601
 30
0.0
 10
21.4368
 20
11.3
 30
0.0
 10
21.6237
 20
11.2689
 30
0.0
 10
21.8313
 20
11.2683
 30
0.0
 10
21.8313
 20
11.2683
 30
0.0
 10
21.9619
 20
11.2683
 30
0.0
 10
22.0868
 20
11.2825
 30
0.0
 10
22.2045
 20
11.3097
 30
0.0
 10
22.2045
 20
11.3097
 30
0.0
 10
22.3222
 20
11.3369
 30
0.0
 10
22.4315
 20
11.3763
 30
0.0
 10
22.5317
 20
11.4274
 30
0.0
 10
22.5317
 20
11.4274
 30
0.0
 10
22.632
 20
11.4791
 30
0.0
 10
22.7219
 20
11.5412
 30
0.0
 10
22.8014
 20
11.6137
 30
0.0
 10
22.8014
 20
11.6137
 30
0.0
 10
22.8014
 20
11.6137
 30
0.0
 10
23.139
 20
11.3731
 30
0.0
 10
23.139
 20
11.3731
 30
0.0
 10
23.139
 20
11.3731
 30
0.0
 10
23.139
 20
11.3731
 30
0.0
 10
23.2943
 20
11.5632
 30
0.0
 10
23.2943
 20
11.5632
 30
0.0
  0
SPLINE
  5
8C
330
1F
100
AcDbEntity
  8
ROUND
 62
   250
100
AcDbSpline
210
0.0
220
0.0
230
1.0
 70
    11
 71
     3
 72
    52
 73
    48
 74
     0
 42
0.0000000001
 43
0.0000000001
 40
0.0
 40
0.0
 40
0.0
 40
0.0
 40
0.0769230769230769
 40
0.0769230769230769
 40
0.0769230769230769
 40
0.0769230769230769
 40
0.1538461538461539
 40
0.1538461538461539
 40
0.1538461538461539
 40
0.1538461538461539
 40
0.2307692307692308
 40
0.2307692307692308
 40
0.2307692307692308
 40
0.2307692307692308
 40
0.3076923076923077
 40
0.3076923076923077
 40
0.3076923076923077
 40
0.3076923076923077
 40
0.3846153846153846
 40
0.3846153846153846
 40
0.3846153846153846
 40
0.3846153846153846
 40
0.4615384615384616
 40
0.4615384615384616
 40
0.4615384615384616
 40
0.4615384615384616
 40
0.5384615384615384
 40
0.5384615384615384
 40
0.5384615384615384
 40
0.5384615384615384
 40
0.6153846153846154
 40
0.6153846153846154
 40
0.6153846153846154
 40
0.6153846153846154
 40
0.6923076923076923
 40
0.6923076923076923
 40
0.6923076923076923
 40
0.6923076923076923
 40
0.7692307692307693
 40
0.7692307692307693
 40
0.7692307692307693
 40
0.7692307692307693
 40
0.8461538461538461
 40
0.8461538461538461
 40
0.8461538461538461
 40
0.8461538461538461
 40
1.0
 40
1.0
 40
1.0
 40
1.0
 10
22.5143
 20
11.8116
 30
0.0
 10
22.5143
 20
11.8116
 30
0.0
 10
22.5181
 20
11.8038
 30
0.0
 10
22.5181
 20
11.8038
 30
0.0
 10
22.5181
 20
11.8038
 30
0.0
 10
22.4515
 20
11.765
 30
0.0
 10
22.3823
 20
11.7314
 30
0.0
 10
22.3112
 20
11.7029
 30
0.0
 10
22.3112
 20
11.7029
 30
0.0
 10
22.2394
 20
11.6745
 30
0.0
 10
22.1637
 20
11.6525
 30
0.0
 10
22.0822
 20
11.637
 30
0.0
 10
22.0822
 20
11.637
 30
0.0
 10
22.0014
 20
11.6214
 30
0.0
 10
21.9121
 20
11.6137
 30
0.0
 10
21.8158
 20
11.6137
 30
0.0
 10
21.8158
 20
11.6137
 30
0.0
 10
21.7045
 20
11.6137
 30
0.0
 10
21.5972
 20
11.6253
 30
0.0
 10
21.4917
 20
11.648
 30
0.0
 10
21.4917
 20
11.648
 30
0.0
 10
21.387
 20
11.6712
 30
0.0
 10
21.2886
 20
11.7055
 30
0.0
 10
21.1981
 20
11.7508
 30
0.0
 10
21.1981
 20
11.7508
 30
0.0
 10
21.1069
 20
11.7967
 30
0.0
 10
21.0267
 20
11.8536
 30
0.0
 10
20.9581
 20
11.9222
 30
0.0
 10
20.9581
 20
11.9222
 30
0.0
 10
20.8889
 20
11.9907
 30
0.0
 10
20.8353
 20
12.0703
 30
0.0
 10
20.7965
 20
12.1608
 30
0.0
 10
20.7965
 20
12.1608
 30
0.0
 10
20.757
 20
12.252
 30
0.0
 10
20.7376
 20
12.3542
 30
0.0
 10
20.737
 20
12.4674
 30
0.0
 10
20.737
 20
12.4674
 30
0.0
 10
20.7376
 20
12.5664
 30
0.0
 10
20.7538
 20
12.6569
 30
0.0
 10
20.7861
 20
12.7384
 30
0.0
 10
20.7861
 20
12.7384
 30
0.0
 10
20.8178
 20
12.8205
 30
0.0
 10
20.8624
 20
12.8943
 30
0.0
 10
20.9193
 20
12.9602
 30
0.0
 10
20.9193
 20
12.9602
 30
0.0
 10
20.9193
 20
12.9602
 30
0.0
 10
22.5143
 20
11.8116
 30
0.0
 10
22.5143
 20
11.8116
 30
0.0
  0
SPLINE
  5
8D
330
1F
100
AcDbEntity
  8
ROUND
 62
   250
100
AcDbSpline
210
0.0
220
0.0
230
1.0
 70
    11
 71
     3
 72
    48
 73
    44
 74
     0
 42
0.0000000001
 43
0.0000000001
 40
0.0
 40
0.0
 40
0.0
 40
0.0
 40
0.0833333333333333
 40
0.0833333333333333
 40
0.0833333333333333
 40
0.0833333333333333
 40
0.1666666666666667
 40
0.1666666666666667
 40
0.1666666666666667
 40
0.1666666666666667
 40
0.25
 40
0.25
 40
0.25
 40
0.25
 40
0.3333333333333333
 40
0.3333333333333333
 40
0.3333333333333333
 40
0.3333333333333333
 40
0.4166666666666667
 40
0.4166666666666667
 40
0.4166666666666667
 40
0.4166666666666667
 40
0.5
 40
0.5
 40
0.5
 40
0.5
 40
0.5833333333333334
 40
0.5833333333333334
 40
0.5833333333333334
 40
0.5833333333333334
 40
0.6666666666666666
 40
0.6666666666666666
 40
0.6666666666666666
 40
0.6666666666666666
 40
0.75
 40
0.75
 40
0.75
 40
0.75
 40
0.8333333333333334
 40
0.8333333333333334
 40
0.8333333333333334
 40
0.8333333333333334
 40
1.0
 40
1.0
 40
1.0
 40
1.0
 10
21.125
 20
13.1193
 30
0.0
 10
21.125
 20
13.1193
 30
0.0
 10
21.125
 20
13.131
 30
0.0
 10
21.125
 20
13.131
 30
0.0
 10
21.125
 20
13.131
 30
0.0
 10
21.2375
 20
13.1983
 30
0.0
 10
21.3514
 20
13.2455
 30
0.0
 10
21.4665
 20
13.2733
 30
0.0
 10
21.4665
 20
13.2733
 30
0.0
 10
21.581
 20
13.3011
 30
0.0
 10
21.6948
 20
13.3147
 30
0.0
 10
21.808
 20
13.3134
 30
0.0
 10
21.808
 20
13.3134
 30
0.0
 10
21.9257
 20
13.3134
 30
0.0
 10
22.0382
 20
13.3011
 30
0.0
 10
22.1463
 20
13.2772
 30
0.0
 10
22.1463
 20
13.2772
 30
0.0
 10
22.2543
 20
13.2532
 30
0.0
 10
22.3539
 20
13.2177
 30
0.0
 10
22.4451
 20
13.1711
 30
0.0
 10
22.4451
 20
13.1711
 30
0.0
 10
22.5363
 20
13.1239
 30
0.0
 10
22.6158
 20
13.0663
 30
0.0
 10
22.6831
 20
12.9978
 30
0.0
 10
22.6831
 20
12.9978
 30
0.0
 10
22.751
 20
12.9286
 30
0.0
 10
22.804
 20
12.8496
 30
0.0
 10
22.8415
 20
12.7604
 30
0.0
 10
22.8415
 20
12.7604
 30
0.0
 10
22.879
 20
12.6711
 30
0.0
 10
22.8978
 20
12.5722
 30
0.0
 10
22.8984
 20
12.4635
 30
0.0
 10
22.8984
 20
12.4635
 30
0.0
 10
22.8984
 20
12.3581
 30
0.0
 10
22.8823
 20
12.2656
 30
0.0
 10
22.8506
 20
12.1874
 30
0.0
 10
22.8506
 20
12.1874
 30
0.0
 10
22.8189
 20
12.1085
 30
0.0
 10
22.7723
 20
12.038
 30
0.0
 10
22.7122
 20
11.9746
 30
0.0
 10
22.7122
 20
11.9746
 30
0.0
 10
22.7122
 20
11.9746
 30
0.0
 10
21.125
 20
13.1193
 30
0.0
 10
21.125
 20
13.1193
 30
0.0
  0
SPLINE
  5
8E
330
1F
100
AcDbEntity
  8
ROUND
 62
   250
100
AcDbSpline
210
0.0
220
0.0
230
1.0
 70
    11
 71
     3
 72
    36
 73
    32
 74
     0
 42
0.0000000001
 43
0.0000000001
 40
0.0
 40
0.0
 40
0.0
 40
0.0
 40
0.1111111111111111
 40
0.1111111111111111
 40
0.1111111111111111
 40
0.1111111111111111
 40
0.2222222222222222
 40
0.2222222222222222
 40
0.2222222222222222
 40
0.2222222222222222
 40
0.3333333333333333
 40
0.3333333333333333
 40
0.3333333333333333
 40
0.3333333333333333
 40
0.4444444444444444
 40
0.4444444444444444
 40
0.4444444444444444
 40
0.4444444444444444
 40
0.5555555555555556
 40
0.5555555555555556
 40
0.5555555555555556
 40
0.5555555555555556
 40
0.6666666666666666
 40
0.6666666666666666
 40
0.6666666666666666
 40
0.6666666666666666
 40
0.7777777777777778
 40
0.7777777777777778
 40
0.7777777777777778
 40
0.7777777777777778
 40
1.0
 40
1.0
 40
1.0
 40
1.0
 10
23.1274
 20
14.7181
 30
0.0
 10
23.1274
 20
14.7181
 30
0.0
 10
23.1274
 20
15.048
 30
0.0
 10
23.1274
 20
15.048
 30
0.0
 10
23.1274
 20
15.048
 30
0.0
 10
23.1274
 20
15.048
 30
0.0
 10
20.605
 20
15.048
 30
0.0
 10
20.605
 20
15.048
 30
0.0
 10
20.605
 20
15.048
 30
0.0
 10
20.605
 20
15.048
 30
0.0
 10
20.605
 20
14.7569
 30
0.0
 10
20.605
 20
14.7569
 30
0.0
 10
20.605
 20
14.7569
 30
0.0
 10
20.605
 20
14.7569
 30
0.0
 10
20.8999
 20
14.2059
 30
0.0
 10
20.8999
 20
14.2059
 30
0.0
 10
20.8999
 20
14.2059
 30
0.0
 10
20.8999
 20
14.2059
 30
0.0
 10
21.1599
 20
14.2719
 30
0.0
 10
21.1599
 20
14.2719
 30
0.0
 10
21.1599
 20
14.2719
 30
0.0
 10
21.1599
 20
14.2719
 30
0.0
 10
20.9232
 20
14.7104
 30
0.0
 10
20.9232
 20
14.7104
 30
0.0
 10
20.9232
 20
14.7104
 30
0.0
 10
20.9232
 20
14.7104
 30
0.0
 10
20.9232
 20
14.7181
 30
0.0
 10
20.9232
 20
14.7181
 30
0.0
 10
20.9232
 20
14.7181
 30
0.0
 10
20.9232
 20
14.7181
 30
0.0
 10
23.1274
 20
14.7181
 30
0.0
 10
23.1274
 20
14.7181
 30
0.0
  0
SPLINE
  5
8F
330
1F
100
AcDbEntity
  8
ROUND
 62
   250
100
AcDbSpline
210
0.0
220
0.0
230
1.0
 70
    11
 71
     3
 72
   196
 73
   192
 74
     0
 42
0.0000000001
 43
0.0000000001
 40
0.0
 40
0.0
 40
0.0
 40
0.0
 40
0.0204081632653061
 40
0.0204081632653061
 40
0.0204081632653061
 40
0.0204081632653061
 40
0.0408163265306122
 40
0.0408163265306122
 40
0.0408163265306122
 40
0.0408163265306122
 40
0.0612244897959184
 40
0.0612244897959184
 40
0.0612244897959184
 40
0.0612244897959184
 40
0.0816326530612245
 40
0.0816326530612245
 40
0.0816326530612245
 40
0.0816326530612245
 40
0.1020408163265306
 40
0.1020408163265306
 40
0.1020408163265306
 40
0.1020408163265306
 40
0.1224489795918367
 40
0.1224489795918367
 40
0.1224489795918367
 40
0.1224489795918367
 40
0.1428571428571428
 40
0.1428571428571428
 40
0.1428571428571428
 40
0.1428571428571428
 40
0.163265306122449
 40
0.163265306122449
 40
0.163265306122449
 40
0.163265306122449
 40
0.1836734693877551
 40
0.1836734693877551
 40
0.1836734693877551
 40
0.1836734693877551
 40
0.2040816326530612
 40
0.2040816326530612
 40
0.2040816326530612
 40
0.2040816326530612
 40
0.2244897959183673
 40
0.2244897959183673
 40
0.2244897959183673
 40
0.2244897959183673
 40
0.2448979591836735
 40
0.2448979591836735
 40
0.2448979591836735
 40
0.2448979591836735
 40
0.2653061224489796
 40
0.2653061224489796
 40
0.2653061224489796
 40
0.2653061224489796
 40
0.2857142857142857
 40
0.2857142857142857
 40
0.2857142857142857
 40
0.2857142857142857
 40
0.3061224489795918
 40
0.3061224489795918
 40
0.3061224489795918
 40
0.3061224489795918
 40
0.3265306122448979
 40
0.3265306122448979
 40
0.3265306122448979
 40
0.3265306122448979
 40
0.3469387755102041
 40
0.3469387755102041
 40
0.3469387755102041
 40
0.3469387755102041
 40
0.3673469387755102
 40
0.3673469387755102
 40
0.3673469387755102
 40
0.3673469387755102
 40
0.3877551020408163
 40
0.3877551020408163
 40
0.3877551020408163
 40
0.3877551020408163
 40
0.4081632653061225
 40
0.4081632653061225
 40
0.4081632653061225
 40
0.4081632653061225
 40
0.4285714285714285
 40
0.4285714285714285
 40
0.4285714285714285
 40
0.4285714285714285
 40
0.4489795918367347
 40
0.4489795918367347
 40
0.4489795918367347
 40
0.4489795918367347
 40
0.4693877551020408
 40
0.4693877551020408
 40
0.4693877551020408
 40
0.4693877551020408
 40
0.4897959183673469
 40
0.4897959183673469
 40
0.4897959183673469
 40
0.4897959183673469
 40
0.5102040816326531
 40
0.5102040816326531
 40
0.5102040816326531
 40
0.5102040816326531
 40
0.5306122448979592
 40
0.5306122448979592
 40
0.5306122448979592
 40
0.5306122448979592
 40
0.5510204081632653
 40
0.5510204081632653
 40
0.5510204081632653
 40
0.5510204081632653
 40
0.5714285714285714
 40
0.5714285714285714
 40
0.5714285714285714
 40
0.5714285714285714
 40
0.5918367346938775
 40
0.5918367346938775
 40
0.5918367346938775
 40
0.5918367346938775
 40
0.6122448979591837
 40
0.6122448979591837
 40
0.6122448979591837
 40
0.6122448979591837
 40
0.6326530612244898
 40
0.6326530612244898
 40
0.6326530612244898
 40
0.6326530612244898
 40
0.6530612244897959
 40
0.6530612244897959
 40
0.6530612244897959
 40
0.6530612244897959
 40
0.673469387755102
 40
0.673469387755102
 40
0.673469387755102
 40
0.673469387755102
 40
0.6938775510204082
 40
0.6938775510204082
 40
0.6938775510204082
 40
0.6938775510204082
 40
0.7142857142857143
 40
0.7142857142857143
 40
0.7142857142857143
 40
0.7142857142857143
 40
0.7346938775510204
 40
0.7346938775510204
 40
0.7346938775510204
 40
0.7346938775510204
 40
0.7551020408163265
 40
0.7551020408163265
 40
0.7551020408163265
 40
0.7551020408163265
 40
0.7755102040816326
 40
0.7755102040816326
 40
0.7755102040816326
 40
0.7755102040816326
 40
0.7959183673469388
 40
0.7959183673469388
 40
0.7959183673469388
 40
0.7959183673469388
 40
0.8163265306122449
 40
0.8163265306122449
 40
0.8163265306122449
 40
0.8163265306122449
 40
0.8367346938775511
 40
0.8367346938775511
 40
0.8367346938775511
 40
0.8367346938775511
 40
0.8571428571428571
 40
0.8571428571428571
 40
0.8571428571428571
 40
0.8571428571428571
 40
0.8775510204081632
 40
0.8775510204081632
 40
0.8775510204081632
 40
0.8775510204081632
 40
0.8979591836734694
 40
0.8979591836734694
 40
0.8979591836734694
 40
0.8979591836734694
 40
0.9183673469387755
 40
0.9183673469387755
 40
0.9183673469387755
 40
0.9183673469387755
 40
0.9387755102040817
 40
0.9387755102040817
 40
0.9387755102040817
 40
0.9387755102040817
 40
0.9591836734693877
 40
0.9591836734693877
 40
0.9591836734693877
 40
0.9591836734693877
 40
1.0
 40
1.0
 40
1.0
 40
1.0
 10
22.9993
 20
15.956
 30
0.0
 10
23.0272
 20
15.998
 30
0.0
 10
23.0537
 20
16.0524
 30
0.0
 10
23.0795
 20
16.1183
 30
0.0
 10
23.0795
 20
16.1183
 30
0.0
 10
23.1054
 20
16.1843
 30
0.0
 10
23.1268
 20
16.2593
 30
0.0
 10
23.1442
 20
16.3434
 30
0.0
 10
23.1442
 20
16.3434
 30
0.0
 10
23.161
 20
16.4275
 30
0.0
 10
23.1694
 20
16.5167
 30
0.0
 10
23.1701
 20
16.6118
 30
0.0
 10
23.1701
 20
16.6118
 30
0.0
 10
23.1694
 20
16.7625
 30
0.0
 10
23.1487
 20
16.8951
 30
0.0
 10
23.1086
 20
17.0096
 30
0.0
 10
23.1086
 20
17.0096
 30
0.0
 10
23.0685
 20
17.124
 30
0.0
 10
23.0129
 20
17.2198
 30
0.0
 10
22.9431
 20
17.2974
 30
0.0
 10
22.9431
 20
17.2974
 30
0.0
 10
22.8732
 20
17.375
 30
0.0
 10
22.7924
 20
17.4332
 30
0.0
 10
22.7018
 20
17.4727
 30
0.0
 10
22.7018
 20
17.4727
 30
0.0
 10
22.6113
 20
17.5115
 30
0.0
 10
22.5149
 20
17.5315
 30
0.0
 10
22.4134
 20
17.5315
 30
0.0
 10
22.4134
 20
17.5315
 30
0.0
 10
22.3248
 20
17.5302
 30
0.0
 10
22.2446
 20
17.5147
 30
0.0
 10
22.1721
 20
17.4856
 30
0.0
 10
22.1721
 20
17.4856
 30
0.0
 10
22.099
 20
17.4565
 30
0.0
 10
22.0357
 20
17.4164
 30
0.0
 10
21.9807
 20
17.3653
 30
0.0
 10
21.9807
 20
17.3653
 30
0.0
 10
21.9257
 20
17.3142
 30
0.0
 10
21.8804
 20
17.2547
 30
0.0
 10
21.8449
 20
17.1874
 30
0.0
 10
21.8449
 20
17.1874
 30
0.0
 10
21.8093
 20
17.1195
 30
0.0
 10
21.7841
 20
17.0471
 30
0.0
 10
21.7692
 20
16.9688
 30
0.0
 10
21.7692
 20
16.9688
 30
0.0
 10
21.7692
 20
16.9688
 30
0.0
 10
21.7614
 20
16.9688
 30
0.0
 10
21.7614
 20
16.9688
 30
0.0
 10
21.7614
 20
16.9688
 30
0.0
 10
21.7233
 20
17.071
 30
0.0
 10
21.6748
 20
17.157
 30
0.0
 10
21.6153
 20
17.2256
 30
0.0
 10
21.6153
 20
17.2256
 30
0.0
 10
21.5558
 20
17.2948
 30
0.0
 10
21.4872
 20
17.3472
 30
0.0
 10
21.4109
 20
17.3821
 30
0.0
 10
21.4109
 20
17.3821
 30
0.0
 10
21.3346
 20
17.417
 30
0.0
 10
21.2524
 20
17.4345
 30
0.0
 10
21.1638
 20
17.4345
 30
0.0
 10
21.1638
 20
17.4345
 30
0.0
 10
21.0862
 20
17.4345
 30
0.0
 10
21.0118
 20
17.4203
 30
0.0
 10
20.9407
 20
17.3918
 30
0.0
 10
20.9407
 20
17.3918
 30
0.0
 10
20.8689
 20
17.3627
 30
0.0
 10
20.8049
 20
17.3187
 30
0.0
 10
20.7479
 20
17.2599
 30
0.0
 10
20.7479
 20
17.2599
 30
0.0
 10
20.691
 20
17.201
 30
0.0
 10
20.6464
 20
17.126
 30
0.0
 10
20.6134
 20
17.0348
 30
0.0
 10
20.6134
 20
17.0348
 30
0.0
 10
20.5798
 20
16.9442
 30
0.0
 10
20.563
 20
16.8369
 30
0.0
 10
20.5623
 20
16.7127
 30
0.0
 10
20.5623
 20
16.7127
 30
0.0
 10
20.563
 20
16.6215
 30
0.0
 10
20.5727
 20
16.5342
 30
0.0
 10
20.5908
 20
16.4501
 30
0.0
 10
20.5908
 20
16.4501
 30
0.0
 10
20.6095
 20
16.366
 30
0.0
 10
20.6335
 20
16.2897
 30
0.0
 10
20.6626
 20
16.2212
 30
0.0
 10
20.6626
 20
16.2212
 30
0.0
 10
20.6923
 20
16.1526
 30
0.0
 10
20.7234
 20
16.095
 30
0.0
 10
20.7564
 20
16.0491
 30
0.0
 10
20.7564
 20
16.0491
 30
0.0
 10
20.7564
 20
16.0491
 30
0.0
 10
21.0047
 20
16.1423
 30
0.0
 10
21.0047
 20
16.1423
 30
0.0
 10
21.0047
 20
16.1423
 30
0.0
 10
20.9782
 20
16.1791
 30
0.0
 10
20.9523
 20
16.2237
 30
0.0
 10
20.9271
 20
16.2768
 30
0.0
 10
20.9271
 20
16.2768
 30
0.0
 10
20.9012
 20
16.3292
 30
0.0
 10
20.8805
 20
16.3874
 30
0.0
 10
20.8637
 20
16.4508
 30
0.0
 10
20.8637
 20
16.4508
 30
0.0
 10
20.8469
 20
16.5135
 30
0.0
 10
20.8385
 20
16.5788
 30
0.0
 10
20.8378
 20
16.6467
 30
0.0
 10
20.8378
 20
16.6467
 30
0.0
 10
20.8385
 20
16.7515
 30
0.0
 10
20.8566
 20
16.8362
 30
0.0
 10
20.8915
 20
16.9009
 30
0.0
 10
20.8915
 20
16.9009
 30
0.0
 10
20.9265
 20
16.9662
 30
0.0
 10
20.9724
 20
17.0141
 30
0.0
 10
21.0299
 20
17.0445
 30
0.0
 10
21.0299
 20
17.0445
 30
0.0
 10
21.0869
 20
17.0749
 30
0.0
 10
21.1496
 20
17.0898
 30
0.0
 10
21.2181
 20
17.0891
 30
0.0
 10
21.2181
 20
17.0891
 30
0.0
 10
21.2925
 20
17.0885
 30
0.0
 10
21.3572
 20
17.0704
 30
0.0
 10
21.4109
 20
17.0361
 30
0.0
 10
21.4109
 20
17.0361
 30
0.0
 10
21.4646
 20
17.0018
 30
0.0
 10
21.5092
 20
16.9565
 30
0.0
 10
21.5435
 20
16.9009
 30
0.0
 10
21.5435
 20
16.9009
 30
0.0
 10
21.5784
 20
16.8453
 30
0.0
 10
21.6036
 20
16.7845
 30
0.0
 10
21.6204
 20
16.7192
 30
0.0
 10
21.6204
 20
16.7192
 30
0.0
 10
21.6366
 20
16.6538
 30
0.0
 10
21.645
 20
16.5898
 30
0.0
 10
21.645
 20
16.5264
 30
0.0
 10
21.645
 20
16.5264
 30
0.0
 10
21.645
 20
16.5264
 30
0.0
 10
21.645
 20
16.3363
 30
0.0
 10
21.645
 20
16.3363
 30
0.0
 10
21.645
 20
16.3363
 30
0.0
 10
21.645
 20
16.3363
 30
0.0
 10
21.9011
 20
16.3363
 30
0.0
 10
21.9011
 20
16.3363
 30
0.0
 10
21.9011
 20
16.3363
 30
0.0
 10
21.9011
 20
16.3363
 30
0.0
 10
21.9011
 20
16.5264
 30
0.0
 10
21.9011
 20
16.5264
 30
0.0
 10
21.9011
 20
16.5264
 30
0.0
 10
21.9011
 20
16.6099
 30
0.0
 10
21.9108
 20
16.6901
 30
0.0
 10
21.9302
 20
16.767
 30
0.0
 10
21.9302
 20
16.767
 30
0.0
 10
21.9496
 20
16.844
 30
0.0
 10
21.98
 20
16.9132
 30
0.0
 10
22.0208
 20
16.9746
 30
0.0
 10
22.0208
 20
16.9746
 30
0.0
 10
22.0615
 20
17.0361
 30
0.0
 10
22.1139
 20
17.0852
 30
0.0
 10
22.1779
 20
17.1215
 30
0.0
 10
22.1779
 20
17.1215
 30
0.0
 10
22.2413
 20
17.1577
 30
0.0
 10
22.3176
 20
17.1764
 30
0.0
 10
22.4056
 20
17.1784
 30
0.0
 10
22.4056
 20
17.1784
 30
0.0
 10
22.4599
 20
17.1797
 30
0.0
 10
22.5156
 20
17.1713
 30
0.0
 10
22.5718
 20
17.1519
 30
0.0
 10
22.5718
 20
17.1519
 30
0.0
 10
22.6287
 20
17.1331
 30
0.0
 10
22.6818
 20
17.1014
 30
0.0
 10
22.7303
 20
17.0574
 30
0.0
 10
22.7303
 20
17.0574
 30
0.0
 10
22.7788
 20
17.0134
 30
0.0
 10
22.8182
 20
16.9546
 30
0.0
 10
22.848
 20
16.8809
 30
0.0
 10
22.848
 20
16.8809
 30
0.0
 10
22.8784
 20
16.8071
 30
0.0
 10
22.8939
 20
16.7166
 30
0.0
 10
22.8946
 20
16.6079
 30
0.0
 10
22.8946
 20
16.6079
 30
0.0
 10
22.8939
 20
16.5271
 30
0.0
 10
22.8849
 20
16.4501
 30
0.0
 10
22.8674
 20
16.3777
 30
0.0
 10
22.8674
 20
16.3777
 30
0.0
 10
22.8499
 20
16.3052
 30
0.0
 10
22.8292
 20
16.2406
 30
0.0
 10
22.8053
 20
16.1836
 30
0.0
 10
22.8053
 20
16.1836
 30
0.0
 10
22.7814
 20
16.1267
 30
0.0
 10
22.7594
 20
16.0821
 30
0.0
 10
22.7393
 20
16.0491
 30
0.0
 10
22.7393
 20
16.0491
 30
0.0
 10
22.7393
 20
16.0491
 30
0.0
 10
22.9993
 20
15.956
 30
0.0
 10
22.9993
 20
15.956
 30
0.0
  0
SPLINE
  5
90
330
1F
100
AcDbEntity
  8
ROUND
 62
   250
100
AcDbSpline
210
0.0
220
0.0
230
1.0
 70
    11
 71
     3
 72
   132
 73
   128
 74
     0
 42
0.0000000001
 43
0.0000000001
 40
0.0
 40
0.0
 40
0.0
 40
0.0
 40
0.0303030303030303
 40
0.0303030303030303
 40
0.0303030303030303
 40
0.0303030303030303
 40
0.0606060606060606
 40
0.0606060606060606
 40
0.0606060606060606
 40
0.0606060606060606
 40
0.0909090909090909
 40
0.0909090909090909
 40
0.0909090909090909
 40
0.0909090909090909
 40
0.1212121212121212
 40
0.1212121212121212
 40
0.1212121212121212
 40
0.1212121212121212
 40
0.1515151515151515
 40
0.1515151515151515
 40
0.1515151515151515
 40
0.1515151515151515
 40
0.1818181818181818
 40
0.1818181818181818
 40
0.1818181818181818
 40
0.1818181818181818
 40
0.2121212121212121
 40
0.2121212121212121
 40
0.2121212121212121
 40
0.2121212121212121
 40
0.2424242424242424
 40
0.2424242424242424
 40
0.2424242424242424
 40
0.2424242424242424
 40
0.2727272727272727
 40
0.2727272727272727
 40
0.2727272727272727
 40
0.2727272727272727
 40
0.303030303030303
 40
0.303030303030303
 40
0.303030303030303
 40
0.303030303030303
 40
0.3333333333333333
 40
0.3333333333333333
 40
0.3333333333333333
 40
0.3333333333333333
 40
0.3636363636363636
 40
0.3636363636363636
 40
0.3636363636363636
 40
0.3636363636363636
 40
0.3939393939393939
 40
0.3939393939393939
 40
0.3939393939393939
 40
0.3939393939393939
 40
0.4242424242424243
 40
0.4242424242424243
 40
0.4242424242424243
 40
0.4242424242424243
 40
0.4545454545454545
 40
0.4545454545454545
 40
0.4545454545454545
 40
0.4545454545454545
 40
0.4848484848484849
 40
0.4848484848484849
 40
0.4848484848484849
 40
0.4848484848484849
 40
0.5151515151515151
 40
0.5151515151515151
 40
0.5151515151515151
 40
0.5151515151515151
 40
0.5454545454545454
 40
0.5454545454545454
 40
0.5454545454545454
 40
0.5454545454545454
 40
0.5757575757575758
 40
0.5757575757575758
 40
0.5757575757575758
 40
0.5757575757575758
 40
0.6060606060606061
 40
0.6060606060606061
 40
0.6060606060606061
 40
0.6060606060606061
 40
0.6363636363636364
 40
0.6363636363636364
 40
0.6363636363636364
 40
0.6363636363636364
 40
0.6666666666666666
 40
0.6666666666666666
 40
0.6666666666666666
 40
0.6666666666666666
 40
0.696969696969697
 40
0.696969696969697
 40
0.696969696969697
 40
0.696969696969697
 40
0.7272727272727273
 40
0.7272727272727273
 40
0.7272727272727273
 40
0.7272727272727273
 40
0.7575757575757576
 40
0.7575757575757576
 40
0.7575757575757576
 40
0.7575757575757576
 40
0.7878787878787878
 40
0.7878787878787878
 40
0.7878787878787878
 40
0.7878787878787878
 40
0.8181818181818182
 40
0.8181818181818182
 40
0.8181818181818182
 40
0.8181818181818182
 40
0.8484848484848485
 40
0.8484848484848485
 40
0.8484848484848485
 40
0.8484848484848485
 40
0.8787878787878788
 40
0.8787878787878788
 40
0.8787878787878788
 40
0.8787878787878788
 40
0.9090909090909091
 40
0.9090909090909091
 40
0.9090909090909091
 40
0.9090909090909091
 40
0.9393939393939394
 40
0.9393939393939394
 40
0.9393939393939394
 40
0.9393939393939394
 40
1.0
 40
1.0
 40
1.0
 40
1.0
 10
20.605
 20
19.464
 30
0.0
 10
20.605
 20
19.464
 30
0.0
 10
20.605
 20
18.2571
 30
0.0
 10
20.605
 20
18.2571
 30
0.0
 10
20.605
 20
18.2571
 30
0.0
 10
20.605
 20
18.2571
 30
0.0
 10
21.8158
 20
18.0941
 30
0.0
 10
21.8158
 20
18.0941
 30
0.0
 10
21.8158
 20
18.0941
 30
0.0
 10
21.8093
 20
18.1407
 30
0.0
 10
21.8041
 20
18.1925
 30
0.0
 10
21.7996
 20
18.2507
 30
0.0
 10
21.7996
 20
18.2507
 30
0.0
 10
21.7951
 20
18.3082
 30
0.0
 10
21.7925
 20
18.3742
 30
0.0
 10
21.7925
 20
18.4473
 30
0.0
 10
21.7925
 20
18.4473
 30
0.0
 10
21.7931
 20
18.6141
 30
0.0
 10
21.8171
 20
18.7506
 30
0.0
 10
21.8636
 20
18.8567
 30
0.0
 10
21.8636
 20
18.8567
 30
0.0
 10
21.9108
 20
18.9634
 30
0.0
 10
21.9755
 20
19.0423
 30
0.0
 10
22.0583
 20
19.0934
 30
0.0
 10
22.0583
 20
19.0934
 30
0.0
 10
22.1417
 20
19.1445
 30
0.0
 10
22.2381
 20
19.1697
 30
0.0
 10
22.3474
 20
19.1691
 30
0.0
 10
22.3474
 20
19.1691
 30
0.0
 10
22.4321
 20
19.1697
 30
0.0
 10
22.5078
 20
19.1542
 30
0.0
 10
22.5751
 20
19.1225
 30
0.0
 10
22.5751
 20
19.1225
 30
0.0
 10
22.643
 20
19.0915
 30
0.0
 10
22.6999
 20
19.0481
 30
0.0
 10
22.7477
 20
18.9932
 30
0.0
 10
22.7477
 20
18.9932
 30
0.0
 10
22.795
 20
18.9382
 30
0.0
 10
22.8312
 20
18.8748
 30
0.0
 10
22.8564
 20
18.803
 30
0.0
 10
22.8564
 20
18.803
 30
0.0
 10
22.8816
 20
18.7312
 30
0.0
 10
22.8946
 20
18.6555
 30
0.0
 10
22.8946
 20
18.5753
 30
0.0
 10
22.8946
 20
18.5753
 30
0.0
 10
22.8939
 20
18.4971
 30
0.0
 10
22.8868
 20
18.4234
 30
0.0
 10
22.8719
 20
18.3541
 30
0.0
 10
22.8719
 20
18.3541
 30
0.0
 10
22.8577
 20
18.2849
 30
0.0
 10
22.8402
 20
18.2229
 30
0.0
 10
22.8189
 20
18.1679
 30
0.0
 10
22.8189
 20
18.1679
 30
0.0
 10
22.7975
 20
18.1129
 30
0.0
 10
22.7762
 20
18.0676
 30
0.0
 10
22.7549
 20
18.0321
 30
0.0
 10
22.7549
 20
18.0321
 30
0.0
 10
22.7549
 20
18.0321
 30
0.0
 10
23.0149
 20
17.9467
 30
0.0
 10
23.0149
 20
17.9467
 30
0.0
 10
23.0149
 20
17.9467
 30
0.0
 10
23.0414
 20
17.9887
 30
0.0
 10
23.066
 20
18.0411
 30
0.0
 10
23.0899
 20
18.1038
 30
0.0
 10
23.0899
 20
18.1038
 30
0.0
 10
23.1132
 20
18.1666
 30
0.0
 10
23.1319
 20
18.2377
 30
0.0
 10
23.1468
 20
18.3173
 30
0.0
 10
23.1468
 20
18.3173
 30
0.0
 10
23.1617
 20
18.3975
 30
0.0
 10
23.1694
 20
18.4835
 30
0.0
 10
23.1701
 20
18.5753
 30
0.0
 10
23.1701
 20
18.5753
 30
0.0
 10
23.1694
 20
18.7131
 30
0.0
 10
23.1474
 20
18.8386
 30
0.0
 10
23.1048
 20
18.9531
 30
0.0
 10
23.1048
 20
18.9531
 30
0.0
 10
23.0621
 20
19.0675
 30
0.0
 10
23.0019
 20
19.1665
 30
0.0
 10
22.9243
 20
19.2499
 30
0.0
 10
22.9243
 20
19.2499
 30
0.0
 10
22.8467
 20
19.334
 30
0.0
 10
22.7555
 20
19.3987
 30
0.0
 10
22.6514
 20
19.4446
 30
0.0
 10
22.6514
 20
19.4446
 30
0.0
 10
22.5466
 20
19.4905
 30
0.0
 10
22.4321
 20
19.5138
 30
0.0
 10
22.3086
 20
19.5144
 30
0.0
 10
22.3086
 20
19.5144
 30
0.0
 10
22.2038
 20
19.5138
 30
0.0
 10
22.1094
 20
19.497
 30
0.0
 10
22.026
 20
19.4646
 30
0.0
 10
22.026
 20
19.4646
 30
0.0
 10
21.9425
 20
19.4323
 30
0.0
 10
21.8707
 20
19.3896
 30
0.0
 10
21.8099
 20
19.3353
 30
0.0
 10
21.8099
 20
19.3353
 30
0.0
 10
21.7491
 20
19.281
 30
0.0
 10
21.7006
 20
19.2202
 30
0.0
 10
21.6644
 20
19.1536
 30
0.0
 10
21.6644
 20
19.1536
 30
0.0
 10
21.6166
 20
19.0753
 30
0.0
 10
21.5816
 20
18.9906
 30
0.0
 10
21.5603
 20
18.8981
 30
0.0
 10
21.5603
 20
18.8981
 30
0.0
 10
21.5389
 20
18.8056
 30
0.0
 10
21.5279
 20
18.7099
 30
0.0
 10
21.5286
 20
18.6103
 30
0.0
 10
21.5286
 20
18.6103
 30
0.0
 10
21.5286
 20
18.565
 30
0.0
 10
21.5292
 20
18.5262
 30
0.0
 10
21.5312
 20
18.4945
 30
0.0
 10
21.5312
 20
18.4945
 30
0.0
 10
21.5331
 20
18.4628
 30
0.0
 10
21.5364
 20
18.4331
 30
0.0
 10
21.5402
 20
18.4046
 30
0.0
 10
21.5402
 20
18.4046
 30
0.0
 10
21.5402
 20
18.4046
 30
0.0
 10
20.8922
 20
18.5016
 30
0.0
 10
20.8922
 20
18.5016
 30
0.0
 10
20.8922
 20
18.5016
 30
0.0
 10
20.8922
 20
18.5016
 30
0.0
 10
20.8922
 20
19.464
 30
0.0
 10
20.8922
 20
19.464
 30
0.0
 10
20.8922
 20
19.464
 30
0.0
 10
20.8922
 20
19.464
 30
0.0
 10
20.605
 20
19.464
 30
0.0
 10
20.605
 20
19.464
 30
0.0
  0
SPLINE
  5
91
330
1F
100
AcDbEntity
  8
ROUND
 62
   250
370
    15
100
AcDbSpline
210
0.0
220
0.0
230
1.0
 70
    24
 71
     3
 72
     8
 73
     4
 74
     0
 42
0.0000000001
 43
0.0000000001
 40
0.0
 40
0.0
 40
0.0
 40
0.0
 40
1.0
 40
1.0
 40
1.0
 40
1.0
 10
23.7139
 20
24.6857
 30
0.0
 10
23.7139
 20
24.6857
 30
0.0
 10
23.7139
 20
5.5038
 30
0.0
 10
23.7139
 20
5.5038
 30
0.0
  0
SPLINE
  5
92
330
1F
100
AcDbEntity
  8
ROUND
 62
   250
370
     9
100
AcDbSpline
210
0.0
220
0.0
230
1.0
 70
    11
 71
     3
 72
    32
 73
    28
 74
     0
 42
0.0000000001
 43
0.0000000001
 40
0.0
 40
0.0
 40
0.0
 40
0.0
 40
0.125
 40
0.125
 40
0.125
 40
0.125
 40
0.25
 40
0.25
 40
0.25
 40
0.25
 40
0.375
 40
0.375
 40
0.375
 40
0.375
 40
0.5
 40
0.5
 40
0.5
 40
0.5
 40
0.625
 40
0.625
 40
0.625
 40
0.625
 40
0.75
 40
0.75
 40
0.75
 40
0.75
 40
1.0
 40
1.0
 40
1.0
 40
1.0
 10
24.1377
 20
24.0695
 30
0.0
 10
24.1377
 20
24.0695
 30
0.0
 10
24.1377
 20
24.0695
 30
0.0
 10
24.1377
 20
24.0695
 30
0.0
 10
24.1377
 20
24.0695
 30
0.0
 10
24.1377
 20
24.0695
 30
0.0
 10
24.1377
 20
24.0695
 30
0.0
 10
24.1377
 20
24.0695
 30
0.0
 10
24.1377
 20
24.0695
 30
0.0
 10
24.1377
 20
24.0695
 30
0.0
 10
23.6943
 20
25.3423
 30
0.0
 10
23.6943
 20
25.3423
 30
0.0
 10
23.6943
 20
25.3423
 30
0.0
 10
23.6943
 20
25.3423
 30
0.0
 10
23.2509
 20
24.0695
 30
0.0
 10
23.2509
 20
24.0695
 30
0.0
 10
23.2509
 20
24.0695
 30
0.0
 10
23.2509
 20
24.0695
 30
0.0
 10
23.2509
 20
24.0695
 30
0.0
 10
23.2509
 20
24.0695
 30
0.0
 10
23.2509
 20
24.0695
 30
0.0
 10
23.2509
 20
24.0695
 30
0.0
 10
23.2509
 20
24.0695
 30
0.0
 10
23.2509
 20
24.0695
 30
0.0
 10
23.2509
 20
24.0695
 30
0.0
 10
23.2509
 20
24.0695
 30
0.0
 10
24.1377
 20
24.0695
 30
0.0
 10
24.1377
 20
24.0695
 30
0.0
  0
SPLINE
  5
93
330
1F
100
AcDbEntity
  8
ROUND
 62
   250
370
     9
100
AcDbSpline
210
0.0
220
0.0
230
1.0
 70
    11
 71
     3
 72
    32
 73
    28
 74
     0
 42
0.0000000001
 43
0.0000000001
 40
0.0
 40
0.0
 40
0.0
 40
0.0
 40
0.125
 40
0.125
 40
0.125
 40
0.125
 40
0.25
 40
0.25
 40
0.25
 40
0.25
 40
0.375
 40
0.375
 40
0.375
 40
0.375
 40
0.5
 40
0.5
 40
0.5
 40
0.5
 40
0.625
 40
0.625
 40
0.625
 40
0.625
 40
0.75
 40
0.75
 40
0.75
 40
0.75
 40
1.0
 40
1.0
 40
1.0
 40
1.0
 10
24.1705
 20
6.178
 30
0.0
 10
24.1705
 20
6.178
 30
0.0
 10
24.1705
 20
6.178
 30
0.0
 10
24.1705
 20
6.178
 30
0.0
 10
24.1705
 20
6.178
 30
0.0
 10
24.1705
 20
6.178
 30
0.0
 10
24.1705
 20
6.178
 30
0.0
 10
24.1705
 20
6.178
 30
0.0
 10
24.1705
 20
6.178
 30
0.0
 10
24.1705
 20
6.178
 30
0.0
 10
23.7271
 20
4.9034
 30
0.0
 10
23.7271
 20
4.9034
 30
0.0
 10
23.7271
 20
4.9034
 30
0.0
 10
23.7271
 20
4.9034
 30
0.0
 10
23.2837
 20
6.178
 30
0.0
 10
23.2837
 20
6.178
 30
0.0
 10
23.2837
 20
6.178
 30
0.0
 10
23.2837
 20
6.178
 30
0.0
 10
23.2837
 20
6.178
 30
0.0
 10
23.2837
 20
6.178
 30
0.0
 10
23.2837
 20
6.178
 30
0.0
 10
23.2837
 20
6.178
 30
0.0
 10
23.2837
 20
6.178
 30
0.0
 10
23.2837
 20
6.178
 30
0.0
 10
23.2837
 20
6.178
 30
0.0
 10
23.2837
 20
6.178
 30
0.0
 10
24.1705
 20
6.178
 30
0.0
 10
24.1705
 20
6.178
 30
0.0
  0
SPLINE
  5
94
330
1F
100
AcDbEntity
  8
ROUND
 62
   250
370
    15
100
AcDbSpline
210
0.0
220
0.0
230
1.0
 70
    24
 71
     3
 72
     8
 73
     4
 74
     0
 42
0.0000000001
 43
0.0000000001
 40
0.0
 40
0.0
 40
0.0
 40
0.0
 40
1.0
 40
1.0
 40
1.0
 40
1.0
 10
12.4859
 20
6.6719
 30
0.0
 10
12.4859
 20
6.6719
 30
0.0
 10
19.0122
 20
6.6719
 30
0.0
 10
19.0122
 20
6.6719
 30
0.0
  0
ENDSEC
  0
SECTION
  2
OBJECTS
  0
DICTIONARY
  5
C
330
0
100
AcDbDictionary
281
     1
  3
ACAD_GROUP
350
D
  3
ACAD_LAYOUT
350
1A
  3
ACAD_MATERIAL
350
3B
  3
ACAD_MLEADERSTYLE
350
97
  3
ACAD_MLINESTYLE
350
17
  3
ACAD_PLOTSETTINGS
350
19
  3
ACAD_PLOTSTYLENAME
350
E
  3
ACAD_VISUALSTYLE
350
2A
  3
AcDbVariableDictionary
350
95
  0
DICTIONARY
  5
D
102
{ACAD_REACTORS
330
C
102
}
330
C
100
AcDbDictionary
281
     1
  0
DICTIONARY
  5
1A
102
{ACAD_REACTORS
330
C
102
}
330
C
100
AcDbDictionary
281
     1
  3
Layout1
350
1E
  3
Layout2
350
26
  3
Model
350
22
  0
DICTIONARY
  5
3B
102
{ACAD_REACTORS
330
C
102
}
330
C
100
AcDbDictionary
281
     1
  3
ByBlock
350
3D
  3
ByLayer
350
3C
  3
Global
350
3E
  0
DICTIONARY
  5
97
102
{ACAD_REACTORS
330
C
102
}
330
C
100
AcDbDictionary
281
     1
  0
DICTIONARY
  5
17
102
{ACAD_REACTORS
330
C
102
}
330
C
100
AcDbDictionary
281
     1
  3
Standard
350
18
  0
DICTIONARY
  5
19
102
{ACAD_REACTORS
330
C
102
}
330
C
100
AcDbDictionary
281
     1
  0
ACDBDICTIONARYWDFLT
  5
E
102
{ACAD_REACTORS
330
C
102
}
330
C
100
AcDbDictionary
281
     1
  3
Normal
350
F
100
AcDbDictionaryWithDefault
340
F
  0
DICTIONARY
  5
2A
102
{ACAD_REACTORS
330
C
102
}
330
C
100
AcDbDictionary
281
     1
  3
2dWireframe
350
2F
  3
3D Hidden
350
31
  3
3dWireframe
350
30
  3
Basic
350
32
  3
Brighten
350
36
  3
ColorChange
350
3A
  3
Conceptual
350
34
  3
Dim
350
35
  3
Facepattern
350
39
  3
Flat
350
2B
  3
FlatWithEdges
350
2C
  3
Gouraud
350
2D
  3
GouraudWithEdges
350
2E
  3
Linepattern
350
38
  3
Realistic
350
33
  3
Thicken
350
37
  0
DICTIONARY
  5
95
102
{ACAD_REACTORS
330
C
102
}
330
C
100
AcDbDictionary
281
     1
  3
DIMASSOC
350
98
  3
HIDETEXT
350
99
  0
LAYOUT
  5
1E
102
{ACAD_REACTORS
330
1A
102
}
330
1A
100
AcDbPlotSettings
  1

  2
none_device
  4

  6

 40
0.0
 41
0.0
 42
0.0
 43
0.0
 44
0.0
 45
0.0
 46
0.0
 47
0.0
 48
0.0
 49
0.0
140
0.0
141
0.0
142
1.0
143
1.0
 70
   688
 72
     0
 73
     0
 74
     5
  7

 75
    16
147
1.0
148
0.0
149
0.0
100
AcDbLayout
  1
Layout1
 70
     1
 71
     1
 10
0.0
 20
0.0
 11
12.0
 21
9.0
 12
0.0
 22
0.0
 32
0.0
 14
1.000000000000000E+20
 24
1.000000000000000E+20
 34
1.000000000000000E+20
 15
-1.000000000000000E+20
 25
-1.000000000000000E+20
 35
-1.000000000000000E+20
146
0.0
 13
0.0
 23
0.0
 33
0.0
 16
1.0
 26
0.0
 36
0.0
 17
0.0
 27
1.0
 37
0.0
 76
     0
330
1B
  0
LAYOUT
  5
26
102
{ACAD_REACTORS
330
1A
102
}
330
1A
100
AcDbPlotSettings
  1

  2
none_device
  4

  6

 40
0.0
 41
0.0
 42
0.0
 43
0.0
 44
0.0
 45
0.0
 46
0.0
 47
0.0
 48
0.0
 49
0.0
140
0.0
141
0.0
142
1.0
143
1.0
 70
   688
 72
     0
 73
     0
 74
     5
  7

 75
    16
147
1.0
148
0.0
149
0.0
100
AcDbLayout
  1
Layout2
 70
     1
 71
     2
 10
0.0
 20
0.0
 11
0.0
 21
0.0
 12
0.0
 22
0.0
 32
0.0
 14
0.0
 24
0.0
 34
0.0
 15
0.0
 25
0.0
 35
0.0
146
0.0
 13
0.0
 23
0.0
 33
0.0
 16
1.0
 26
0.0
 36
0.0
 17
0.0
 27
1.0
 37
0.0
 76
     0
330
23
  0
LAYOUT
  5
22
102
{ACAD_REACTORS
330
1A
102
}
330
1A
100
AcDbPlotSettings
  1

  2
none_device
  4

  6

 40
0.0
 41
0.0
 42
0.0
 43
0.0
 44
0.0
 45
0.0
 46
0.0
 47
0.0
 48
0.0
 49
0.0
140
0.0
141
0.0
142
1.0
143
1.0
 70
  1712
 72
     0
 73
     0
 74
     0
  7

 75
     0
147
1.0
148
0.0
149
0.0
100
AcDbLayout
  1
Model
 70
     1
 71
     0
 10
0.0
 20
0.0
 11
12.0
 21
9.0
 12
0.0
 22
0.0
 32
0.0
 14
-24.3699
 24
-30.0259
 34
0.0
 15
24.37
 25
29.9724
 35
0.0
146
0.0
 13
0.0
 23
0.0
 33
0.0
 16
1.0
 26
0.0
 36
0.0
 17
0.0
 27
1.0
 37
0.0
 76
     0
330
1F
331
29
  0
MATERIAL
  5
3D
102
{ACAD_REACTORS
330
3B
102
}
102
{ACAD_XDICTIONARY
360
BC
102
}
330
3B
100
AcDbMaterial
  1
ByBlock
  0
MATERIAL
  5
3C
102
{ACAD_REACTORS
330
3B
102
}
102
{ACAD_XDICTIONARY
360
BA
102
}
330
3B
100
AcDbMaterial
  1
ByLayer
  0
MATERIAL
  5
3E
102
{ACAD_REACTORS
330
3B
102
}
102
{ACAD_XDICTIONARY
360
BE
102
}
330
3B
100
AcDbMaterial
  1
Global
  0
MLINESTYLE
  5
18
102
{ACAD_REACTORS
330
17
102
}
330
17
100
AcDbMlineStyle
  2
Standard
 70
     0
  3

 62
   256
 51
90.0
 52
90.0
 71
     2
 49
0.5
 62
   256
  6
BYLAYER
 49
-0.5
 62
   256
  6
BYLAYER
  0
ACDBPLACEHOLDER
  5
F
102
{ACAD_REACTORS
330
E
102
}
330
E
  0
VISUALSTYLE
  5
2F
102
{ACAD_REACTORS
330
2A
102
}
102
{ACAD_XDICTIONARY
360
A2
102
}
330
2A
100
AcDbVisualStyle
  2
2dWireframe
 70
     4
 71
     0
 72
     2
 73
     0
 90
        0
 40
-0.6
 41
-30.0
 62
     5
 63
     7
 74
     1
 91
        4
 64
     7
 65
   257
 75
     1
175
     1
 42
1.0
 92
        0
 66
   257
 43
1.0
 76
     1
 77
     6
 78
     2
 67
     7
 79
     5
170
     0
171
     0
290
     0
174
     0
 93
        1
 44
0.0
173
     0
291
     0
 45
0.0
1001
ACAD
1000
AcDbSavedByObjectVersion
1070
     0
  0
VISUALSTYLE
  5
31
102
{ACAD_REACTORS
330
2A
102
}
102
{ACAD_XDICTIONARY
360
A6
102
}
330
2A
100
AcDbVisualStyle
  2
3D Hidden
 70
     6
 71
     1
 72
     2
 73
     2
 90
        0
 40
-0.6
 41
-30.0
 62
     5
 63
     7
 74
     2
 91
        2
 64
     7
 65
   257
 75
     2
175
     1
 42
40.0
 92
        0
 66
   257
 43
1.0
 76
     1
 77
     6
 78
     2
 67
     7
 79
     3
170
     0
171
     0
290
     0
174
     0
 93
        1
 44
0.0
173
     0
291
     0
 45
0.0
1001
ACAD
1000
AcDbSavedByObjectVersion
1070
     0
  0
VISUALSTYLE
  5
30
102
{ACAD_REACTORS
330
2A
102
}
102
{ACAD_XDICTIONARY
360
A4
102
}
330
2A
100
AcDbVisualStyle
  2
3dWireframe
 70
     5
 71
     0
 72
     2
 73
     0
 90
        0
 40
-0.6
 41
-30.0
 62
     5
 63
     7
 74
     1
 91
        4
 64
     7
 65
   257
 75
     1
175
     1
 42
1.0
 92
        0
 66
   257
 43
1.0
 76
     1
 77
     6
 78
     2
 67
     7
 79
     5
170
     0
171
     0
290
     0
174
     0
 93
        1
 44
0.0
173
     0
291
     0
 45
0.0
1001
ACAD
1000
AcDbSavedByObjectVersion
1070
     0
  0
VISUALSTYLE
  5
32
102
{ACAD_REACTORS
330
2A
102
}
102
{ACAD_XDICTIONARY
360
A8
102
}
330
2A
100
AcDbVisualStyle
  2
Basic
 70
     7
 71
     1
 72
     0
 73
     1
 90
        0
 40
-0.6
 41
-30.0
 62
     5
 63
     7
 74
     0
 91
        4
 64
     7
 65
   257
 75
     1
175
     1
 42
1.0
 92
        8
 66
     7
 43
1.0
 76
     1
 77
     6
 78
     2
 67
     7
 79
     5
170
     0
171
     0
290
     0
174
     0
 93
        1
 44
0.0
173
     0
291
     1
 45
0.0
1001
ACAD
1000
AcDbSavedByObjectVersion
1070
     0
  0
VISUALSTYLE
  5
36
102
{ACAD_REACTORS
330
2A
102
}
102
{ACAD_XDICTIONARY
360
B0
102
}
330
2A
100
AcDbVisualStyle
  2
Brighten
 70
    12
 71
     2
 72
     2
 73
     0
 90
        0
 40
-0.6
 41
-30.0
 62
     5
 63
     7
 74
     1
 91
        4
 64
     7
 65
   257
 75
     1
175
     1
 42
1.0
 92
        8
 66
     7
 43
1.0
 76
     1
 77
     6
 78
     2
 67
     7
 79
     5
170
     0
171
     0
290
     0
174
     0
 93
        1
 44
50.0
173
     0
291
     1
 45
0.0
1001
ACAD
1000
AcDbSavedByObjectVersion
1070
     0
  0
VISUALSTYLE
  5
3A
102
{ACAD_REACTORS
330
2A
102
}
102
{ACAD_XDICTIONARY
360
B8
102
}
330
2A
100
AcDbVisualStyle
  2
ColorChange
 70
    16
 71
     2
 72
     2
 73
     3
 90
        0
 40
-0.6
 41
-30.0
 62
     5
 63
     8
 74
     1
 91
        4
 64
     7
 65
   257
 75
     1
175
     1
 42
1.0
 92
        8
 66
     8
 43
1.0
 76
     1
 77
     6
 78
     2
 67
     7
 79
     5
170
     0
171
     0
290
     0
174
     0
 93
        1
 44
0.0
173
     0
291
     1
 45
0.0
1001
ACAD
1000
AcDbSavedByObjectVersion
1070
     0
  0
VISUALSTYLE
  5
34
102
{ACAD_REACTORS
330
2A
102
}
102
{ACAD_XDICTIONARY
360
AC
102
}
330
2A
100
AcDbVisualStyle
  2
Conceptual
 70
     9
 71
     3
 72
     2
 73
     0
 90
        0
 40
-0.6
 41
-30.0
 62
     5
 63
     7
 74
     2
 91
        2
 64
     7
 65
   257
 75
     1
175
     1
 42
40.0
 92
        8
 66
     7
 43
1.0
 76
     1
 77
     6
 78
     2
 67
     7
 79
     3
170
     0
171
     0
290
     0
174
     0
 93
        1
 44
0.0
173
     0
291
     0
 45
0.0
1001
ACAD
1000
AcDbSavedByObjectVersion
1070
     0
  0
VISUALSTYLE
  5
35
102
{ACAD_REACTORS
330
2A
102
}
102
{ACAD_XDICTIONARY
360
AE
102
}
330
2A
100
AcDbVisualStyle
  2
Dim
 70
    11
 71
     2
 72
     2
 73
     0
 90
        0
 40
-0.6
 41
-30.0
 62
     5
 63
     7
 74
     1
 91
        4
 64
     7
 65
   257
 75
     1
175
     1
 42
1.0
 92
        8
 66
     7
 43
1.0
 76
     1
 77
     6
 78
     2
 67
     7
 79
     5
170
     0
171
     0
290
     0
174
     0
 93
        1
 44
-50.0
173
     0
291
     1
 45
0.0
1001
ACAD
1000
AcDbSavedByObjectVersion
1070
     0
  0
VISUALSTYLE
  5
39
102
{ACAD_REACTORS
330
2A
102
}
102
{ACAD_XDICTIONARY
360
B6
102
}
330
2A
100
AcDbVisualStyle
  2
Facepattern
 70
    15
 71
     2
 72
     2
 73
     0
 90
        0
 40
-0.6
 41
-30.0
 62
     5
 63
     7
 74
     1
 91
        4
 64
     7
 65
   257
 75
     1
175
     1
 42
1.0
 92
        8
 66
     7
 43
1.0
 76
     1
 77
     6
 78
     2
 67
     7
 79
     5
170
     0
171
     0
290
     0
174
     0
 93
        1
 44
0.0
173
     0
291
     1
 45
0.0
1001
ACAD
1000
AcDbSavedByObjectVersion
1070
     0
  0
VISUALSTYLE
  5
2B
102
{ACAD_REACTORS
330
2A
102
}
102
{ACAD_XDICTIONARY
360
9A
102
}
330
2A
100
AcDbVisualStyle
  2
Flat
 70
     0
 71
     2
 72
     1
 73
     1
 90
        2
 40
-0.6
 41
30.0
 62
     5
 63
     7
 74
     0
 91
        4
 64
     7
 65
   257
 75
     1
175
     1
 42
1.0
 92
        8
 66
     7
 43
1.0
 76
     1
 77
     6
 78
     2
 67
     7
 79
     5
170
     0
171
     0
290
     0
174
     0
 93
       13
 44
0.0
173
     0
291
     1
 45
0.0
1001
ACAD
1000
AcDbSavedByObjectVersion
1070
     0
  0
VISUALSTYLE
  5
2C
102
{ACAD_REACTORS
330
2A
102
}
102
{ACAD_XDICTIONARY
360
9C
102
}
330
2A
100
AcDbVisualStyle
  2
FlatWithEdges
 70
     1
 71
     2
 72
     1
 73
     1
 90
        2
 40
-0.6
 41
30.0
 62
     5
 63
     7
 74
     1
 91
        4
 64
     7
 65
   257
 75
     1
175
     1
 42
1.0
 92
        0
 66
   257
 43
1.0
 76
     1
 77
     6
 78
     2
 67
     7
 79
     5
170
     0
171
     0
290
     0
174
     0
 93
       13
 44
0.0
173
     0
291
     1
 45
0.0
1001
ACAD
1000
AcDbSavedByObjectVersion
1070
     0
  0
VISUALSTYLE
  5
2D
102
{ACAD_REACTORS
330
2A
102
}
102
{ACAD_XDICTIONARY
360
9E
102
}
330
2A
100
AcDbVisualStyle
  2
Gouraud
 70
     2
 71
     2
 72
     2
 73
     1
 90
        2
 40
-0.6
 41
30.0
 62
     5
 63
     7
 74
     0
 91
        4
 64
     7
 65
   257
 75
     1
175
     1
 42
1.0
 92
        0
 66
     7
 43
1.0
 76
     1
 77
     6
 78
     2
 67
     7
 79
     5
170
     0
171
     0
290
     0
174
     0
 93
       13
 44
0.0
173
     0
291
     1
 45
0.0
1001
ACAD
1000
AcDbSavedByObjectVersion
1070
     0
  0
VISUALSTYLE
  5
2E
102
{ACAD_REACTORS
330
2A
102
}
102
{ACAD_XDICTIONARY
360
A0
102
}
330
2A
100
AcDbVisualStyle
  2
GouraudWithEdges
 70
     3
 71
     2
 72
     2
 73
     1
 90
        2
 40
-0.6
 41
30.0
 62
     5
 63
     7
 74
     1
 91
        4
 64
     7
 65
   257
 75
     1
175
     1
 42
1.0
 92
        0
 66
   257
 43
1.0
 76
     1
 77
     6
 78
     2
 67
     7
 79
     5
170
     0
171
     0
290
     0
174
     0
 93
       13
 44
0.0
173
     0
291
     1
 45
0.0
1001
ACAD
1000
AcDbSavedByObjectVersion
1070
     0
  0
VISUALSTYLE
  5
38
102
{ACAD_REACTORS
330
2A
102
}
102
{ACAD_XDICTIONARY
360
B4
102
}
330
2A
100
AcDbVisualStyle
  2
Linepattern
 70
    14
 71
     2
 72
     2
 73
     0
 90
        0
 40
-0.6
 41
-30.0
 62
     5
 63
     7
 74
     1
 91
        4
 64
     7
 65
   257
 75
     7
175
     7
 42
1.0
 92
        8
 66
     7
 43
1.0
 76
     1
 77
     6
 78
     2
 67
     7
 79
     5
170
     0
171
     0
290
     0
174
     0
 93
        1
 44
0.0
173
     0
291
     1
 45
0.0
1001
ACAD
1000
AcDbSavedByObjectVersion
1070
     0
  0
VISUALSTYLE
  5
33
102
{ACAD_REACTORS
330
2A
102
}
102
{ACAD_XDICTIONARY
360
AA
102
}
330
2A
100
AcDbVisualStyle
  2
Realistic
 70
     8
 71
     2
 72
     2
 73
     0
 90
        0
 40
-0.6
 41
-30.0
 62
     5
 63
     7
 74
     1
 91
        0
 64
     7
 65
   257
 75
     1
175
     1
 42
1.0
 92
        8
 66
     8
 43
1.0
 76
     1
 77
     6
 78
     2
 67
     7
 79
     5
170
     0
171
     0
290
     0
174
     0
 93
       13
 44
0.0
173
     0
291
     0
 45
0.0
1001
ACAD
1000
AcDbSavedByObjectVersion
1070
     0
  0
VISUALSTYLE
  5
37
102
{ACAD_REACTORS
330
2A
102
}
102
{ACAD_XDICTIONARY
360
B2
102
}
330
2A
100
AcDbVisualStyle
  2
Thicken
 70
    13
 71
     2
 72
     2
 73
     0
 90
        0
 40
-0.6
 41
-30.0
 62
     5
 63
     7
 74
     1
 91
        4
 64
     7
 65
   257
 75
     1
175
     1
 42
1.0
 92
       12
 66
     7
 43
1.0
 76
     1
 77
     6
 78
     2
 67
     7
 79
     5
170
     0
171
     0
290
     0
174
     0
 93
        1
 44
0.0
173
     0
291
     1
 45
0.0
1001
ACAD
1000
AcDbSavedByObjectVersion
1070
     0
  0
DICTIONARYVAR
  5
98
102
{ACAD_REACTORS
330
95
102
}
330
95
100
DictionaryVariables
280
     0
  1
2
  0
DICTIONARYVAR
  5
99
102
{ACAD_REACTORS
330
95
102
}
330
95
100
DictionaryVariables
280
     0
  1
1
  0
DICTIONARY
  5
BC
330
3D
100
AcDbDictionary
280
     1
281
     1
  3
ACAD_XREC_ROUNDTRIP
360
BD
  0
DICTIONARY
  5
BA
330
3C
100
AcDbDictionary
280
     1
281
     1
  3
ACAD_XREC_ROUNDTRIP
360
BB
  0
DICTIONARY
  5
BE
330
3E
100
AcDbDictionary
280
     1
281
     1
  3
ACAD_XREC_ROUNDTRIP
360
BF
  0
DICTIONARY
  5
A2
330
2F
100
AcDbDictionary
280
     1
281
     1
  3
ACAD_XREC_ROUNDTRIP
360
A3
  0
DICTIONARY
  5
A6
330
31
100
AcDbDictionary
280
     1
281
     1
  3
ACAD_XREC_ROUNDTRIP
360
A7
  0
DICTIONARY
  5
A4
330
30
100
AcDbDictionary
280
     1
281
     1
  3
ACAD_XREC_ROUNDTRIP
360
A5
  0
DICTIONARY
  5
A8
330
32
100
AcDbDictionary
280
     1
281
     1
  3
ACAD_XREC_ROUNDTRIP
360
A9
  0
DICTIONARY
  5
B0
330
36
100
AcDbDictionary
280
     1
281
     1
  3
ACAD_XREC_ROUNDTRIP
360
B1
  0
DICTIONARY
  5
B8
330
3A
100
AcDbDictionary
280
     1
281
     1
  3
ACAD_XREC_ROUNDTRIP
360
B9
  0
DICTIONARY
  5
AC
330
34
100
AcDbDictionary
280
     1
281
     1
  3
ACAD_XREC_ROUNDTRIP
360
AD
  0
DICTIONARY
  5
AE
330
35
100
AcDbDictionary
280
     1
281
     1
  3
ACAD_XREC_ROUNDTRIP
360
AF
  0
DICTIONARY
  5
B6
330
39
100
AcDbDictionary
280
     1
281
     1
  3
ACAD_XREC_ROUNDTRIP
360
B7
  0
DICTIONARY
  5
9A
330
2B
100
AcDbDictionary
280
     1
281
     1
  3
ACAD_XREC_ROUNDTRIP
360
9B
  0
DICTIONARY
  5
9C
330
2C
100
AcDbDictionary
280
     1
281
     1
  3
ACAD_XREC_ROUNDTRIP
360
9D
  0
DICTIONARY
  5
9E
330
2D
100
AcDbDictionary
280
     1
281
     1
  3
ACAD_XREC_ROUNDTRIP
360
9F
  0
DICTIONARY
  5
A0
330
2E
100
AcDbDictionary
280
     1
281
     1
  3
ACAD_XREC_ROUNDTRIP
360
A1
  0
DICTIONARY
  5
B4
330
38
100
AcDbDictionary
280
     1
281
     1
  3
ACAD_XREC_ROUNDTRIP
360
B5
  0
DICTIONARY
  5
AA
330
33
100
AcDbDictionary
280
     1
281
     1
  3
ACAD_XREC_ROUNDTRIP
360
AB
  0
DICTIONARY
  5
B2
330
37
100
AcDbDictionary
280
     1
281
     1
  3
ACAD_XREC_ROUNDTRIP
360
B3
  0
XRECORD
  5
BD
102
{ACAD_REACTORS
330
BC
102
}
330
BC
100
AcDbXrecord
280
     1
102
MATERIAL
148
0.0
149
0.0
149
0.0
 93
        0
 94
      127
282
     0
 72
     1
 77
     1
171
     1
175
     1
179
     1
273
     0
  0
XRECORD
  5
BB
102
{ACAD_REACTORS
330
BA
102
}
330
BA
100
AcDbXrecord
280
     1
102
MATERIAL
148
0.0
149
0.0
149
0.0
 93
        0
 94
      127
282
     0
 72
     1
 77
     1
171
     1
175
     1
179
     1
273
     0
  0
XRECORD
  5
BF
102
{ACAD_REACTORS
330
BE
102
}
330
BE
100
AcDbXrecord
280
     1
102
MATERIAL
148
0.0
149
0.0
149
0.0
 93
        0
 94
      127
282
     0
 72
     1
 77
     1
171
     1
175
     1
179
     1
273
     0
  0
XRECORD
  5
A3
102
{ACAD_REACTORS
330
A2
102
}
330
A2
100
AcDbXrecord
280
     1
102
RTVSPropertyOp0
 70
     1
102
RTVSPropertyOp1
 70
     1
102
RTVSPropertyOp2
 70
     1
102
RTVSPropertyOp3
 70
     1
102
RTVSPropertyOp4
 70
     1
102
RTVSPropertyOp5
 70
     1
102
RTVSPropertyOp6
 70
     1
102
RTVSPropertyOp7
 70
     1
102
RTVSPropertyOp8
 70
     1
102
RTVSPropertyOp9
 70
     1
102
RTVSPropertyOp10
 70
     1
102
RTVSPropertyOp11
 70
     1
102
RTVSPropertyOp12
 70
     1
102
RTVSPropertyOp13
 70
     1
102
RTVSPropertyOp14
 70
     1
102
RTVSPropertyOp15
 70
     1
102
RTVSPropertyOp16
 70
     1
102
RTVSPropertyOp17
 70
     1
102
RTVSPropertyOp18
 70
     1
102
RTVSPropertyOp19
 70
     1
102
RTVSPropertyOp20
 70
     1
102
RTVSPropertyOp21
 70
     1
102
RTVSPropertyOp22
 70
     1
102
RTVSPropertyOp23
 70
     1
102
RTVSPropertyOp24
 70
     1
102
RTVSPropertyOp25
 70
     1
102
RTVSPropertyOp26
 70
     1
102
RTVSPropertyOp27
 70
     1
  0
XRECORD
  5
A7
102
{ACAD_REACTORS
330
A6
102
}
330
A6
100
AcDbXrecord
280
     1
102
RTVSPropertyOp0
 70
     1
102
RTVSPropertyOp1
 70
     1
102
RTVSPropertyOp2
 70
     1
102
RTVSPropertyOp3
 70
     1
102
RTVSPropertyOp4
 70
     1
102
RTVSPropertyOp5
 70
     1
102
RTVSPropertyOp6
 70
     1
102
RTVSPropertyOp7
 70
     1
102
RTVSPropertyOp8
 70
     1
102
RTVSPropertyOp9
 70
     1
102
RTVSPropertyOp10
 70
     1
102
RTVSPropertyOp11
 70
     1
102
RTVSPropertyOp12
 70
     1
102
RTVSPropertyOp13
 70
     1
102
RTVSPropertyOp14
 70
     1
102
RTVSPropertyOp15
 70
     1
102
RTVSPropertyOp16
 70
     1
102
RTVSPropertyOp17
 70
     1
102
RTVSPropertyOp18
 70
     1
102
RTVSPropertyOp19
 70
     1
102
RTVSPropertyOp20
 70
     1
102
RTVSPropertyOp21
 70
     1
102
RTVSPropertyOp22
 70
     1
102
RTVSPropertyOp23
 70
     1
102
RTVSPropertyOp24
 70
     1
102
RTVSPropertyOp25
 70
     1
102
RTVSPropertyOp26
 70
     1
102
RTVSPropertyOp27
 70
     1
  0
XRECORD
  5
A5
102
{ACAD_REACTORS
330
A4
102
}
330
A4
100
AcDbXrecord
280
     1
102
RTVSPropertyOp0
 70
     1
102
RTVSPropertyOp1
 70
     1
102
RTVSPropertyOp2
 70
     1
102
RTVSPropertyOp3
 70
     1
102
RTVSPropertyOp4
 70
     1
102
RTVSPropertyOp5
 70
     1
102
RTVSPropertyOp6
 70
     1
102
RTVSPropertyOp7
 70
     1
102
RTVSPropertyOp8
 70
     1
102
RTVSPropertyOp9
 70
     1
102
RTVSPropertyOp10
 70
     1
102
RTVSPropertyOp11
 70
     1
102
RTVSPropertyOp12
 70
     1
102
RTVSPropertyOp13
 70
     1
102
RTVSPropertyOp14
 70
     1
102
RTVSPropertyOp15
 70
     1
102
RTVSPropertyOp16
 70
     1
102
RTVSPropertyOp17
 70
     1
102
RTVSPropertyOp18
 70
     1
102
RTVSPropertyOp19
 70
     1
102
RTVSPropertyOp20
 70
     1
102
RTVSPropertyOp21
 70
     1
102
RTVSPropertyOp22
 70
     1
102
RTVSPropertyOp23
 70
     1
102
RTVSPropertyOp24
 70
     1
102
RTVSPropertyOp25
 70
     1
102
RTVSPropertyOp26
 70
     1
102
RTVSPropertyOp27
 70
     1
  0
XRECORD
  5
A9
102
{ACAD_REACTORS
330
A8
102
}
330
A8
100
AcDbXrecord
280
     1
102
RTVSPropertyOp0
 70
     1
102
RTVSPropertyOp1
 70
     1
102
RTVSPropertyOp2
 70
     1
102
RTVSPropertyOp3
 70
     1
102
RTVSPropertyOp4
 70
     1
102
RTVSPropertyOp5
 70
     1
102
RTVSPropertyOp6
 70
     1
102
RTVSPropertyOp7
 70
     1
102
RTVSPropertyOp8
 70
     1
102
RTVSPropertyOp9
 70
     1
102
RTVSPropertyOp10
 70
     1
102
RTVSPropertyOp11
 70
     1
102
RTVSPropertyOp12
 70
     1
102
RTVSPropertyOp13
 70
     1
102
RTVSPropertyOp14
 70
     1
102
RTVSPropertyOp15
 70
     1
102
RTVSPropertyOp16
 70
     1
102
RTVSPropertyOp17
 70
     1
102
RTVSPropertyOp18
 70
     1
102
RTVSPropertyOp19
 70
     1
102
RTVSPropertyOp20
 70
     1
102
RTVSPropertyOp21
 70
     1
102
RTVSPropertyOp22
 70
     1
102
RTVSPropertyOp23
 70
     1
102
RTVSPropertyOp24
 70
     1
102
RTVSPropertyOp25
 70
     1
102
RTVSPropertyOp26
 70
     1
102
RTVSPropertyOp27
 70
     1
  0
XRECORD
  5
B1
102
{ACAD_REACTORS
330
B0
102
}
330
B0
100
AcDbXrecord
280
     1
102
RTVSPropertyOp0
 70
     1
102
RTVSPropertyOp1
 70
     1
102
RTVSPropertyOp2
 70
     1
102
RTVSPropertyOp3
 70
     1
102
RTVSPropertyOp4
 70
     1
102
RTVSPropertyOp5
 70
     1
102
RTVSPropertyOp6
 70
     1
102
RTVSPropertyOp7
 70
     1
102
RTVSPropertyOp8
 70
     1
102
RTVSPropertyOp9
 70
     1
102
RTVSPropertyOp10
 70
     1
102
RTVSPropertyOp11
 70
     1
102
RTVSPropertyOp12
 70
     1
102
RTVSPropertyOp13
 70
     1
102
RTVSPropertyOp14
 70
     1
102
RTVSPropertyOp15
 70
     1
102
RTVSPropertyOp16
 70
     1
102
RTVSPropertyOp17
 70
     1
102
RTVSPropertyOp18
 70
     1
102
RTVSPropertyOp19
 70
     1
102
RTVSPropertyOp20
 70
     1
102
RTVSPropertyOp21
 70
     1
102
RTVSPropertyOp22
 70
     1
102
RTVSPropertyOp23
 70
     1
102
RTVSPropertyOp24
 70
     1
102
RTVSPropertyOp25
 70
     1
102
RTVSPropertyOp26
 70
     1
102
RTVSPropertyOp27
 70
     1
  0
XRECORD
  5
B9
102
{ACAD_REACTORS
330
B8
102
}
330
B8
100
AcDbXrecord
280
     1
102
RTVSPropertyOp0
 70
     1
102
RTVSPropertyOp1
 70
     1
102
RTVSPropertyOp2
 70
     1
102
RTVSPropertyOp3
 70
     1
102
RTVSPropertyOp4
 70
     1
102
RTVSPropertyOp5
 70
     1
102
RTVSPropertyOp6
 70
     1
102
RTVSPropertyOp7
 70
     1
102
RTVSPropertyOp8
 70
     1
102
RTVSPropertyOp9
 70
     1
102
RTVSPropertyOp10
 70
     1
102
RTVSPropertyOp11
 70
     1
102
RTVSPropertyOp12
 70
     1
102
RTVSPropertyOp13
 70
     1
102
RTVSPropertyOp14
 70
     1
102
RTVSPropertyOp15
 70
     1
102
RTVSPropertyOp16
 70
     1
102
RTVSPropertyOp17
 70
     1
102
RTVSPropertyOp18
 70
     1
102
RTVSPropertyOp19
 70
     1
102
RTVSPropertyOp20
 70
     1
102
RTVSPropertyOp21
 70
     1
102
RTVSPropertyOp22
 70
     1
102
RTVSPropertyOp23
 70
     1
102
RTVSPropertyOp24
 70
     1
102
RTVSPropertyOp25
 70
     1
102
RTVSPropertyOp26
 70
     1
102
RTVSPropertyOp27
 70
     1
  0
XRECORD
  5
AD
102
{ACAD_REACTORS
330
AC
102
}
330
AC
100
AcDbXrecord
280
     1
102
RTVSPropertyOp0
 70
     1
102
RTVSPropertyOp1
 70
     1
102
RTVSPropertyOp2
 70
     1
102
RTVSPropertyOp3
 70
     1
102
RTVSPropertyOp4
 70
     1
102
RTVSPropertyOp5
 70
     1
102
RTVSPropertyOp6
 70
     1
102
RTVSPropertyOp7
 70
     1
102
RTVSPropertyOp8
 70
     1
102
RTVSPropertyOp9
 70
     1
102
RTVSPropertyOp10
 70
     1
102
RTVSPropertyOp11
 70
     1
102
RTVSPropertyOp12
 70
     1
102
RTVSPropertyOp13
 70
     1
102
RTVSPropertyOp14
 70
     1
102
RTVSPropertyOp15
 70
     1
102
RTVSPropertyOp16
 70
     1
102
RTVSPropertyOp17
 70
     1
102
RTVSPropertyOp18
 70
     1
102
RTVSPropertyOp19
 70
     1
102
RTVSPropertyOp20
 70
     1
102
RTVSPropertyOp21
 70
     1
102
RTVSPropertyOp22
 70
     1
102
RTVSPropertyOp23
 70
     1
102
RTVSPropertyOp24
 70
     1
102
RTVSPropertyOp25
 70
     1
102
RTVSPropertyOp26
 70
     1
102
RTVSPropertyOp27
 70
     1
  0
XRECORD
  5
AF
102
{ACAD_REACTORS
330
AE
102
}
330
AE
100
AcDbXrecord
280
     1
102
RTVSPropertyOp0
 70
     1
102
RTVSPropertyOp1
 70
     1
102
RTVSPropertyOp2
 70
     1
102
RTVSPropertyOp3
 70
     1
102
RTVSPropertyOp4
 70
     1
102
RTVSPropertyOp5
 70
     1
102
RTVSPropertyOp6
 70
     1
102
RTVSPropertyOp7
 70
     1
102
RTVSPropertyOp8
 70
     1
102
RTVSPropertyOp9
 70
     1
102
RTVSPropertyOp10
 70
     1
102
RTVSPropertyOp11
 70
     1
102
RTVSPropertyOp12
 70
     1
102
RTVSPropertyOp13
 70
     1
102
RTVSPropertyOp14
 70
     1
102
RTVSPropertyOp15
 70
     1
102
RTVSPropertyOp16
 70
     1
102
RTVSPropertyOp17
 70
     1
102
RTVSPropertyOp18
 70
     1
102
RTVSPropertyOp19
 70
     1
102
RTVSPropertyOp20
 70
     1
102
RTVSPropertyOp21
 70
     1
102
RTVSPropertyOp22
 70
     1
102
RTVSPropertyOp23
 70
     1
102
RTVSPropertyOp24
 70
     1
102
RTVSPropertyOp25
 70
     1
102
RTVSPropertyOp26
 70
     1
102
RTVSPropertyOp27
 70
     1
  0
XRECORD
  5
B7
102
{ACAD_REACTORS
330
B6
102
}
330
B6
100
AcDbXrecord
280
     1
102
RTVSPropertyOp0
 70
     1
102
RTVSPropertyOp1
 70
     1
102
RTVSPropertyOp2
 70
     1
102
RTVSPropertyOp3
 70
     1
102
RTVSPropertyOp4
 70
     1
102
RTVSPropertyOp5
 70
     1
102
RTVSPropertyOp6
 70
     1
102
RTVSPropertyOp7
 70
     1
102
RTVSPropertyOp8
 70
     1
102
RTVSPropertyOp9
 70
     1
102
RTVSPropertyOp10
 70
     1
102
RTVSPropertyOp11
 70
     1
102
RTVSPropertyOp12
 70
     1
102
RTVSPropertyOp13
 70
     1
102
RTVSPropertyOp14
 70
     1
102
RTVSPropertyOp15
 70
     1
102
RTVSPropertyOp16
 70
     1
102
RTVSPropertyOp17
 70
     1
102
RTVSPropertyOp18
 70
     1
102
RTVSPropertyOp19
 70
     1
102
RTVSPropertyOp20
 70
     1
102
RTVSPropertyOp21
 70
     1
102
RTVSPropertyOp22
 70
     1
102
RTVSPropertyOp23
 70
     1
102
RTVSPropertyOp24
 70
     1
102
RTVSPropertyOp25
 70
     1
102
RTVSPropertyOp26
 70
     1
102
RTVSPropertyOp27
 70
     1
  0
XRECORD
  5
9B
102
{ACAD_REACTORS
330
9A
102
}
330
9A
100
AcDbXrecord
280
     1
102
RTVSPropertyOp0
 70
     1
102
RTVSPropertyOp1
 70
     1
102
RTVSPropertyOp2
 70
     1
102
RTVSPropertyOp3
 70
     1
102
RTVSPropertyOp4
 70
     1
102
RTVSPropertyOp5
 70
     1
102
RTVSPropertyOp6
 70
     1
102
RTVSPropertyOp7
 70
     1
102
RTVSPropertyOp8
 70
     1
102
RTVSPropertyOp9
 70
     1
102
RTVSPropertyOp10
 70
     1
102
RTVSPropertyOp11
 70
     1
102
RTVSPropertyOp12
 70
     1
102
RTVSPropertyOp13
 70
     1
102
RTVSPropertyOp14
 70
     1
102
RTVSPropertyOp15
 70
     1
102
RTVSPropertyOp16
 70
     1
102
RTVSPropertyOp17
 70
     1
102
RTVSPropertyOp18
 70
     1
102
RTVSPropertyOp19
 70
     1
102
RTVSPropertyOp20
 70
     1
102
RTVSPropertyOp21
 70
     1
102
RTVSPropertyOp22
 70
     1
102
RTVSPropertyOp23
 70
     1
102
RTVSPropertyOp24
 70
     1
102
RTVSPropertyOp25
 70
     1
102
RTVSPropertyOp26
 70
     1
102
RTVSPropertyOp27
 70
     1
  0
XRECORD
  5
9D
102
{ACAD_REACTORS
330
9C
102
}
330
9C
100
AcDbXrecord
280
     1
102
RTVSPropertyOp0
 70
     1
102
RTVSPropertyOp1
 70
     1
102
RTVSPropertyOp2
 70
     1
102
RTVSPropertyOp3
 70
     1
102
RTVSPropertyOp4
 70
     1
102
RTVSPropertyOp5
 70
     1
102
RTVSPropertyOp6
 70
     1
102
RTVSPropertyOp7
 70
     1
102
RTVSPropertyOp8
 70
     1
102
RTVSPropertyOp9
 70
     1
102
RTVSPropertyOp10
 70
     1
102
RTVSPropertyOp11
 70
     1
102
RTVSPropertyOp12
 70
     1
102
RTVSPropertyOp13
 70
     1
102
RTVSPropertyOp14
 70
     1
102
RTVSPropertyOp15
 70
     1
102
RTVSPropertyOp16
 70
     1
102
RTVSPropertyOp17
 70
     1
102
RTVSPropertyOp18
 70
     1
102
RTVSPropertyOp19
 70
     1
102
RTVSPropertyOp20
 70
     1
102
RTVSPropertyOp21
 70
     1
102
RTVSPropertyOp22
 70
     1
102
RTVSPropertyOp23
 70
     1
102
RTVSPropertyOp24
 70
     1
102
RTVSPropertyOp25
 70
     1
102
RTVSPropertyOp26
 70
     1
102
RTVSPropertyOp27
 70
     1
  0
XRECORD
  5
9F
102
{ACAD_REACTORS
330
9E
102
}
330
9E
100
AcDbXrecord
280
     1
102
RTVSPropertyOp0
 70
     1
102
RTVSPropertyOp1
 70
     1
102
RTVSPropertyOp2
 70
     1
102
RTVSPropertyOp3
 70
     1
102
RTVSPropertyOp4
 70
     1
102
RTVSPropertyOp5
 70
     1
102
RTVSPropertyOp6
 70
     1
102
RTVSPropertyOp7
 70
     1
102
RTVSPropertyOp8
 70
     1
102
RTVSPropertyOp9
 70
     1
102
RTVSPropertyOp10
 70
     1
102
RTVSPropertyOp11
 70
     1
102
RTVSPropertyOp12
 70
     1
102
RTVSPropertyOp13
 70
     1
102
RTVSPropertyOp14
 70
     1
102
RTVSPropertyOp15
 70
     1
102
RTVSPropertyOp16
 70
     1
102
RTVSPropertyOp17
 70
     1
102
RTVSPropertyOp18
 70
     1
102
RTVSPropertyOp19
 70
     1
102
RTVSPropertyOp20
 70
     1
102
RTVSPropertyOp21
 70
     1
102
RTVSPropertyOp22
 70
     1
102
RTVSPropertyOp23
 70
     1
102
RTVSPropertyOp24
 70
     1
102
RTVSPropertyOp25
 70
     1
102
RTVSPropertyOp26
 70
     1
102
RTVSPropertyOp27
 70
     1
  0
XRECORD
  5
A1
102
{ACAD_REACTORS
330
A0
102
}
330
A0
100
AcDbXrecord
280
     1
102
RTVSPropertyOp0
 70
     1
102
RTVSPropertyOp1
 70
     1
102
RTVSPropertyOp2
 70
     1
102
RTVSPropertyOp3
 70
     1
102
RTVSPropertyOp4
 70
     1
102
RTVSPropertyOp5
 70
     1
102
RTVSPropertyOp6
 70
     1
102
RTVSPropertyOp7
 70
     1
102
RTVSPropertyOp8
 70
     1
102
RTVSPropertyOp9
 70
     1
102
RTVSPropertyOp10
 70
     1
102
RTVSPropertyOp11
 70
     1
102
RTVSPropertyOp12
 70
     1
102
RTVSPropertyOp13
 70
     1
102
RTVSPropertyOp14
 70
     1
102
RTVSPropertyOp15
 70
     1
102
RTVSPropertyOp16
 70
     1
102
RTVSPropertyOp17
 70
     1
102
RTVSPropertyOp18
 70
     1
102
RTVSPropertyOp19
 70
     1
102
RTVSPropertyOp20
 70
     1
102
RTVSPropertyOp21
 70
     1
102
RTVSPropertyOp22
 70
     1
102
RTVSPropertyOp23
 70
     1
102
RTVSPropertyOp24
 70
     1
102
RTVSPropertyOp25
 70
     1
102
RTVSPropertyOp26
 70
     1
102
RTVSPropertyOp27
 70
     1
  0
XRECORD
  5
B5
102
{ACAD_REACTORS
330
B4
102
}
330
B4
100
AcDbXrecord
280
     1
102
RTVSPropertyOp0
 70
     1
102
RTVSPropertyOp1
 70
     1
102
RTVSPropertyOp2
 70
     1
102
RTVSPropertyOp3
 70
     1
102
RTVSPropertyOp4
 70
     1
102
RTVSPropertyOp5
 70
     1
102
RTVSPropertyOp6
 70
     1
102
RTVSPropertyOp7
 70
     1
102
RTVSPropertyOp8
 70
     1
102
RTVSPropertyOp9
 70
     1
102
RTVSPropertyOp10
 70
     1
102
RTVSPropertyOp11
 70
     1
102
RTVSPropertyOp12
 70
     1
102
RTVSPropertyOp13
 70
     1
102
RTVSPropertyOp14
 70
     1
102
RTVSPropertyOp15
 70
     1
102
RTVSPropertyOp16
 70
     1
102
RTVSPropertyOp17
 70
     1
102
RTVSPropertyOp18
 70
     1
102
RTVSPropertyOp19
 70
     1
102
RTVSPropertyOp20
 70
     1
102
RTVSPropertyOp21
 70
     1
102
RTVSPropertyOp22
 70
     1
102
RTVSPropertyOp23
 70
     1
102
RTVSPropertyOp24
 70
     1
102
RTVSPropertyOp25
 70
     1
102
RTVSPropertyOp26
 70
     1
102
RTVSPropertyOp27
 70
     1
  0
XRECORD
  5
AB
102
{ACAD_REACTORS
330
AA
102
}
330
AA
100
AcDbXrecord
280
     1
102
RTVSPropertyOp0
 70
     1
102
RTVSPropertyOp1
 70
     1
102
RTVSPropertyOp2
 70
     1
102
RTVSPropertyOp3
 70
     1
102
RTVSPropertyOp4
 70
     1
102
RTVSPropertyOp5
 70
     1
102
RTVSPropertyOp6
 70
     1
102
RTVSPropertyOp7
 70
     1
102
RTVSPropertyOp8
 70
     1
102
RTVSPropertyOp9
 70
     1
102
RTVSPropertyOp10
 70
     1
102
RTVSPropertyOp11
 70
     1
102
RTVSPropertyOp12
 70
     1
102
RTVSPropertyOp13
 70
     1
102
RTVSPropertyOp14
 70
     1
102
RTVSPropertyOp15
 70
     1
102
RTVSPropertyOp16
 70
     1
102
RTVSPropertyOp17
 70
     1
102
RTVSPropertyOp18
 70
     1
102
RTVSPropertyOp19
 70
     1
102
RTVSPropertyOp20
 70
     1
102
RTVSPropertyOp21
 70
     1
102
RTVSPropertyOp22
 70
     1
102
RTVSPropertyOp23
 70
     1
102
RTVSPropertyOp24
 70
     1
102
RTVSPropertyOp25
 70
     1
102
RTVSPropertyOp26
 70
     1
102
RTVSPropertyOp27
 70
     1
  0
XRECORD
  5
B3
102
{ACAD_REACTORS
330
B2
102
}
330
B2
100
AcDbXrecord
280
     1
102
RTVSPropertyOp0
 70
     1
102
RTVSPropertyOp1
 70
     1
102
RTVSPropertyOp2
 70
     1
102
RTVSPropertyOp3
 70
     1
102
RTVSPropertyOp4
 70
     1
102
RTVSPropertyOp5
 70
     1
102
RTVSPropertyOp6
 70
     1
102
RTVSPropertyOp7
 70
     1
102
RTVSPropertyOp8
 70
     1
102
RTVSPropertyOp9
 70
     1
102
RTVSPropertyOp10
 70
     1
102
RTVSPropertyOp11
 70
     1
102
RTVSPropertyOp12
 70
     1
102
RTVSPropertyOp13
 70
     1
102
RTVSPropertyOp14
 70
     1
102
RTVSPropertyOp15
 70
     1
102
RTVSPropertyOp16
 70
     1
102
RTVSPropertyOp17
 70
     1
102
RTVSPropertyOp18
 70
     1
102
RTVSPropertyOp19
 70
     1
102
RTVSPropertyOp20
 70
     1
102
RTVSPropertyOp21
 70
     1
102
RTVSPropertyOp22
 70
     1
102
RTVSPropertyOp23
 70
     1
102
RTVSPropertyOp24
 70
     1
102
RTVSPropertyOp25
 70
     1
102
RTVSPropertyOp26
 70
     1
102
RTVSPropertyOp27
 70
     1
  0
ENDSEC
  0
EOF
