  0
SECTION
  2
HEADER
  9
$ACADVER
  1
AC1014
  9
$ACADMAINTVER
 70
     9
  9
$DWGCODEPAGE
  3
ANSI_1250
  9
$INSBASE
 10
0.0
 20
0.0
 30
0.0
  9
$EXTMIN
 10
-50.7887
 20
-16.136
 30
0.0
  9
$EXTMAX
 10
50.6873
 20
16.1363
 30
0.0
  9
$LIMMIN
 10
0.0
 20
0.0
  9
$LIMMAX
 10
12.0
 20
9.0
  9
$ORTHOMODE
 70
     0
  9
$REGENMODE
 70
     1
  9
$FILLMODE
 70
     1
  9
$QTEXTMODE
 70
     0
  9
$MIRRTEXT
 70
     1
  9
$DRAGMODE
 70
     2
  9
$LTSCALE
 40
1.0
  9
$OSMODE
 70
    37
  9
$ATTMODE
 70
     1
  9
$TEXTSIZE
 40
0.2
  9
$TRACEWID
 40
0.05
  9
$TEXTSTYLE
  7
STANDARD
  9
$CLAYER
  8
0
  9
$CELTYPE
  6
BYLAYER
  9
$CECOLOR
 62
   256
  9
$CELTSCALE
 40
1.0
  9
$DELOBJ
 70
     1
  9
$DISPSILH
 70
     0
  9
$DIMSCALE
 40
1.0
  9
$DIMASZ
 40
0.18
  9
$DIMEXO
 40
0.0625
  9
$DIMDLI
 40
0.38
  9
$DIMRND
 40
0.0
  9
$DIMDLE
 40
0.0
  9
$DIMEXE
 40
0.18
  9
$DIMTP
 40
0.0
  9
$DIMTM
 40
0.0
  9
$DIMTXT
 40
0.18
  9
$DIMCEN
 40
0.09
  9
$DIMTSZ
 40
0.0
  9
$DIMTOL
 70
     0
  9
$DIMLIM
 70
     0
  9
$DIMTIH
 70
     1
  9
$DIMTOH
 70
     1
  9
$DIMSE1
 70
     0
  9
$DIMSE2
 70
     0
  9
$DIMTAD
 70
     0
  9
$DIMZIN
 70
     0
  9
$DIMBLK
  1

  9
$DIMASO
 70
     1
  9
$DIMSHO
 70
     1
  9
$DIMPOST
  1

  9
$DIMAPOST
  1

  9
$DIMALT
 70
     0
  9
$DIMALTD
 70
     2
  9
$DIMALTF
 40
25.4
  9
$DIMLFAC
 40
1.0
  9
$DIMTOFL
 70
     0
  9
$DIMTVP
 40
0.0
  9
$DIMTIX
 70
     0
  9
$DIMSOXD
 70
     0
  9
$DIMSAH
 70
     0
  9
$DIMBLK1
  1

  9
$DIMBLK2
  1

  9
$DIMSTYLE
  2
STANDARD
  9
$DIMCLRD
 70
     0
  9
$DIMCLRE
 70
     0
  9
$DIMCLRT
 70
     0
  9
$DIMTFAC
 40
1.0
  9
$DIMGAP
 40
0.09
  9
$DIMJUST
 70
     0
  9
$DIMSD1
 70
     0
  9
$DIMSD2
 70
     0
  9
$DIMTOLJ
 70
     1
  9
$DIMTZIN
 70
     0
  9
$DIMALTZ
 70
     0
  9
$DIMALTTZ
 70
     0
  9
$DIMFIT
 70
     3
  9
$DIMUPT
 70
     0
  9
$DIMUNIT
 70
     2
  9
$DIMDEC
 70
     4
  9
$DIMTDEC
 70
     4
  9
$DIMALTU
 70
     2
  9
$DIMALTTD
 70
     2
  9
$DIMTXSTY
  7
STANDARD
  9
$DIMAUNIT
 70
     0
  9
$LUNITS
 70
     2
  9
$LUPREC
 70
     4
  9
$SKETCHINC
 40
0.1
  9
$FILLETRAD
 40
0.5
  9
$AUNITS
 70
     0
  9
$AUPREC
 70
     0
  9
$MENU
  1
.
  9
$ELEVATION
 40
0.0
  9
$PELEVATION
 40
0.0
  9
$THICKNESS
 40
0.0
  9
$LIMCHECK
 70
     0
  9
$CHAMFERA
 40
0.5
  9
$CHAMFERB
 40
0.5
  9
$CHAMFERC
 40
1.0
  9
$CHAMFERD
 40
0.0
  9
$SKPOLY
 70
     0
  9
$TDCREATE
 40
2456272.361567465
  9
$TDUPDATE
 40
2456272.361567477
  9
$TDINDWG
 40
0.0000000116
  9
$TDUSRTIMER
 40
0.0000000116
  9
$USRTIMER
 70
     1
  9
$ANGBASE
 50
0.0
  9
$ANGDIR
 70
     0
  9
$PDMODE
 70
     0
  9
$PDSIZE
 40
0.0
  9
$PLINEWID
 40
0.0
  9
$COORDS
 70
     1
  9
$SPLFRAME
 70
     0
  9
$SPLINETYPE
 70
     6
  9
$SPLINESEGS
 70
     8
  9
$ATTDIA
 70
     0
  9
$ATTREQ
 70
     1
  9
$HANDLING
 70
     1
  9
$HANDSEED
  5
C0
  9
$SURFTAB1
 70
     6
  9
$SURFTAB2
 70
     6
  9
$SURFTYPE
 70
     6
  9
$SURFU
 70
     6
  9
$SURFV
 70
     6
  9
$UCSNAME
  2

  9
$UCSORG
 10
0.0
 20
0.0
 30
0.0
  9
$UCSXDIR
 10
1.0
 20
0.0
 30
0.0
  9
$UCSYDIR
 10
0.0
 20
1.0
 30
0.0
  9
$PUCSNAME
  2

  9
$PUCSORG
 10
0.0
 20
0.0
 30
0.0
  9
$PUCSXDIR
 10
1.0
 20
0.0
 30
0.0
  9
$PUCSYDIR
 10
0.0
 20
1.0
 30
0.0
  9
$USERI1
 70
     0
  9
$USERI2
 70
     0
  9
$USERI3
 70
     0
  9
$USERI4
 70
     0
  9
$USERI5
 70
     0
  9
$USERR1
 40
0.0
  9
$USERR2
 40
0.0
  9
$USERR3
 40
0.0
  9
$USERR4
 40
0.0
  9
$USERR5
 40
0.0
  9
$WORLDVIEW
 70
     1
  9
$SHADEDGE
 70
     3
  9
$SHADEDIF
 70
    70
  9
$TILEMODE
 70
     1
  9
$MAXACTVP
 70
    64
  9
$PINSBASE
 10
0.0
 20
0.0
 30
0.0
  9
$PLIMCHECK
 70
     0
  9
$PEXTMIN
 10
1.000000000000000E+20
 20
1.000000000000000E+20
 30
1.000000000000000E+20
  9
$PEXTMAX
 10
-1.000000000000000E+20
 20
-1.000000000000000E+20
 30
-1.000000000000000E+20
  9
$PLIMMIN
 10
0.0
 20
0.0
  9
$PLIMMAX
 10
12.0
 20
9.0
  9
$UNITMODE
 70
     0
  9
$VISRETAIN
 70
     1
  9
$PLINEGEN
 70
     0
  9
$PSLTSCALE
 70
     1
  9
$TREEDEPTH
 70
  3020
  9
$PICKSTYLE
 70
     1
  9
$CMLSTYLE
  2
STANDARD
  9
$CMLJUST
 70
     0
  9
$CMLSCALE
 40
1.0
  9
$PROXYGRAPHICS
 70
     1
  9
$MEASUREMENT
 70
     0
  0
ENDSEC
  0
SECTION
  2
CLASSES
  0
CLASS
  1
ACDBDICTIONARYWDFLT
  2
AcDbDictionaryWithDefault
  3
ObjectDBX Classes
 90
        0
280
     0
281
     0
  0
CLASS
  1
VISUALSTYLE
  2
AcDbVisualStyle
  3
ObjectDBX Classes
 90
     4095
280
     0
281
     0
  0
CLASS
  1
MATERIAL
  2
AcDbMaterial
  3
ObjectDBX Classes
 90
     1153
280
     0
281
     0
  0
CLASS
  1
DICTIONARYVAR
  2
AcDbDictionaryVar
  3
ObjectDBX Classes
 90
        0
280
     0
281
     0
  0
CLASS
  1
XRECORD
  2
AcDbXrecord
  3
AutoCAD 2000
 90
        0
280
     0
281
     0
  0
CLASS
  1
LWPOLYLINE
  2
AcDbPolyline
  3
AutoCAD 2000
 90
        0
280
     0
281
     1
  0
CLASS
  1
HATCH
  2
AcDbHatch
  3
AutoCAD 2000
 90
        0
280
     0
281
     1
  0
CLASS
  1
ACDBPLACEHOLDER
  2
AcDbPlaceHolder
  3
ObjectDBX Classes
 90
        0
280
     0
281
     0
  0
CLASS
  1
LAYOUT
  2
AcDbLayout
  3
ObjectDBX Classes
 90
        0
280
     0
281
     0
  0
ENDSEC
  0
SECTION
  2
TABLES
  0
TABLE
  2
VPORT
  5
8
330
0
100
AcDbSymbolTable
 70
     1
  0
VPORT
  5
29
330
8
100
AcDbSymbolTableRecord
100
AcDbViewportTableRecord
  2
*ACTIVE
 70
     0
 10
0.0
 20
0.0
 11
1.0
 21
1.0
 12
10.42990654205607
 22
4.5
 13
0.0
 23
0.0
 14
0.5
 24
0.5
 15
0.5
 25
0.5
 16
0.0
 26
0.0
 36
1.0
 17
0.0
 27
0.0
 37
0.0
 40
9.0
 41
1.972972972850329
 42
50.0
 43
0.0
 44
0.0
 50
0.0
 51
0.0
 71
     0
 72
   100
 73
     1
 74
     3
 75
     0
 76
     0
 77
     0
 78
     0
  0
ENDTAB
  0
TABLE
  2
LTYPE
  5
5
330
0
100
AcDbSymbolTable
 70
     2
  0
LTYPE
  5
14
330
5
100
AcDbSymbolTableRecord
100
AcDbLinetypeTableRecord
  2
BYBLOCK
 70
     0
  3

 72
    65
 73
     0
 40
0.0
  0
LTYPE
  5
15
330
5
100
AcDbSymbolTableRecord
100
AcDbLinetypeTableRecord
  2
BYLAYER
 70
     0
  3

 72
    65
 73
     0
 40
0.0
  0
LTYPE
  5
16
330
5
100
AcDbSymbolTableRecord
100
AcDbLinetypeTableRecord
  2
CONTINUOUS
 70
     0
  3
Solid line
 72
    65
 73
     0
 40
0.0
  0
LTYPE
  5
64
330
5
100
AcDbSymbolTableRecord
100
AcDbLinetypeTableRecord
  2
NEW_LINE1
 70
     0
  3

 72
    65
 73
     4
 40
1.2
 49
0.5
 74
     4
 75
     0
340
0
 46
1.0
 50
0.0
 44
0.0
 45
0.0
 49
-0.3
 74
     4
 75
     0
340
0
 46
1.0
 50
0.0
 44
0.0
 45
0.0
 49
0.1
 74
     4
 75
     0
340
0
 46
1.0
 50
0.0
 44
0.0
 45
0.0
 49
-0.3
 74
     4
 75
     0
340
0
 46
1.0
 50
0.0
 44
0.0
 45
0.0
  0
ENDTAB
  0
TABLE
  2
LAYER
  5
2
330
0
100
AcDbSymbolTable
 70
     2
  0
LAYER
  5
10
330
2
100
AcDbSymbolTableRecord
100
AcDbLayerTableRecord
  2
0
 70
     0
 62
     7
  6
CONTINUOUS
  0
LAYER
  5
40
330
2
100
AcDbSymbolTableRecord
100
AcDbLayerTableRecord
  2
VRSTVA_1
 70
     0
 62
     7
  6
CONTINUOUS
  0
ENDTAB
  0
TABLE
  2
STYLE
  5
3
330
0
100
AcDbSymbolTable
 70
     1
  0
STYLE
  5
11
330
3
100
AcDbSymbolTableRecord
100
AcDbTextStyleTableRecord
  2
STANDARD
 70
     0
 40
0.0
 41
1.0
 50
0.0
 71
     0
 42
0.2
  3
txt
  4

  0
ENDTAB
  0
TABLE
  2
VIEW
  5
6
330
0
100
AcDbSymbolTable
 70
     0
  0
ENDTAB
  0
TABLE
  2
UCS
  5
7
330
0
100
AcDbSymbolTable
 70
     0
  0
ENDTAB
  0
TABLE
  2
APPID
  5
9
330
0
100
AcDbSymbolTable
 70
     2
  0
APPID
  5
12
330
9
100
AcDbSymbolTableRecord
100
AcDbRegAppTableRecord
  2
ACAD
 70
     0
  0
APPID
  5
3F
330
9
100
AcDbSymbolTableRecord
100
AcDbRegAppTableRecord
  2
ODA
 70
     0
  0
ENDTAB
  0
TABLE
  2
DIMSTYLE
  5
A
330
0
100
AcDbSymbolTable
 70
     1
  0
DIMSTYLE
105
27
330
A
100
AcDbSymbolTableRecord
100
AcDbDimStyleTableRecord
  2
STANDARD
 70
     0
  3

  4

  5

  6

  7

 40
1.0
 41
0.18
 42
0.0625
 43
0.38
 44
0.18
 45
0.0
 46
0.0
 47
0.0
 48
0.0
140
0.18
141
0.09
142
0.0
143
25.4
144
1.0
145
0.0
146
1.0
147
0.09
 71
     0
 72
     0
 73
     1
 74
     1
 75
     0
 76
     0
 77
     0
 78
     0
170
     0
171
     2
172
     0
173
     0
174
     0
175
     0
176
     0
177
     0
178
     0
270
     2
271
     4
272
     4
273
     2
274
     2
340
11
275
     0
280
     0
281
     0
282
     0
283
     1
284
     0
285
     0
286
     0
287
     3
288
     0
  0
ENDTAB
  0
TABLE
  2
BLOCK_RECORD
  5
1
330
0
100
AcDbSymbolTable
 70
     1
  0
BLOCK_RECORD
  5
1F
330
1
100
AcDbSymbolTableRecord
100
AcDbBlockTableRecord
  2
*MODEL_SPACE
  0
BLOCK_RECORD
  5
1B
330
1
100
AcDbSymbolTableRecord
100
AcDbBlockTableRecord
  2
*PAPER_SPACE
  0
ENDTAB
  0
ENDSEC
  0
SECTION
  2
BLOCKS
  0
BLOCK
  5
20
330
1F
100
AcDbEntity
  8
0
100
AcDbBlockBegin
  2
*MODEL_SPACE
 70
     0
 10
0.0
 20
0.0
 30
0.0
  3
*MODEL_SPACE
  1

  0
ENDBLK
  5
21
330
1F
100
AcDbEntity
  8
0
100
AcDbBlockEnd
  0
BLOCK
  5
1C
330
1B
100
AcDbEntity
 67
     1
  8
0
100
AcDbBlockBegin
  2
*PAPER_SPACE
 70
     0
 10
0.0
 20
0.0
 30
0.0
  3
*PAPER_SPACE
  1

  0
ENDBLK
  5
1D
330
1B
100
AcDbEntity
 67
     1
  8
0
100
AcDbBlockEnd
  0
ENDSEC
  0
SECTION
  2
ENTITIES
  0
SPLINE
  5
41
330
1F
100
AcDbEntity
  8
VRSTVA_1
 62
   250
100
AcDbSpline
210
0.0
220
0.0
230
1.0
 70
    27
 71
     3
 72
    12
 73
     8
 74
     0
 42
0.0000000001
 43
0.0000000001
 40
0.0
 40
0.0
 40
0.0
 40
0.0
 40
0.3333333333333333
 40
0.3333333333333333
 40
0.3333333333333333
 40
0.3333333333333333
 40
1.0
 40
1.0
 40
1.0
 40
1.0
 10
48.7109
 20
-15.5399
 30
0.0
 10
48.7109
 20
-15.5399
 30
0.0
 10
-42.6657
 20
-15.5399
 30
0.0
 10
-42.6657
 20
-15.5399
 30
0.0
 10
-42.6657
 20
-15.5399
 30
0.0
 10
-42.6657
 20
-15.5399
 30
0.0
 10
48.7109
 20
-15.5399
 30
0.0
 10
48.7109
 20
-15.5399
 30
0.0
  0
SPLINE
  5
42
330
1F
100
AcDbEntity
  8
VRSTVA_1
 62
   250
100
AcDbSpline
210
0.0
220
0.0
230
1.0
 70
    11
 71
     3
 72
    48
 73
    44
 74
     0
 42
0.0000000001
 43
0.0000000001
 40
0.0
 40
0.0
 40
0.0
 40
0.0
 40
0.0833333333333333
 40
0.0833333333333333
 40
0.0833333333333333
 40
0.0833333333333333
 40
0.1666666666666667
 40
0.1666666666666667
 40
0.1666666666666667
 40
0.1666666666666667
 40
0.25
 40
0.25
 40
0.25
 40
0.25
 40
0.3333333333333333
 40
0.3333333333333333
 40
0.3333333333333333
 40
0.3333333333333333
 40
0.4166666666666667
 40
0.4166666666666667
 40
0.4166666666666667
 40
0.4166666666666667
 40
0.5
 40
0.5
 40
0.5
 40
0.5
 40
0.5833333333333334
 40
0.5833333333333334
 40
0.5833333333333334
 40
0.5833333333333334
 40
0.6666666666666666
 40
0.6666666666666666
 40
0.6666666666666666
 40
0.6666666666666666
 40
0.75
 40
0.75
 40
0.75
 40
0.75
 40
0.8333333333333334
 40
0.8333333333333334
 40
0.8333333333333334
 40
0.8333333333333334
 40
1.0
 40
1.0
 40
1.0
 40
1.0
 10
-3.9807
 20
-14.8325
 30
0.0
 10
-3.9807
 20
-14.8325
 30
0.0
 10
-3.9807
 20
-14.349
 30
0.0
 10
-3.9807
 20
-14.349
 30
0.0
 10
-3.9807
 20
-14.349
 30
0.0
 10
-3.9807
 20
-14.349
 30
0.0
 10
-4.857
 20
-14.349
 30
0.0
 10
-4.857
 20
-14.349
 30
0.0
 10
-4.857
 20
-14.349
 30
0.0
 10
-4.857
 20
-14.349
 30
0.0
 10
-4.857
 20
-14.1213
 30
0.0
 10
-4.857
 20
-14.1213
 30
0.0
 10
-4.857
 20
-14.1213
 30
0.0
 10
-4.857
 20
-14.1213
 30
0.0
 10
-3.935
 20
-12.8123
 30
0.0
 10
-3.935
 20
-12.8123
 30
0.0
 10
-3.935
 20
-12.8123
 30
0.0
 10
-3.935
 20
-12.8123
 30
0.0
 10
-3.7323
 20
-12.8123
 30
0.0
 10
-3.7323
 20
-12.8123
 30
0.0
 10
-3.7323
 20
-12.8123
 30
0.0
 10
-3.7323
 20
-12.8123
 30
0.0
 10
-3.7323
 20
-14.1213
 30
0.0
 10
-3.7323
 20
-14.1213
 30
0.0
 10
-3.7323
 20
-14.1213
 30
0.0
 10
-3.7323
 20
-14.1213
 30
0.0
 10
-3.4595
 20
-14.1213
 30
0.0
 10
-3.4595
 20
-14.1213
 30
0.0
 10
-3.4595
 20
-14.1213
 30
0.0
 10
-3.4595
 20
-14.1213
 30
0.0
 10
-3.4595
 20
-14.349
 30
0.0
 10
-3.4595
 20
-14.349
 30
0.0
 10
-3.4595
 20
-14.349
 30
0.0
 10
-3.4595
 20
-14.349
 30
0.0
 10
-3.7323
 20
-14.349
 30
0.0
 10
-3.7323
 20
-14.349
 30
0.0
 10
-3.7323
 20
-14.349
 30
0.0
 10
-3.7323
 20
-14.349
 30
0.0
 10
-3.7323
 20
-14.8325
 30
0.0
 10
-3.7323
 20
-14.8325
 30
0.0
 10
-3.7323
 20
-14.8325
 30
0.0
 10
-3.7323
 20
-14.8325
 30
0.0
 10
-3.9807
 20
-14.8325
 30
0.0
 10
-3.9807
 20
-14.8325
 30
0.0
  0
SPLINE
  5
43
330
1F
100
AcDbEntity
  8
VRSTVA_1
 62
   250
100
AcDbSpline
210
0.0
220
0.0
230
1.0
 70
    11
 71
     3
 72
    16
 73
    12
 74
     0
 42
0.0000000001
 43
0.0000000001
 40
0.0
 40
0.0
 40
0.0
 40
0.0
 40
0.25
 40
0.25
 40
0.25
 40
0.25
 40
0.5
 40
0.5
 40
0.5
 40
0.5
 40
1.0
 40
1.0
 40
1.0
 40
1.0
 10
-3.9807
 20
-14.1213
 30
0.0
 10
-3.9807
 20
-14.1213
 30
0.0
 10
-3.9807
 20
-13.2107
 30
0.0
 10
-3.9807
 20
-13.2107
 30
0.0
 10
-3.9807
 20
-13.2107
 30
0.0
 10
-3.9807
 20
-13.2107
 30
0.0
 10
-4.6128
 20
-14.1213
 30
0.0
 10
-4.6128
 20
-14.1213
 30
0.0
 10
-4.6128
 20
-14.1213
 30
0.0
 10
-4.6128
 20
-14.1213
 30
0.0
 10
-3.9807
 20
-14.1213
 30
0.0
 10
-3.9807
 20
-14.1213
 30
0.0
  0
SPLINE
  5
44
330
1F
100
AcDbEntity
  8
VRSTVA_1
 62
   250
100
AcDbSpline
210
0.0
220
0.0
230
1.0
 70
    11
 71
     3
 72
    52
 73
    48
 74
     0
 42
0.0000000001
 43
0.0000000001
 40
0.0
 40
0.0
 40
0.0
 40
0.0
 40
0.0769230769230769
 40
0.0769230769230769
 40
0.0769230769230769
 40
0.0769230769230769
 40
0.1538461538461539
 40
0.1538461538461539
 40
0.1538461538461539
 40
0.1538461538461539
 40
0.2307692307692308
 40
0.2307692307692308
 40
0.2307692307692308
 40
0.2307692307692308
 40
0.3076923076923077
 40
0.3076923076923077
 40
0.3076923076923077
 40
0.3076923076923077
 40
0.3846153846153846
 40
0.3846153846153846
 40
0.3846153846153846
 40
0.3846153846153846
 40
0.4615384615384616
 40
0.4615384615384616
 40
0.4615384615384616
 40
0.4615384615384616
 40
0.5384615384615384
 40
0.5384615384615384
 40
0.5384615384615384
 40
0.5384615384615384
 40
0.6153846153846154
 40
0.6153846153846154
 40
0.6153846153846154
 40
0.6153846153846154
 40
0.6923076923076923
 40
0.6923076923076923
 40
0.6923076923076923
 40
0.6923076923076923
 40
0.7692307692307693
 40
0.7692307692307693
 40
0.7692307692307693
 40
0.7692307692307693
 40
0.8461538461538461
 40
0.8461538461538461
 40
0.8461538461538461
 40
0.8461538461538461
 40
1.0
 40
1.0
 40
1.0
 40
1.0
 10
-3.206
 20
-13.8363
 30
0.0
 10
-3.206
 20
-13.5973
 30
0.0
 10
-3.1815
 20
-13.4049
 30
0.0
 10
-3.1321
 20
-13.2596
 30
0.0
 10
-3.1321
 20
-13.2596
 30
0.0
 10
-3.0832
 20
-13.1138
 30
0.0
 10
-3.0098
 20
-13.0014
 30
0.0
 10
-2.9129
 20
-12.9223
 30
0.0
 10
-2.9129
 20
-12.9223
 30
0.0
 10
-2.816
 20
-12.8433
 30
0.0
 10
-2.6942
 20
-12.8038
 30
0.0
 10
-2.5475
 20
-12.8038
 30
0.0
 10
-2.5475
 20
-12.8038
 30
0.0
 10
-2.4388
 20
-12.8038
 30
0.0
 10
-2.3438
 20
-12.8259
 30
0.0
 10
-2.262
 20
-12.8697
 30
0.0
 10
-2.262
 20
-12.8697
 30
0.0
 10
-2.1801
 20
-12.9129
 30
0.0
 10
-2.1128
 20
-12.976
 30
0.0
 10
-2.0592
 20
-13.0583
 30
0.0
 10
-2.0592
 20
-13.0583
 30
0.0
 10
-2.0061
 20
-13.1406
 30
0.0
 10
-1.9642
 20
-13.2408
 30
0.0
 10
-1.9341
 20
-13.3588
 30
0.0
 10
-1.9341
 20
-13.3588
 30
0.0
 10
-1.9035
 20
-13.4769
 30
0.0
 10
-1.8885
 20
-13.6359
 30
0.0
 10
-1.8885
 20
-13.8363
 30
0.0
 10
-1.8885
 20
-13.8363
 30
0.0
 10
-1.8885
 20
-14.0733
 30
0.0
 10
-1.9129
 20
-14.2643
 30
0.0
 10
-1.9614
 20
-14.4101
 30
0.0
 10
-1.9614
 20
-14.4101
 30
0.0
 10
-2.0103
 20
-14.5559
 30
0.0
 10
-2.0832
 20
-14.6683
 30
0.0
 10
-2.1801
 20
-14.7478
 30
0.0
 10
-2.1801
 20
-14.7478
 30
0.0
 10
-2.277
 20
-14.8273
 30
0.0
 10
-2.3993
 20
-14.8668
 30
0.0
 10
-2.5475
 20
-14.8668
 30
0.0
 10
-2.5475
 20
-14.8668
 30
0.0
 10
-2.7422
 20
-14.8668
 30
0.0
 10
-2.8951
 20
-14.7972
 30
0.0
 10
-3.0061
 20
-14.6575
 30
0.0
 10
-3.0061
 20
-14.6575
 30
0.0
 10
-3.1392
 20
-14.4896
 30
0.0
 10
-3.206
 20
-14.2154
 30
0.0
 10
-3.206
 20
-13.8363
 30
0.0
  0
SPLINE
  5
45
330
1F
100
AcDbEntity
  8
VRSTVA_1
 62
   250
100
AcDbSpline
210
0.0
220
0.0
230
1.0
 70
    11
 71
     3
 72
    36
 73
    32
 74
     0
 42
0.0000000001
 43
0.0000000001
 40
0.0
 40
0.0
 40
0.0
 40
0.0
 40
0.1111111111111111
 40
0.1111111111111111
 40
0.1111111111111111
 40
0.1111111111111111
 40
0.2222222222222222
 40
0.2222222222222222
 40
0.2222222222222222
 40
0.2222222222222222
 40
0.3333333333333333
 40
0.3333333333333333
 40
0.3333333333333333
 40
0.3333333333333333
 40
0.4444444444444444
 40
0.4444444444444444
 40
0.4444444444444444
 40
0.4444444444444444
 40
0.5555555555555556
 40
0.5555555555555556
 40
0.5555555555555556
 40
0.5555555555555556
 40
0.6666666666666666
 40
0.6666666666666666
 40
0.6666666666666666
 40
0.6666666666666666
 40
0.7777777777777778
 40
0.7777777777777778
 40
0.7777777777777778
 40
0.7777777777777778
 40
1.0
 40
1.0
 40
1.0
 40
1.0
 10
-2.951
 20
-13.8363
 30
0.0
 10
-2.951
 20
-14.1679
 30
0.0
 10
-2.912
 20
-14.3885
 30
0.0
 10
-2.8344
 20
-14.4985
 30
0.0
 10
-2.8344
 20
-14.4985
 30
0.0
 10
-2.7568
 20
-14.6081
 30
0.0
 10
-2.6613
 20
-14.6632
 30
0.0
 10
-2.5475
 20
-14.6632
 30
0.0
 10
-2.5475
 20
-14.6632
 30
0.0
 10
-2.4332
 20
-14.6632
 30
0.0
 10
-2.3377
 20
-14.6077
 30
0.0
 10
-2.2601
 20
-14.4976
 30
0.0
 10
-2.2601
 20
-14.4976
 30
0.0
 10
-2.1825
 20
-14.3875
 30
0.0
 10
-2.1434
 20
-14.1669
 30
0.0
 10
-2.1434
 20
-13.8363
 30
0.0
 10
-2.1434
 20
-13.8363
 30
0.0
 10
-2.1434
 20
-13.5037
 30
0.0
 10
-2.1825
 20
-13.2826
 30
0.0
 10
-2.2601
 20
-13.1735
 30
0.0
 10
-2.2601
 20
-13.1735
 30
0.0
 10
-2.3377
 20
-13.0639
 30
0.0
 10
-2.4341
 20
-13.0094
 30
0.0
 10
-2.5498
 20
-13.0094
 30
0.0
 10
-2.5498
 20
-13.0094
 30
0.0
 10
-2.6641
 20
-13.0094
 30
0.0
 10
-2.7549
 20
-13.0578
 30
0.0
 10
-2.8231
 20
-13.1542
 30
0.0
 10
-2.8231
 20
-13.1542
 30
0.0
 10
-2.9082
 20
-13.277
 30
0.0
 10
-2.951
 20
-13.5047
 30
0.0
 10
-2.951
 20
-13.8363
 30
0.0
  0
SPLINE
  5
46
330
1F
100
AcDbEntity
  8
VRSTVA_1
 62
   250
100
AcDbSpline
210
0.0
220
0.0
230
1.0
 70
    11
 71
     3
 72
    52
 73
    48
 74
     0
 42
0.0000000001
 43
0.0000000001
 40
0.0
 40
0.0
 40
0.0
 40
0.0
 40
0.0769230769230769
 40
0.0769230769230769
 40
0.0769230769230769
 40
0.0769230769230769
 40
0.1538461538461539
 40
0.1538461538461539
 40
0.1538461538461539
 40
0.1538461538461539
 40
0.2307692307692308
 40
0.2307692307692308
 40
0.2307692307692308
 40
0.2307692307692308
 40
0.3076923076923077
 40
0.3076923076923077
 40
0.3076923076923077
 40
0.3076923076923077
 40
0.3846153846153846
 40
0.3846153846153846
 40
0.3846153846153846
 40
0.3846153846153846
 40
0.4615384615384616
 40
0.4615384615384616
 40
0.4615384615384616
 40
0.4615384615384616
 40
0.5384615384615384
 40
0.5384615384615384
 40
0.5384615384615384
 40
0.5384615384615384
 40
0.6153846153846154
 40
0.6153846153846154
 40
0.6153846153846154
 40
0.6153846153846154
 40
0.6923076923076923
 40
0.6923076923076923
 40
0.6923076923076923
 40
0.6923076923076923
 40
0.7692307692307693
 40
0.7692307692307693
 40
0.7692307692307693
 40
0.7692307692307693
 40
0.8461538461538461
 40
0.8461538461538461
 40
0.8461538461538461
 40
0.8461538461538461
 40
1.0
 40
1.0
 40
1.0
 40
1.0
 10
-1.6364
 20
-13.8363
 30
0.0
 10
-1.6364
 20
-13.5973
 30
0.0
 10
-1.6119
 20
-13.4049
 30
0.0
 10
-1.5625
 20
-13.2596
 30
0.0
 10
-1.5625
 20
-13.2596
 30
0.0
 10
-1.5136
 20
-13.1138
 30
0.0
 10
-1.4402
 20
-13.0014
 30
0.0
 10
-1.3433
 20
-12.9223
 30
0.0
 10
-1.3433
 20
-12.9223
 30
0.0
 10
-1.2464
 20
-12.8433
 30
0.0
 10
-1.1246
 20
-12.8038
 30
0.0
 10
-0.9779
 20
-12.8038
 30
0.0
 10
-0.9779
 20
-12.8038
 30
0.0
 10
-0.8692
 20
-12.8038
 30
0.0
 10
-0.7742
 20
-12.8259
 30
0.0
 10
-0.6924
 20
-12.8697
 30
0.0
 10
-0.6924
 20
-12.8697
 30
0.0
 10
-0.6105
 20
-12.9129
 30
0.0
 10
-0.5432
 20
-12.976
 30
0.0
 10
-0.4896
 20
-13.0583
 30
0.0
 10
-0.4896
 20
-13.0583
 30
0.0
 10
-0.4365
 20
-13.1406
 30
0.0
 10
-0.3946
 20
-13.2408
 30
0.0
 10
-0.3645
 20
-13.3588
 30
0.0
 10
-0.3645
 20
-13.3588
 30
0.0
 10
-0.3339
 20
-13.4769
 30
0.0
 10
-0.3189
 20
-13.6359
 30
0.0
 10
-0.3189
 20
-13.8363
 30
0.0
 10
-0.3189
 20
-13.8363
 30
0.0
 10
-0.3189
 20
-14.0733
 30
0.0
 10
-0.3433
 20
-14.2643
 30
0.0
 10
-0.3918
 20
-14.4101
 30
0.0
 10
-0.3918
 20
-14.4101
 30
0.0
 10
-0.4407
 20
-14.5559
 30
0.0
 10
-0.5136
 20
-14.6683
 30
0.0
 10
-0.6105
 20
-14.7478
 30
0.0
 10
-0.6105
 20
-14.7478
 30
0.0
 10
-0.7074
 20
-14.8273
 30
0.0
 10
-0.8297
 20
-14.8668
 30
0.0
 10
-0.9779
 20
-14.8668
 30
0.0
 10
-0.9779
 20
-14.8668
 30
0.0
 10
-1.1726
 20
-14.8668
 30
0.0
 10
-1.3255
 20
-14.7972
 30
0.0
 10
-1.4365
 20
-14.6575
 30
0.0
 10
-1.4365
 20
-14.6575
 30
0.0
 10
-1.5696
 20
-14.4896
 30
0.0
 10
-1.6364
 20
-14.2154
 30
0.0
 10
-1.6364
 20
-13.8363
 30
0.0
  0
SPLINE
  5
47
330
1F
100
AcDbEntity
  8
VRSTVA_1
 62
   250
100
AcDbSpline
210
0.0
220
0.0
230
1.0
 70
    11
 71
     3
 72
    36
 73
    32
 74
     0
 42
0.0000000001
 43
0.0000000001
 40
0.0
 40
0.0
 40
0.0
 40
0.0
 40
0.1111111111111111
 40
0.1111111111111111
 40
0.1111111111111111
 40
0.1111111111111111
 40
0.2222222222222222
 40
0.2222222222222222
 40
0.2222222222222222
 40
0.2222222222222222
 40
0.3333333333333333
 40
0.3333333333333333
 40
0.3333333333333333
 40
0.3333333333333333
 40
0.4444444444444444
 40
0.4444444444444444
 40
0.4444444444444444
 40
0.4444444444444444
 40
0.5555555555555556
 40
0.5555555555555556
 40
0.5555555555555556
 40
0.5555555555555556
 40
0.6666666666666666
 40
0.6666666666666666
 40
0.6666666666666666
 40
0.6666666666666666
 40
0.7777777777777778
 40
0.7777777777777778
 40
0.7777777777777778
 40
0.7777777777777778
 40
1.0
 40
1.0
 40
1.0
 40
1.0
 10
-1.3814
 20
-13.8363
 30
0.0
 10
-1.3814
 20
-14.1679
 30
0.0
 10
-1.3424
 20
-14.3885
 30
0.0
 10
-1.2648
 20
-14.4985
 30
0.0
 10
-1.2648
 20
-14.4985
 30
0.0
 10
-1.1872
 20
-14.6081
 30
0.0
 10
-1.0917
 20
-14.6632
 30
0.0
 10
-0.9779
 20
-14.6632
 30
0.0
 10
-0.9779
 20
-14.6632
 30
0.0
 10
-0.8636
 20
-14.6632
 30
0.0
 10
-0.7681
 20
-14.6077
 30
0.0
 10
-0.6905
 20
-14.4976
 30
0.0
 10
-0.6905
 20
-14.4976
 30
0.0
 10
-0.6129
 20
-14.3875
 30
0.0
 10
-0.5738
 20
-14.1669
 30
0.0
 10
-0.5738
 20
-13.8363
 30
0.0
 10
-0.5738
 20
-13.8363
 30
0.0
 10
-0.5738
 20
-13.5037
 30
0.0
 10
-0.6129
 20
-13.2826
 30
0.0
 10
-0.6905
 20
-13.1735
 30
0.0
 10
-0.6905
 20
-13.1735
 30
0.0
 10
-0.7681
 20
-13.0639
 30
0.0
 10
-0.8645
 20
-13.0094
 30
0.0
 10
-0.9802
 20
-13.0094
 30
0.0
 10
-0.9802
 20
-13.0094
 30
0.0
 10
-1.0945
 20
-13.0094
 30
0.0
 10
-1.1853
 20
-13.0578
 30
0.0
 10
-1.2535
 20
-13.1542
 30
0.0
 10
-1.2535
 20
-13.1542
 30
0.0
 10
-1.3386
 20
-13.277
 30
0.0
 10
-1.3814
 20
-13.5047
 30
0.0
 10
-1.3814
 20
-13.8363
 30
0.0
  0
SPLINE
  5
48
330
1F
100
AcDbEntity
  8
VRSTVA_1
 62
   250
100
AcDbSpline
210
0.0
220
0.0
230
1.0
 70
    11
 71
     3
 72
    20
 73
    16
 74
     0
 42
0.0000000001
 43
0.0000000001
 40
0.0
 40
0.0
 40
0.0
 40
0.0
 40
0.2
 40
0.2
 40
0.2
 40
0.2
 40
0.4
 40
0.4
 40
0.4
 40
0.4
 40
0.6
 40
0.6
 40
0.6
 40
0.6
 40
1.0
 40
1.0
 40
1.0
 40
1.0
 10
0.6896
 20
-14.2262
 30
0.0
 10
0.6896
 20
-14.2262
 30
0.0
 10
0.6896
 20
-13.9769
 30
0.0
 10
0.6896
 20
-13.9769
 30
0.0
 10
0.6896
 20
-13.9769
 30
0.0
 10
0.6896
 20
-13.9769
 30
0.0
 10
1.452
 20
-13.9769
 30
0.0
 10
1.452
 20
-13.9769
 30
0.0
 10
1.452
 20
-13.9769
 30
0.0
 10
1.452
 20
-13.9769
 30
0.0
 10
1.452
 20
-14.2262
 30
0.0
 10
1.452
 20
-14.2262
 30
0.0
 10
1.452
 20
-14.2262
 30
0.0
 10
1.452
 20
-14.2262
 30
0.0
 10
0.6896
 20
-14.2262
 30
0.0
 10
0.6896
 20
-14.2262
 30
0.0
  0
SPLINE
  5
49
330
1F
100
AcDbEntity
  8
VRSTVA_1
 62
   250
100
AcDbSpline
210
0.0
220
0.0
230
1.0
 70
    11
 71
     3
 72
    68
 73
    64
 74
     0
 42
0.0000000001
 43
0.0000000001
 40
0.0
 40
0.0
 40
0.0
 40
0.0
 40
0.0588235294117647
 40
0.0588235294117647
 40
0.0588235294117647
 40
0.0588235294117647
 40
0.1176470588235294
 40
0.1176470588235294
 40
0.1176470588235294
 40
0.1176470588235294
 40
0.1764705882352941
 40
0.1764705882352941
 40
0.1764705882352941
 40
0.1764705882352941
 40
0.2352941176470588
 40
0.2352941176470588
 40
0.2352941176470588
 40
0.2352941176470588
 40
0.2941176470588235
 40
0.2941176470588235
 40
0.2941176470588235
 40
0.2941176470588235
 40
0.3529411764705883
 40
0.3529411764705883
 40
0.3529411764705883
 40
0.3529411764705883
 40
0.4117647058823529
 40
0.4117647058823529
 40
0.4117647058823529
 40
0.4117647058823529
 40
0.4705882352941176
 40
0.4705882352941176
 40
0.4705882352941176
 40
0.4705882352941176
 40
0.5294117647058824
 40
0.5294117647058824
 40
0.5294117647058824
 40
0.5294117647058824
 40
0.5882352941176471
 40
0.5882352941176471
 40
0.5882352941176471
 40
0.5882352941176471
 40
0.6470588235294118
 40
0.6470588235294118
 40
0.6470588235294118
 40
0.6470588235294118
 40
0.7058823529411765
 40
0.7058823529411765
 40
0.7058823529411765
 40
0.7058823529411765
 40
0.7647058823529411
 40
0.7647058823529411
 40
0.7647058823529411
 40
0.7647058823529411
 40
0.8235294117647058
 40
0.8235294117647058
 40
0.8235294117647058
 40
0.8235294117647058
 40
0.8823529411764706
 40
0.8823529411764706
 40
0.8823529411764706
 40
0.8823529411764706
 40
1.0
 40
1.0
 40
1.0
 40
1.0
 10
2.8232
 20
-13.737
 30
0.0
 10
2.7201
 20
-13.6994
 30
0.0
 10
2.6439
 20
-13.6458
 30
0.0
 10
2.5941
 20
-13.5757
 30
0.0
 10
2.5941
 20
-13.5757
 30
0.0
 10
2.5447
 20
-13.5061
 30
0.0
 10
2.5198
 20
-13.4223
 30
0.0
 10
2.5198
 20
-13.325
 30
0.0
 10
2.5198
 20
-13.325
 30
0.0
 10
2.5198
 20
-13.1778
 30
0.0
 10
2.5725
 20
-13.0545
 30
0.0
 10
2.6783
 20
-12.9543
 30
0.0
 10
2.6783
 20
-12.9543
 30
0.0
 10
2.7841
 20
-12.8541
 30
0.0
 10
2.9243
 20
-12.8038
 30
0.0
 10
3.0997
 20
-12.8038
 30
0.0
 10
3.0997
 20
-12.8038
 30
0.0
 10
3.2761
 20
-12.8038
 30
0.0
 10
3.4182
 20
-12.8551
 30
0.0
 10
3.5259
 20
-12.9576
 30
0.0
 10
3.5259
 20
-12.9576
 30
0.0
 10
3.6331
 20
-13.0602
 30
0.0
 10
3.6868
 20
-13.1848
 30
0.0
 10
3.6868
 20
-13.332
 30
0.0
 10
3.6868
 20
-13.332
 30
0.0
 10
3.6868
 20
-13.4256
 30
0.0
 10
3.6623
 20
-13.507
 30
0.0
 10
3.6134
 20
-13.5766
 30
0.0
 10
3.6134
 20
-13.5766
 30
0.0
 10
3.564
 20
-13.6458
 30
0.0
 10
3.4897
 20
-13.6994
 30
0.0
 10
3.3895
 20
-13.737
 30
0.0
 10
3.3895
 20
-13.737
 30
0.0
 10
3.5132
 20
-13.7775
 30
0.0
 10
3.6077
 20
-13.8424
 30
0.0
 10
3.6726
 20
-13.9327
 30
0.0
 10
3.6726
 20
-13.9327
 30
0.0
 10
3.7371
 20
-14.0225
 30
0.0
 10
3.7695
 20
-14.1302
 30
0.0
 10
3.7695
 20
-14.2549
 30
0.0
 10
3.7695
 20
-14.2549
 30
0.0
 10
3.7695
 20
-14.428
 30
0.0
 10
3.7084
 20
-14.5729
 30
0.0
 10
3.5866
 20
-14.6904
 30
0.0
 10
3.5866
 20
-14.6904
 30
0.0
 10
3.4643
 20
-14.808
 30
0.0
 10
3.3034
 20
-14.8668
 30
0.0
 10
3.104
 20
-14.8668
 30
0.0
 10
3.104
 20
-14.8668
 30
0.0
 10
2.9045
 20
-14.8668
 30
0.0
 10
2.7441
 20
-14.808
 30
0.0
 10
2.6218
 20
-14.69
 30
0.0
 10
2.6218
 20
-14.69
 30
0.0
 10
2.4995
 20
-14.5719
 30
0.0
 10
2.4384
 20
-14.4247
 30
0.0
 10
2.4384
 20
-14.2483
 30
0.0
 10
2.4384
 20
-14.2483
 30
0.0
 10
2.4384
 20
-14.1171
 30
0.0
 10
2.4718
 20
-14.007
 30
0.0
 10
2.5386
 20
-13.9181
 30
0.0
 10
2.5386
 20
-13.9181
 30
0.0
 10
2.6049
 20
-13.8297
 30
0.0
 10
2.6999
 20
-13.769
 30
0.0
 10
2.8232
 20
-13.737
 30
0.0
  0
SPLINE
  5
4A
330
1F
100
AcDbEntity
  8
VRSTVA_1
 62
   250
100
AcDbSpline
210
0.0
220
0.0
230
1.0
 70
    11
 71
     3
 72
    36
 73
    32
 74
     0
 42
0.0000000001
 43
0.0000000001
 40
0.0
 40
0.0
 40
0.0
 40
0.0
 40
0.1111111111111111
 40
0.1111111111111111
 40
0.1111111111111111
 40
0.1111111111111111
 40
0.2222222222222222
 40
0.2222222222222222
 40
0.2222222222222222
 40
0.2222222222222222
 40
0.3333333333333333
 40
0.3333333333333333
 40
0.3333333333333333
 40
0.3333333333333333
 40
0.4444444444444444
 40
0.4444444444444444
 40
0.4444444444444444
 40
0.4444444444444444
 40
0.5555555555555556
 40
0.5555555555555556
 40
0.5555555555555556
 40
0.5555555555555556
 40
0.6666666666666666
 40
0.6666666666666666
 40
0.6666666666666666
 40
0.6666666666666666
 40
0.7777777777777778
 40
0.7777777777777778
 40
0.7777777777777778
 40
0.7777777777777778
 40
1.0
 40
1.0
 40
1.0
 40
1.0
 10
2.7733
 20
-13.3165
 30
0.0
 10
2.7733
 20
-13.412
 30
0.0
 10
2.8043
 20
-13.4901
 30
0.0
 10
2.8655
 20
-13.5508
 30
0.0
 10
2.8655
 20
-13.5508
 30
0.0
 10
2.9271
 20
-13.6114
 30
0.0
 10
3.0071
 20
-13.642
 30
0.0
 10
3.1054
 20
-13.642
 30
0.0
 10
3.1054
 20
-13.642
 30
0.0
 10
3.2009
 20
-13.642
 30
0.0
 10
3.2794
 20
-13.6119
 30
0.0
 10
3.3406
 20
-13.5517
 30
0.0
 10
3.3406
 20
-13.5517
 30
0.0
 10
3.4017
 20
-13.4915
 30
0.0
 10
3.4318
 20
-13.4176
 30
0.0
 10
3.4318
 20
-13.3306
 30
0.0
 10
3.4318
 20
-13.3306
 30
0.0
 10
3.4318
 20
-13.2394
 30
0.0
 10
3.4008
 20
-13.1632
 30
0.0
 10
3.3377
 20
-13.1011
 30
0.0
 10
3.3377
 20
-13.1011
 30
0.0
 10
3.2747
 20
-13.039
 30
0.0
 10
3.1966
 20
-13.0079
 30
0.0
 10
3.1026
 20
-13.0079
 30
0.0
 10
3.1026
 20
-13.0079
 30
0.0
 10
3.008
 20
-13.0079
 30
0.0
 10
2.9295
 20
-13.0385
 30
0.0
 10
2.8669
 20
-13.0987
 30
0.0
 10
2.8669
 20
-13.0987
 30
0.0
 10
2.8043
 20
-13.1594
 30
0.0
 10
2.7733
 20
-13.2323
 30
0.0
 10
2.7733
 20
-13.3165
 30
0.0
  0
SPLINE
  5
4B
330
1F
100
AcDbEntity
  8
VRSTVA_1
 62
   250
100
AcDbSpline
210
0.0
220
0.0
230
1.0
 70
    11
 71
     3
 72
    40
 73
    36
 74
     0
 42
0.0000000001
 43
0.0000000001
 40
0.0
 40
0.0
 40
0.0
 40
0.0
 40
0.1
 40
0.1
 40
0.1
 40
0.1
 40
0.2
 40
0.2
 40
0.2
 40
0.2
 40
0.3
 40
0.3
 40
0.3
 40
0.3
 40
0.4
 40
0.4
 40
0.4
 40
0.4
 40
0.5
 40
0.5
 40
0.5
 40
0.5
 40
0.6
 40
0.6
 40
0.6
 40
0.6
 40
0.7
 40
0.7
 40
0.7
 40
0.7
 40
0.8
 40
0.8
 40
0.8
 40
0.8
 40
1.0
 40
1.0
 40
1.0
 40
1.0
 10
2.6933
 20
-14.2497
 30
0.0
 10
2.6933
 20
-14.3203
 30
0.0
 10
2.7103
 20
-14.3889
 30
0.0
 10
2.7437
 20
-14.4548
 30
0.0
 10
2.7437
 20
-14.4548
 30
0.0
 10
2.7771
 20
-14.5211
 30
0.0
 10
2.8269
 20
-14.5724
 30
0.0
 10
2.8932
 20
-14.6086
 30
0.0
 10
2.8932
 20
-14.6086
 30
0.0
 10
2.9596
 20
-14.6448
 30
0.0
 10
3.0306
 20
-14.6632
 30
0.0
 10
3.1068
 20
-14.6632
 30
0.0
 10
3.1068
 20
-14.6632
 30
0.0
 10
3.2253
 20
-14.6632
 30
0.0
 10
3.3232
 20
-14.6251
 30
0.0
 10
3.4003
 20
-14.5484
 30
0.0
 10
3.4003
 20
-14.5484
 30
0.0
 10
3.4774
 20
-14.4722
 30
0.0
 10
3.516
 20
-14.3753
 30
0.0
 10
3.516
 20
-14.2577
 30
0.0
 10
3.516
 20
-14.2577
 30
0.0
 10
3.516
 20
-14.1382
 30
0.0
 10
3.4765
 20
-14.0395
 30
0.0
 10
3.397
 20
-13.9614
 30
0.0
 10
3.397
 20
-13.9614
 30
0.0
 10
3.3175
 20
-13.8833
 30
0.0
 10
3.2178
 20
-13.8443
 30
0.0
 10
3.0983
 20
-13.8443
 30
0.0
 10
3.0983
 20
-13.8443
 30
0.0
 10
2.9817
 20
-13.8443
 30
0.0
 10
2.8852
 20
-13.8828
 30
0.0
 10
2.8086
 20
-13.96
 30
0.0
 10
2.8086
 20
-13.96
 30
0.0
 10
2.7319
 20
-14.0376
 30
0.0
 10
2.6933
 20
-14.134
 30
0.0
 10
2.6933
 20
-14.2497
 30
0.0
  0
SPLINE
  5
4C
330
1F
100
AcDbEntity
  8
VRSTVA_1
 62
   250
100
AcDbSpline
210
0.0
220
0.0
230
1.0
 70
    11
 71
     3
 72
    92
 73
    88
 74
     0
 42
0.0000000001
 43
0.0000000001
 40
0.0
 40
0.0
 40
0.0
 40
0.0
 40
0.0434782608695652
 40
0.0434782608695652
 40
0.0434782608695652
 40
0.0434782608695652
 40
0.0869565217391304
 40
0.0869565217391304
 40
0.0869565217391304
 40
0.0869565217391304
 40
0.1304347826086956
 40
0.1304347826086956
 40
0.1304347826086956
 40
0.1304347826086956
 40
0.1739130434782609
 40
0.1739130434782609
 40
0.1739130434782609
 40
0.1739130434782609
 40
0.2173913043478261
 40
0.2173913043478261
 40
0.2173913043478261
 40
0.2173913043478261
 40
0.2608695652173913
 40
0.2608695652173913
 40
0.2608695652173913
 40
0.2608695652173913
 40
0.3043478260869565
 40
0.3043478260869565
 40
0.3043478260869565
 40
0.3043478260869565
 40
0.3478260869565217
 40
0.3478260869565217
 40
0.3478260869565217
 40
0.3478260869565217
 40
0.391304347826087
 40
0.391304347826087
 40
0.391304347826087
 40
0.391304347826087
 40
0.4347826086956522
 40
0.4347826086956522
 40
0.4347826086956522
 40
0.4347826086956522
 40
0.4782608695652174
 40
0.4782608695652174
 40
0.4782608695652174
 40
0.4782608695652174
 40
0.5217391304347826
 40
0.5217391304347826
 40
0.5217391304347826
 40
0.5217391304347826
 40
0.5652173913043478
 40
0.5652173913043478
 40
0.5652173913043478
 40
0.5652173913043478
 40
0.6086956521739131
 40
0.6086956521739131
 40
0.6086956521739131
 40
0.6086956521739131
 40
0.6521739130434783
 40
0.6521739130434783
 40
0.6521739130434783
 40
0.6521739130434783
 40
0.6956521739130435
 40
0.6956521739130435
 40
0.6956521739130435
 40
0.6956521739130435
 40
0.7391304347826086
 40
0.7391304347826086
 40
0.7391304347826086
 40
0.7391304347826086
 40
0.782608695652174
 40
0.782608695652174
 40
0.782608695652174
 40
0.782608695652174
 40
0.8260869565217391
 40
0.8260869565217391
 40
0.8260869565217391
 40
0.8260869565217391
 40
0.8695652173913043
 40
0.8695652173913043
 40
0.8695652173913043
 40
0.8695652173913043
 40
0.9130434782608695
 40
0.9130434782608695
 40
0.9130434782608695
 40
0.9130434782608695
 40
1.0
 40
1.0
 40
1.0
 40
1.0
 10
4.0108
 20
-14.3033
 30
0.0
 10
4.0108
 20
-14.3033
 30
0.0
 10
4.2714
 20
-14.2812
 30
0.0
 10
4.2714
 20
-14.2812
 30
0.0
 10
4.2714
 20
-14.2812
 30
0.0
 10
4.2907
 20
-14.4082
 30
0.0
 10
4.3354
 20
-14.5032
 30
0.0
 10
4.4055
 20
-14.5672
 30
0.0
 10
4.4055
 20
-14.5672
 30
0.0
 10
4.476
 20
-14.6312
 30
0.0
 10
4.5607
 20
-14.6632
 30
0.0
 10
4.6599
 20
-14.6632
 30
0.0
 10
4.6599
 20
-14.6632
 30
0.0
 10
4.7794
 20
-14.6632
 30
0.0
 10
4.8805
 20
-14.618
 30
0.0
 10
4.9628
 20
-14.5282
 30
0.0
 10
4.9628
 20
-14.5282
 30
0.0
 10
5.0456
 20
-14.4379
 30
0.0
 10
5.087
 20
-14.3184
 30
0.0
 10
5.087
 20
-14.1698
 30
0.0
 10
5.087
 20
-14.1698
 30
0.0
 10
5.087
 20
-14.0282
 30
0.0
 10
5.0475
 20
-13.9167
 30
0.0
 10
4.968
 20
-13.8349
 30
0.0
 10
4.968
 20
-13.8349
 30
0.0
 10
4.8885
 20
-13.753
 30
0.0
 10
4.7846
 20
-13.7121
 30
0.0
 10
4.6557
 20
-13.7121
 30
0.0
 10
4.6557
 20
-13.7121
 30
0.0
 10
4.5757
 20
-13.7121
 30
0.0
 10
4.5038
 20
-13.7304
 30
0.0
 10
4.4393
 20
-13.7666
 30
0.0
 10
4.4393
 20
-13.7666
 30
0.0
 10
4.3749
 20
-13.8029
 30
0.0
 10
4.3246
 20
-13.8499
 30
0.0
 10
4.2879
 20
-13.9078
 30
0.0
 10
4.2879
 20
-13.9078
 30
0.0
 10
4.2879
 20
-13.9078
 30
0.0
 10
4.055
 20
-13.8777
 30
0.0
 10
4.055
 20
-13.8777
 30
0.0
 10
4.055
 20
-13.8777
 30
0.0
 10
4.055
 20
-13.8777
 30
0.0
 10
4.2507
 20
-12.84
 30
0.0
 10
4.2507
 20
-12.84
 30
0.0
 10
4.2507
 20
-12.84
 30
0.0
 10
4.2507
 20
-12.84
 30
0.0
 10
5.2554
 20
-12.84
 30
0.0
 10
5.2554
 20
-12.84
 30
0.0
 10
5.2554
 20
-12.84
 30
0.0
 10
5.2554
 20
-12.84
 30
0.0
 10
5.2554
 20
-13.0771
 30
0.0
 10
5.2554
 20
-13.0771
 30
0.0
 10
5.2554
 20
-13.0771
 30
0.0
 10
5.2554
 20
-13.0771
 30
0.0
 10
4.4492
 20
-13.0771
 30
0.0
 10
4.4492
 20
-13.0771
 30
0.0
 10
4.4492
 20
-13.0771
 30
0.0
 10
4.4492
 20
-13.0771
 30
0.0
 10
4.3401
 20
-13.6199
 30
0.0
 10
4.3401
 20
-13.6199
 30
0.0
 10
4.3401
 20
-13.6199
 30
0.0
 10
4.4614
 20
-13.5352
 30
0.0
 10
4.5889
 20
-13.4929
 30
0.0
 10
4.722
 20
-13.4929
 30
0.0
 10
4.722
 20
-13.4929
 30
0.0
 10
4.8984
 20
-13.4929
 30
0.0
 10
5.047
 20
-13.554
 30
0.0
 10
5.1684
 20
-13.6763
 30
0.0
 10
5.1684
 20
-13.6763
 30
0.0
 10
5.2897
 20
-13.7986
 30
0.0
 10
5.3504
 20
-13.9557
 30
0.0
 10
5.3504
 20
-14.1476
 30
0.0
 10
5.3504
 20
-14.1476
 30
0.0
 10
5.3504
 20
-14.3306
 30
0.0
 10
5.2968
 20
-14.4887
 30
0.0
 10
5.1905
 20
-14.6218
 30
0.0
 10
5.1905
 20
-14.6218
 30
0.0
 10
5.0607
 20
-14.785
 30
0.0
 10
4.8838
 20
-14.8668
 30
0.0
 10
4.6599
 20
-14.8668
 30
0.0
 10
4.6599
 20
-14.8668
 30
0.0
 10
4.476
 20
-14.8668
 30
0.0
 10
4.326
 20
-14.8156
 30
0.0
 10
4.2098
 20
-14.7126
 30
0.0
 10
4.2098
 20
-14.7126
 30
0.0
 10
4.0936
 20
-14.6095
 30
0.0
 10
4.0273
 20
-14.4731
 30
0.0
 10
4.0108
 20
-14.3033
 30
0.0
  0
SPLINE
  5
4D
330
1F
100
AcDbEntity
  8
VRSTVA_1
 62
   250
100
AcDbSpline
210
0.0
220
0.0
230
1.0
 70
    11
 71
     3
 72
    52
 73
    48
 74
     0
 42
0.0000000001
 43
0.0000000001
 40
0.0
 40
0.0
 40
0.0
 40
0.0
 40
0.0769230769230769
 40
0.0769230769230769
 40
0.0769230769230769
 40
0.0769230769230769
 40
0.1538461538461539
 40
0.1538461538461539
 40
0.1538461538461539
 40
0.1538461538461539
 40
0.2307692307692308
 40
0.2307692307692308
 40
0.2307692307692308
 40
0.2307692307692308
 40
0.3076923076923077
 40
0.3076923076923077
 40
0.3076923076923077
 40
0.3076923076923077
 40
0.3846153846153846
 40
0.3846153846153846
 40
0.3846153846153846
 40
0.3846153846153846
 40
0.4615384615384616
 40
0.4615384615384616
 40
0.4615384615384616
 40
0.4615384615384616
 40
0.5384615384615384
 40
0.5384615384615384
 40
0.5384615384615384
 40
0.5384615384615384
 40
0.6153846153846154
 40
0.6153846153846154
 40
0.6153846153846154
 40
0.6153846153846154
 40
0.6923076923076923
 40
0.6923076923076923
 40
0.6923076923076923
 40
0.6923076923076923
 40
0.7692307692307693
 40
0.7692307692307693
 40
0.7692307692307693
 40
0.7692307692307693
 40
0.8461538461538461
 40
0.8461538461538461
 40
0.8461538461538461
 40
0.8461538461538461
 40
1.0
 40
1.0
 40
1.0
 40
1.0
 10
5.5804
 20
-13.8363
 30
0.0
 10
5.5804
 20
-13.5973
 30
0.0
 10
5.6049
 20
-13.4049
 30
0.0
 10
5.6543
 20
-13.2596
 30
0.0
 10
5.6543
 20
-13.2596
 30
0.0
 10
5.7032
 20
-13.1138
 30
0.0
 10
5.7766
 20
-13.0014
 30
0.0
 10
5.8735
 20
-12.9223
 30
0.0
 10
5.8735
 20
-12.9223
 30
0.0
 10
5.9704
 20
-12.8433
 30
0.0
 10
6.0922
 20
-12.8038
 30
0.0
 10
6.2389
 20
-12.8038
 30
0.0
 10
6.2389
 20
-12.8038
 30
0.0
 10
6.3476
 20
-12.8038
 30
0.0
 10
6.4426
 20
-12.8259
 30
0.0
 10
6.5244
 20
-12.8697
 30
0.0
 10
6.5244
 20
-12.8697
 30
0.0
 10
6.6063
 20
-12.9129
 30
0.0
 10
6.6736
 20
-12.976
 30
0.0
 10
6.7272
 20
-13.0583
 30
0.0
 10
6.7272
 20
-13.0583
 30
0.0
 10
6.7803
 20
-13.1406
 30
0.0
 10
6.8222
 20
-13.2408
 30
0.0
 10
6.8523
 20
-13.3588
 30
0.0
 10
6.8523
 20
-13.3588
 30
0.0
 10
6.8829
 20
-13.4769
 30
0.0
 10
6.8979
 20
-13.6359
 30
0.0
 10
6.8979
 20
-13.8363
 30
0.0
 10
6.8979
 20
-13.8363
 30
0.0
 10
6.8979
 20
-14.0733
 30
0.0
 10
6.8735
 20
-14.2643
 30
0.0
 10
6.825
 20
-14.4101
 30
0.0
 10
6.825
 20
-14.4101
 30
0.0
 10
6.7761
 20
-14.5559
 30
0.0
 10
6.7032
 20
-14.6683
 30
0.0
 10
6.6063
 20
-14.7478
 30
0.0
 10
6.6063
 20
-14.7478
 30
0.0
 10
6.5094
 20
-14.8273
 30
0.0
 10
6.3871
 20
-14.8668
 30
0.0
 10
6.2389
 20
-14.8668
 30
0.0
 10
6.2389
 20
-14.8668
 30
0.0
 10
6.0442
 20
-14.8668
 30
0.0
 10
5.8913
 20
-14.7972
 30
0.0
 10
5.7803
 20
-14.6575
 30
0.0
 10
5.7803
 20
-14.6575
 30
0.0
 10
5.6472
 20
-14.4896
 30
0.0
 10
5.5804
 20
-14.2154
 30
0.0
 10
5.5804
 20
-13.8363
 30
0.0
  0
SPLINE
  5
4E
330
1F
100
AcDbEntity
  8
VRSTVA_1
 62
   250
100
AcDbSpline
210
0.0
220
0.0
230
1.0
 70
    11
 71
     3
 72
    36
 73
    32
 74
     0
 42
0.0000000001
 43
0.0000000001
 40
0.0
 40
0.0
 40
0.0
 40
0.0
 40
0.1111111111111111
 40
0.1111111111111111
 40
0.1111111111111111
 40
0.1111111111111111
 40
0.2222222222222222
 40
0.2222222222222222
 40
0.2222222222222222
 40
0.2222222222222222
 40
0.3333333333333333
 40
0.3333333333333333
 40
0.3333333333333333
 40
0.3333333333333333
 40
0.4444444444444444
 40
0.4444444444444444
 40
0.4444444444444444
 40
0.4444444444444444
 40
0.5555555555555556
 40
0.5555555555555556
 40
0.5555555555555556
 40
0.5555555555555556
 40
0.6666666666666666
 40
0.6666666666666666
 40
0.6666666666666666
 40
0.6666666666666666
 40
0.7777777777777778
 40
0.7777777777777778
 40
0.7777777777777778
 40
0.7777777777777778
 40
1.0
 40
1.0
 40
1.0
 40
1.0
 10
5.8354
 20
-13.8363
 30
0.0
 10
5.8354
 20
-14.1679
 30
0.0
 10
5.8744
 20
-14.3885
 30
0.0
 10
5.952
 20
-14.4985
 30
0.0
 10
5.952
 20
-14.4985
 30
0.0
 10
6.0296
 20
-14.6081
 30
0.0
 10
6.1251
 20
-14.6632
 30
0.0
 10
6.2389
 20
-14.6632
 30
0.0
 10
6.2389
 20
-14.6632
 30
0.0
 10
6.3532
 20
-14.6632
 30
0.0
 10
6.4487
 20
-14.6077
 30
0.0
 10
6.5263
 20
-14.4976
 30
0.0
 10
6.5263
 20
-14.4976
 30
0.0
 10
6.6039
 20
-14.3875
 30
0.0
 10
6.643
 20
-14.1669
 30
0.0
 10
6.643
 20
-13.8363
 30
0.0
 10
6.643
 20
-13.8363
 30
0.0
 10
6.643
 20
-13.5037
 30
0.0
 10
6.6039
 20
-13.2826
 30
0.0
 10
6.5263
 20
-13.1735
 30
0.0
 10
6.5263
 20
-13.1735
 30
0.0
 10
6.4487
 20
-13.0639
 30
0.0
 10
6.3523
 20
-13.0094
 30
0.0
 10
6.2366
 20
-13.0094
 30
0.0
 10
6.2366
 20
-13.0094
 30
0.0
 10
6.1223
 20
-13.0094
 30
0.0
 10
6.0315
 20
-13.0578
 30
0.0
 10
5.9633
 20
-13.1542
 30
0.0
 10
5.9633
 20
-13.1542
 30
0.0
 10
5.8782
 20
-13.277
 30
0.0
 10
5.8354
 20
-13.5047
 30
0.0
 10
5.8354
 20
-13.8363
 30
0.0
  0
SPLINE
  5
4F
330
1F
100
AcDbEntity
  8
VRSTVA_1
 62
   250
100
AcDbSpline
210
0.0
220
0.0
230
1.0
 70
    11
 71
     3
 72
    20
 73
    16
 74
     0
 42
0.0000000001
 43
0.0000000001
 40
0.0
 40
0.0
 40
0.0
 40
0.0
 40
0.2
 40
0.2
 40
0.2
 40
0.2
 40
0.4
 40
0.4
 40
0.4
 40
0.4
 40
0.6
 40
0.6
 40
0.6
 40
0.6
 40
1.0
 40
1.0
 40
1.0
 40
1.0
 10
-41.6191
 20
-15.9989
 30
0.0
 10
-41.6191
 20
-15.9989
 30
0.0
 10
-44.6191
 20
-15.5756
 30
0.0
 10
-44.6191
 20
-15.5756
 30
0.0
 10
-44.6191
 20
-15.5756
 30
0.0
 10
-44.6191
 20
-15.5756
 30
0.0
 10
-44.6191
 20
-15.4816
 30
0.0
 10
-44.6191
 20
-15.4816
 30
0.0
 10
-44.6191
 20
-15.4816
 30
0.0
 10
-44.6191
 20
-15.4816
 30
0.0
 10
-41.6191
 20
-15.0302
 30
0.0
 10
-41.6191
 20
-15.0302
 30
0.0
 10
-41.6191
 20
-15.0302
 30
0.0
 10
-41.6191
 20
-15.0302
 30
0.0
 10
-41.6191
 20
-15.9989
 30
0.0
 10
-41.6191
 20
-15.9989
 30
0.0
  0
SPLINE
  5
50
330
1F
100
AcDbEntity
  8
VRSTVA_1
 62
   250
100
AcDbSpline
210
0.0
220
0.0
230
1.0
 70
    11
 71
     3
 72
    20
 73
    16
 74
     0
 42
0.0000000001
 43
0.0000000001
 40
0.0
 40
0.0
 40
0.0
 40
0.0
 40
0.2
 40
0.2
 40
0.2
 40
0.2
 40
0.4
 40
0.4
 40
0.4
 40
0.4
 40
0.6
 40
0.6
 40
0.6
 40
0.6
 40
1.0
 40
1.0
 40
1.0
 40
1.0
 10
46.42
 20
-15.0485
 30
0.0
 10
46.42
 20
-15.0485
 30
0.0
 10
49.4202
 20
-15.4719
 30
0.0
 10
49.4202
 20
-15.4719
 30
0.0
 10
49.4202
 20
-15.4719
 30
0.0
 10
49.4202
 20
-15.4719
 30
0.0
 10
49.4202
 20
-15.5659
 30
0.0
 10
49.4202
 20
-15.5659
 30
0.0
 10
49.4202
 20
-15.5659
 30
0.0
 10
49.4202
 20
-15.5659
 30
0.0
 10
46.42
 20
-16.0174
 30
0.0
 10
46.42
 20
-16.0174
 30
0.0
 10
46.42
 20
-16.0174
 30
0.0
 10
46.42
 20
-16.0174
 30
0.0
 10
46.42
 20
-15.0485
 30
0.0
 10
46.42
 20
-15.0485
 30
0.0
  0
SPLINE
  5
51
330
1F
100
AcDbEntity
  8
VRSTVA_1
 62
   250
100
AcDbSpline
210
0.0
220
0.0
230
1.0
 70
    24
 71
     3
 72
     8
 73
     4
 74
     0
 42
0.0000000001
 43
0.0000000001
 40
0.0
 40
0.0
 40
0.0
 40
0.0
 40
1.0
 40
1.0
 40
1.0
 40
1.0
 10
-44.6954
 20
-5.8752
 30
0.0
 10
-44.6954
 20
-5.8752
 30
0.0
 10
-44.6954
 20
-16.136
 30
0.0
 10
-44.6954
 20
-16.136
 30
0.0
  0
SPLINE
  5
52
330
1F
100
AcDbEntity
  8
VRSTVA_1
 62
   250
100
AcDbSpline
210
0.0
220
0.0
230
1.0
 70
    24
 71
     3
 72
     8
 73
     4
 74
     0
 42
0.0000000001
 43
0.0000000001
 40
0.0
 40
0.0
 40
0.0
 40
0.0
 40
1.0
 40
1.0
 40
1.0
 40
1.0
 10
49.504
 20
-5.5296
 30
0.0
 10
49.504
 20
-5.5296
 30
0.0
 10
49.504
 20
-16.115
 30
0.0
 10
49.504
 20
-16.115
 30
0.0
  0
SPLINE
  5
53
330
1F
100
AcDbEntity
  8
VRSTVA_1
 62
   250
100
AcDbSpline
210
0.0
220
0.0
230
1.0
 70
    24
 71
     3
 72
     8
 73
     4
 74
     0
 42
0.0000000001
 43
0.0000000001
 40
0.0
 40
0.0
 40
0.0
 40
0.0
 40
1.0
 40
1.0
 40
1.0
 40
1.0
 10
-7.0485
 20
-2.2233
 30
0.0
 10
-7.0485
 20
-2.2233
 30
0.0
 10
-7.0485
 20
8.9234
 30
0.0
 10
-7.0485
 20
8.9234
 30
0.0
  0
SPLINE
  5
54
330
1F
100
AcDbEntity
  8
VRSTVA_1
 62
   250
100
AcDbSpline
210
0.0
220
0.0
230
1.0
 70
    24
 71
     3
 72
     8
 73
     4
 74
     0
 42
0.0000000001
 43
0.0000000001
 40
0.0
 40
0.0
 40
0.0
 40
0.0
 40
1.0
 40
1.0
 40
1.0
 40
1.0
 10
-5.1642
 20
-0.8786
 30
0.0
 10
-5.1642
 20
-0.8786
 30
0.0
 10
-5.1642
 20
8.12
 30
0.0
 10
-5.1642
 20
8.12
 30
0.0
  0
SPLINE
  5
55
330
1F
100
AcDbEntity
  8
VRSTVA_1
 62
   250
100
AcDbSpline
210
0.0
220
0.0
230
1.0
 70
    24
 71
     3
 72
     8
 73
     4
 74
     0
 42
0.0000000001
 43
0.0000000001
 40
0.0
 40
0.0
 40
0.0
 40
0.0
 40
1.0
 40
1.0
 40
1.0
 40
1.0
 10
-2.3383
 20
-0.8786
 30
0.0
 10
-2.3383
 20
-0.8786
 30
0.0
 10
-2.3383
 20
8.12
 30
0.0
 10
-2.3383
 20
8.12
 30
0.0
  0
SPLINE
  5
56
330
1F
100
AcDbEntity
  8
VRSTVA_1
 62
   250
100
AcDbSpline
210
0.0
220
0.0
230
1.0
 70
    24
 71
     3
 72
     8
 73
     4
 74
     0
 42
0.0000000001
 43
0.0000000001
 40
0.0
 40
0.0
 40
0.0
 40
0.0
 40
1.0
 40
1.0
 40
1.0
 40
1.0
 10
0.4875
 20
-0.8786
 30
0.0
 10
0.4875
 20
-0.8786
 30
0.0
 10
0.4875
 20
8.12
 30
0.0
 10
0.4875
 20
8.12
 30
0.0
  0
SPLINE
  5
57
330
1F
100
AcDbEntity
  8
VRSTVA_1
 62
   250
100
AcDbSpline
210
0.0
220
0.0
230
1.0
 70
    24
 71
     3
 72
     8
 73
     4
 74
     0
 42
0.0000000001
 43
0.0000000001
 40
0.0
 40
0.0
 40
0.0
 40
0.0
 40
1.0
 40
1.0
 40
1.0
 40
1.0
 10
3.3134
 20
-0.8786
 30
0.0
 10
3.3134
 20
-0.8786
 30
0.0
 10
3.3134
 20
8.12
 30
0.0
 10
3.3134
 20
8.12
 30
0.0
  0
SPLINE
  5
58
330
1F
100
AcDbEntity
  8
VRSTVA_1
 62
   250
100
AcDbSpline
210
0.0
220
0.0
230
1.0
 70
    24
 71
     3
 72
     8
 73
     4
 74
     0
 42
0.0000000001
 43
0.0000000001
 40
0.0
 40
0.0
 40
0.0
 40
0.0
 40
1.0
 40
1.0
 40
1.0
 40
1.0
 10
6.1393
 20
-0.8786
 30
0.0
 10
6.1393
 20
-0.8786
 30
0.0
 10
6.1393
 20
8.12
 30
0.0
 10
6.1393
 20
8.12
 30
0.0
  0
SPLINE
  5
59
330
1F
100
AcDbEntity
  8
VRSTVA_1
 62
   250
100
AcDbSpline
210
0.0
220
0.0
230
1.0
 70
    24
 71
     3
 72
     8
 73
     4
 74
     0
 42
0.0000000001
 43
0.0000000001
 40
0.0
 40
0.0
 40
0.0
 40
0.0
 40
1.0
 40
1.0
 40
1.0
 40
1.0
 10
8.9659
 20
-0.8781
 30
0.0
 10
8.9659
 20
-0.8781
 30
0.0
 10
8.9659
 20
8.1194
 30
0.0
 10
8.9659
 20
8.1194
 30
0.0
  0
SPLINE
  5
5A
330
1F
100
AcDbEntity
  8
VRSTVA_1
 62
   250
100
AcDbSpline
210
0.0
220
0.0
230
1.0
 70
    24
 71
     3
 72
     8
 73
     4
 74
     0
 42
0.0000000001
 43
0.0000000001
 40
0.0
 40
0.0
 40
0.0
 40
0.0
 40
1.0
 40
1.0
 40
1.0
 40
1.0
 10
11.9038
 20
-0.5449
 30
0.0
 10
11.9038
 20
-0.5449
 30
0.0
 10
11.9038
 20
7.7862
 30
0.0
 10
11.9038
 20
7.7862
 30
0.0
  0
SPLINE
  5
5B
330
1F
100
AcDbEntity
  8
VRSTVA_1
 62
   250
100
AcDbSpline
210
0.0
220
0.0
230
1.0
 70
     8
 71
     3
 72
   228
 73
   224
 74
     0
 42
0.0000000001
 43
0.0000000001
 40
0.0
 40
0.0
 40
0.0
 40
0.0
 40
0.0175438596491228
 40
0.0175438596491228
 40
0.0175438596491228
 40
0.0175438596491228
 40
0.0350877192982456
 40
0.0350877192982456
 40
0.0350877192982456
 40
0.0350877192982456
 40
0.0526315789473684
 40
0.0526315789473684
 40
0.0526315789473684
 40
0.0526315789473684
 40
0.0701754385964912
 40
0.0701754385964912
 40
0.0701754385964912
 40
0.0701754385964912
 40
0.087719298245614
 40
0.087719298245614
 40
0.087719298245614
 40
0.087719298245614
 40
0.1052631578947368
 40
0.1052631578947368
 40
0.1052631578947368
 40
0.1052631578947368
 40
0.1228070175438596
 40
0.1228070175438596
 40
0.1228070175438596
 40
0.1228070175438596
 40
0.1403508771929824
 40
0.1403508771929824
 40
0.1403508771929824
 40
0.1403508771929824
 40
0.1578947368421053
 40
0.1578947368421053
 40
0.1578947368421053
 40
0.1578947368421053
 40
0.1754385964912281
 40
0.1754385964912281
 40
0.1754385964912281
 40
0.1754385964912281
 40
0.1929824561403509
 40
0.1929824561403509
 40
0.1929824561403509
 40
0.1929824561403509
 40
0.2105263157894737
 40
0.2105263157894737
 40
0.2105263157894737
 40
0.2105263157894737
 40
0.2280701754385965
 40
0.2280701754385965
 40
0.2280701754385965
 40
0.2280701754385965
 40
0.2456140350877193
 40
0.2456140350877193
 40
0.2456140350877193
 40
0.2456140350877193
 40
0.2631578947368421
 40
0.2631578947368421
 40
0.2631578947368421
 40
0.2631578947368421
 40
0.2807017543859649
 40
0.2807017543859649
 40
0.2807017543859649
 40
0.2807017543859649
 40
0.2982456140350877
 40
0.2982456140350877
 40
0.2982456140350877
 40
0.2982456140350877
 40
0.3157894736842105
 40
0.3157894736842105
 40
0.3157894736842105
 40
0.3157894736842105
 40
0.3333333333333333
 40
0.3333333333333333
 40
0.3333333333333333
 40
0.3333333333333333
 40
0.3508771929824561
 40
0.3508771929824561
 40
0.3508771929824561
 40
0.3508771929824561
 40
0.3684210526315789
 40
0.3684210526315789
 40
0.3684210526315789
 40
0.3684210526315789
 40
0.3859649122807017
 40
0.3859649122807017
 40
0.3859649122807017
 40
0.3859649122807017
 40
0.4035087719298245
 40
0.4035087719298245
 40
0.4035087719298245
 40
0.4035087719298245
 40
0.4210526315789473
 40
0.4210526315789473
 40
0.4210526315789473
 40
0.4210526315789473
 40
0.4385964912280702
 40
0.4385964912280702
 40
0.4385964912280702
 40
0.4385964912280702
 40
0.456140350877193
 40
0.456140350877193
 40
0.456140350877193
 40
0.456140350877193
 40
0.4736842105263158
 40
0.4736842105263158
 40
0.4736842105263158
 40
0.4736842105263158
 40
0.4912280701754386
 40
0.4912280701754386
 40
0.4912280701754386
 40
0.4912280701754386
 40
0.5087719298245614
 40
0.5087719298245614
 40
0.5087719298245614
 40
0.5087719298245614
 40
0.5263157894736842
 40
0.5263157894736842
 40
0.5263157894736842
 40
0.5263157894736842
 40
0.543859649122807
 40
0.543859649122807
 40
0.543859649122807
 40
0.543859649122807
 40
0.5614035087719298
 40
0.5614035087719298
 40
0.5614035087719298
 40
0.5614035087719298
 40
0.5789473684210527
 40
0.5789473684210527
 40
0.5789473684210527
 40
0.5789473684210527
 40
0.5964912280701754
 40
0.5964912280701754
 40
0.5964912280701754
 40
0.5964912280701754
 40
0.6140350877192983
 40
0.6140350877192983
 40
0.6140350877192983
 40
0.6140350877192983
 40
0.631578947368421
 40
0.631578947368421
 40
0.631578947368421
 40
0.631578947368421
 40
0.6491228070175439
 40
0.6491228070175439
 40
0.6491228070175439
 40
0.6491228070175439
 40
0.6666666666666666
 40
0.6666666666666666
 40
0.6666666666666666
 40
0.6666666666666666
 40
0.6842105263157895
 40
0.6842105263157895
 40
0.6842105263157895
 40
0.6842105263157895
 40
0.7017543859649122
 40
0.7017543859649122
 40
0.7017543859649122
 40
0.7017543859649122
 40
0.7192982456140351
 40
0.7192982456140351
 40
0.7192982456140351
 40
0.7192982456140351
 40
0.7368421052631579
 40
0.7368421052631579
 40
0.7368421052631579
 40
0.7368421052631579
 40
0.7543859649122807
 40
0.7543859649122807
 40
0.7543859649122807
 40
0.7543859649122807
 40
0.7719298245614035
 40
0.7719298245614035
 40
0.7719298245614035
 40
0.7719298245614035
 40
0.7894736842105263
 40
0.7894736842105263
 40
0.7894736842105263
 40
0.7894736842105263
 40
0.8070175438596491
 40
0.8070175438596491
 40
0.8070175438596491
 40
0.8070175438596491
 40
0.8245614035087719
 40
0.8245614035087719
 40
0.8245614035087719
 40
0.8245614035087719
 40
0.8421052631578947
 40
0.8421052631578947
 40
0.8421052631578947
 40
0.8421052631578947
 40
0.8596491228070176
 40
0.8596491228070176
 40
0.8596491228070176
 40
0.8596491228070176
 40
0.8771929824561403
 40
0.8771929824561403
 40
0.8771929824561403
 40
0.8771929824561403
 40
0.8947368421052632
 40
0.8947368421052632
 40
0.8947368421052632
 40
0.8947368421052632
 40
0.9122807017543859
 40
0.9122807017543859
 40
0.9122807017543859
 40
0.9122807017543859
 40
0.9298245614035088
 40
0.9298245614035088
 40
0.9298245614035088
 40
0.9298245614035088
 40
0.9473684210526315
 40
0.9473684210526315
 40
0.9473684210526315
 40
0.9473684210526315
 40
0.9649122807017544
 40
0.9649122807017544
 40
0.9649122807017544
 40
0.9649122807017544
 40
1.0
 40
1.0
 40
1.0
 40
1.0
 10
14.5001
 20
7.7597
 30
0.0
 10
14.5001
 20
7.7597
 30
0.0
 10
11.9038
 20
7.7862
 30
0.0
 10
11.9038
 20
7.7862
 30
0.0
 10
11.9038
 20
7.7862
 30
0.0
 10
11.9038
 20
7.7862
 30
0.0
 10
10.2194
 20
9.5063
 30
0.0
 10
10.2194
 20
9.5063
 30
0.0
 10
10.2194
 20
9.5063
 30
0.0
 10
10.2194
 20
9.5063
 30
0.0
 10
10.0957
 20
9.5063
 30
0.0
 10
10.0957
 20
9.5063
 30
0.0
 10
10.0957
 20
9.5063
 30
0.0
 10
10.0957
 20
9.5063
 30
0.0
 10
9.0557
 20
8.1169
 30
0.0
 10
9.0557
 20
8.1169
 30
0.0
 10
9.0557
 20
8.1169
 30
0.0
 10
9.0557
 20
8.1169
 30
0.0
 10
7.3473
 20
9.531
 30
0.0
 10
7.3473
 20
9.531
 30
0.0
 10
7.3473
 20
9.531
 30
0.0
 10
7.3473
 20
9.531
 30
0.0
 10
7.1988
 20
9.531
 30
0.0
 10
7.1988
 20
9.531
 30
0.0
 10
7.1988
 20
9.531
 30
0.0
 10
7.1988
 20
9.531
 30
0.0
 10
6.1835
 20
8.216
 30
0.0
 10
6.1835
 20
8.216
 30
0.0
 10
6.1835
 20
8.216
 30
0.0
 10
6.1835
 20
8.216
 30
0.0
 10
4.5247
 20
9.531
 30
0.0
 10
4.5247
 20
9.531
 30
0.0
 10
4.5247
 20
9.531
 30
0.0
 10
4.5247
 20
9.531
 30
0.0
 10
4.3019
 20
9.531
 30
0.0
 10
4.3019
 20
9.531
 30
0.0
 10
4.3019
 20
9.531
 30
0.0
 10
4.3019
 20
9.531
 30
0.0
 10
3.3362
 20
8.1913
 30
0.0
 10
3.3362
 20
8.1913
 30
0.0
 10
3.3362
 20
8.1913
 30
0.0
 10
3.3362
 20
8.1913
 30
0.0
 10
1.6772
 20
9.531
 30
0.0
 10
1.6772
 20
9.531
 30
0.0
 10
1.6772
 20
9.531
 30
0.0
 10
1.6772
 20
9.531
 30
0.0
 10
1.5535
 20
9.531
 30
0.0
 10
1.5535
 20
9.531
 30
0.0
 10
1.5535
 20
9.531
 30
0.0
 10
1.5535
 20
9.531
 30
0.0
 10
0.5383
 20
8.1416
 30
0.0
 10
0.5383
 20
8.1416
 30
0.0
 10
0.5383
 20
8.1416
 30
0.0
 10
0.5383
 20
8.1416
 30
0.0
 10
-1.0711
 20
9.5063
 30
0.0
 10
-1.0711
 20
9.5063
 30
0.0
 10
-1.0711
 20
9.5063
 30
0.0
 10
-1.0711
 20
9.5063
 30
0.0
 10
-1.2692
 20
9.5063
 30
0.0
 10
-1.2692
 20
9.5063
 30
0.0
 10
-1.2692
 20
9.5063
 30
0.0
 10
-1.2692
 20
9.5063
 30
0.0
 10
-2.3338
 20
8.1416
 30
0.0
 10
-2.3338
 20
8.1416
 30
0.0
 10
-2.3338
 20
8.1416
 30
0.0
 10
-2.3338
 20
8.1416
 30
0.0
 10
-3.968
 20
9.5063
 30
0.0
 10
-3.968
 20
9.5063
 30
0.0
 10
-3.968
 20
9.5063
 30
0.0
 10
-3.968
 20
9.5063
 30
0.0
 10
-4.0917
 20
9.5063
 30
0.0
 10
-4.0917
 20
9.5063
 30
0.0
 10
-4.0917
 20
9.5063
 30
0.0
 10
-4.0917
 20
9.5063
 30
0.0
 10
-5.0821
 20
8.1664
 30
0.0
 10
-5.0821
 20
8.1664
 30
0.0
 10
-5.0821
 20
8.1664
 30
0.0
 10
-5.0821
 20
8.1664
 30
0.0
 10
-6.8153
 20
9.531
 30
0.0
 10
-6.8153
 20
9.531
 30
0.0
 10
-6.8153
 20
9.531
 30
0.0
 10
-6.8153
 20
9.531
 30
0.0
 10
-7.0134
 20
8.8859
 30
0.0
 10
-7.0134
 20
8.8859
 30
0.0
 10
-7.0134
 20
8.8859
 30
0.0
 10
-7.0134
 20
8.8859
 30
0.0
 10
-7.3601
 20
7.8687
 30
0.0
 10
-7.3601
 20
7.8687
 30
0.0
 10
-7.3601
 20
7.8687
 30
0.0
 10
-7.3601
 20
7.8687
 30
0.0
 10
-7.7315
 20
6.8019
 30
0.0
 10
-7.7315
 20
6.8019
 30
0.0
 10
-7.7315
 20
6.8019
 30
0.0
 10
-7.7315
 20
6.8019
 30
0.0
 10
-7.9048
 20
6.0327
 30
0.0
 10
-7.9048
 20
6.0327
 30
0.0
 10
-7.9048
 20
6.0327
 30
0.0
 10
-7.9048
 20
6.0327
 30
0.0
 10
-7.9543
 20
5.4125
 30
0.0
 10
-7.9543
 20
5.4125
 30
0.0
 10
-7.9543
 20
5.4125
 30
0.0
 10
-7.9543
 20
5.4125
 30
0.0
 10
-7.9296
 20
4.8666
 30
0.0
 10
-7.9296
 20
4.8666
 30
0.0
 10
-7.9296
 20
4.8666
 30
0.0
 10
-7.9296
 20
4.8666
 30
0.0
 10
-7.7562
 20
4.1967
 30
0.0
 10
-7.7562
 20
4.1967
 30
0.0
 10
-7.7562
 20
4.1967
 30
0.0
 10
-7.7562
 20
4.1967
 30
0.0
 10
-7.5334
 20
3.4525
 30
0.0
 10
-7.5334
 20
3.4525
 30
0.0
 10
-7.5334
 20
3.4525
 30
0.0
 10
-7.5334
 20
3.4525
 30
0.0
 10
-7.2859
 20
2.584
 30
0.0
 10
-7.2859
 20
2.584
 30
0.0
 10
-7.2859
 20
2.584
 30
0.0
 10
-7.2859
 20
2.584
 30
0.0
 10
-7.2115
 20
1.6165
 30
0.0
 10
-7.2115
 20
1.6165
 30
0.0
 10
-7.2115
 20
1.6165
 30
0.0
 10
-7.2115
 20
1.6165
 30
0.0
 10
-7.2859
 20
0.4255
 30
0.0
 10
-7.2859
 20
0.4255
 30
0.0
 10
-7.2859
 20
0.4255
 30
0.0
 10
-7.2859
 20
0.4255
 30
0.0
 10
-7.2859
 20
-0.7902
 30
0.0
 10
-7.2859
 20
-0.7902
 30
0.0
 10
-7.2859
 20
-0.7902
 30
0.0
 10
-7.2859
 20
-0.7902
 30
0.0
 10
-7.3106
 20
-1.7329
 30
0.0
 10
-7.3106
 20
-1.7329
 30
0.0
 10
-7.3106
 20
-1.7329
 30
0.0
 10
-7.3106
 20
-1.7329
 30
0.0
 10
-7.1867
 20
-2.0307
 30
0.0
 10
-7.1867
 20
-2.0307
 30
0.0
 10
-7.1867
 20
-2.0307
 30
0.0
 10
-7.1867
 20
-2.0307
 30
0.0
 10
-7.0381
 20
-2.3284
 30
0.0
 10
-7.0381
 20
-2.3284
 30
0.0
 10
-7.0381
 20
-2.3284
 30
0.0
 10
-7.0381
 20
-2.3284
 30
0.0
 10
-6.8401
 20
-2.3284
 30
0.0
 10
-6.8401
 20
-2.3284
 30
0.0
 10
-6.8401
 20
-2.3284
 30
0.0
 10
-6.8401
 20
-2.3284
 30
0.0
 10
-5.1565
 20
-0.8646
 30
0.0
 10
-5.1565
 20
-0.8646
 30
0.0
 10
-5.1565
 20
-0.8646
 30
0.0
 10
-5.1565
 20
-0.8646
 30
0.0
 10
-4.1414
 20
-2.254
 30
0.0
 10
-4.1414
 20
-2.254
 30
0.0
 10
-4.1414
 20
-2.254
 30
0.0
 10
-4.1414
 20
-2.254
 30
0.0
 10
-3.9928
 20
-2.2044
 30
0.0
 10
-3.9928
 20
-2.2044
 30
0.0
 10
-3.9928
 20
-2.2044
 30
0.0
 10
-3.9928
 20
-2.2044
 30
0.0
 10
-2.2843
 20
-0.8397
 30
0.0
 10
-2.2843
 20
-0.8397
 30
0.0
 10
-2.2843
 20
-0.8397
 30
0.0
 10
-2.2843
 20
-0.8397
 30
0.0
 10
-1.3187
 20
-2.2787
 30
0.0
 10
-1.3187
 20
-2.2787
 30
0.0
 10
-1.3187
 20
-2.2787
 30
0.0
 10
-1.3187
 20
-2.2787
 30
0.0
 10
-1.1206
 20
-2.2787
 30
0.0
 10
-1.1206
 20
-2.2787
 30
0.0
 10
-1.1206
 20
-2.2787
 30
0.0
 10
-1.1206
 20
-2.2787
 30
0.0
 10
0.5135
 20
-0.8646
 30
0.0
 10
0.5135
 20
-0.8646
 30
0.0
 10
0.5135
 20
-0.8646
 30
0.0
 10
0.5135
 20
-0.8646
 30
0.0
 10
1.5039
 20
-2.3036
 30
0.0
 10
1.5039
 20
-2.3036
 30
0.0
 10
1.5039
 20
-2.3036
 30
0.0
 10
1.5039
 20
-2.3036
 30
0.0
 10
1.6772
 20
-2.2787
 30
0.0
 10
1.6772
 20
-2.2787
 30
0.0
 10
1.6772
 20
-2.2787
 30
0.0
 10
1.6772
 20
-2.2787
 30
0.0
 10
3.3857
 20
-0.7902
 30
0.0
 10
3.3857
 20
-0.7902
 30
0.0
 10
3.3857
 20
-0.7902
 30
0.0
 10
3.3857
 20
-0.7902
 30
0.0
 10
4.3514
 20
-2.3036
 30
0.0
 10
4.3514
 20
-2.3036
 30
0.0
 10
4.3514
 20
-2.3036
 30
0.0
 10
4.3514
 20
-2.3036
 30
0.0
 10
4.5989
 20
-2.2291
 30
0.0
 10
4.5989
 20
-2.2291
 30
0.0
 10
4.5989
 20
-2.2291
 30
0.0
 10
4.5989
 20
-2.2291
 30
0.0
 10
6.1588
 20
-0.8646
 30
0.0
 10
6.1588
 20
-0.8646
 30
0.0
 10
6.1588
 20
-0.8646
 30
0.0
 10
6.1588
 20
-0.8646
 30
0.0
 10
7.1492
 20
-2.254
 30
0.0
 10
7.1492
 20
-2.254
 30
0.0
 10
7.1492
 20
-2.254
 30
0.0
 10
7.1492
 20
-2.254
 30
0.0
 10
7.3473
 20
-2.254
 30
0.0
 10
7.3473
 20
-2.254
 30
0.0
 10
7.3473
 20
-2.254
 30
0.0
 10
7.3473
 20
-2.254
 30
0.0
 10
9.0062
 20
-0.8894
 30
0.0
 10
9.0062
 20
-0.8894
 30
0.0
 10
9.0062
 20
-0.8894
 30
0.0
 10
9.0062
 20
-0.8894
 30
0.0
 10
10.0461
 20
-2.2044
 30
0.0
 10
10.0461
 20
-2.2044
 30
0.0
 10
10.0461
 20
-2.2044
 30
0.0
 10
10.0461
 20
-2.2044
 30
0.0
 10
10.2194
 20
-2.1547
 30
0.0
 10
10.2194
 20
-2.1547
 30
0.0
 10
10.2194
 20
-2.1547
 30
0.0
 10
10.2194
 20
-2.1547
 30
0.0
 10
12.0021
 20
-0.4924
 30
0.0
 10
12.0021
 20
-0.4924
 30
0.0
 10
12.0021
 20
-0.4924
 30
0.0
 10
12.0021
 20
-0.4924
 30
0.0
 10
14.4807
 20
-0.5701
 30
0.0
 10
14.4807
 20
-0.5701
 30
0.0
  0
SPLINE
  5
5C
330
1F
100
AcDbEntity
  8
VRSTVA_1
 62
   250
100
AcDbSpline
210
0.0
220
0.0
230
1.0
 70
     8
 71
     3
 72
   152
 73
   148
 74
     0
 42
0.0000000001
 43
0.0000000001
 40
0.0
 40
0.0
 40
0.0
 40
0.0
 40
0.0263157894736842
 40
0.0263157894736842
 40
0.0263157894736842
 40
0.0263157894736842
 40
0.0526315789473684
 40
0.0526315789473684
 40
0.0526315789473684
 40
0.0526315789473684
 40
0.0789473684210526
 40
0.0789473684210526
 40
0.0789473684210526
 40
0.0789473684210526
 40
0.1052631578947368
 40
0.1052631578947368
 40
0.1052631578947368
 40
0.1052631578947368
 40
0.131578947368421
 40
0.131578947368421
 40
0.131578947368421
 40
0.131578947368421
 40
0.1578947368421053
 40
0.1578947368421053
 40
0.1578947368421053
 40
0.1578947368421053
 40
0.1842105263157895
 40
0.1842105263157895
 40
0.1842105263157895
 40
0.1842105263157895
 40
0.2105263157894737
 40
0.2105263157894737
 40
0.2105263157894737
 40
0.2105263157894737
 40
0.2368421052631579
 40
0.2368421052631579
 40
0.2368421052631579
 40
0.2368421052631579
 40
0.2631578947368421
 40
0.2631578947368421
 40
0.2631578947368421
 40
0.2631578947368421
 40
0.2894736842105263
 40
0.2894736842105263
 40
0.2894736842105263
 40
0.2894736842105263
 40
0.3157894736842105
 40
0.3157894736842105
 40
0.3157894736842105
 40
0.3157894736842105
 40
0.3421052631578947
 40
0.3421052631578947
 40
0.3421052631578947
 40
0.3421052631578947
 40
0.3684210526315789
 40
0.3684210526315789
 40
0.3684210526315789
 40
0.3684210526315789
 40
0.3947368421052632
 40
0.3947368421052632
 40
0.3947368421052632
 40
0.3947368421052632
 40
0.4210526315789473
 40
0.4210526315789473
 40
0.4210526315789473
 40
0.4210526315789473
 40
0.4473684210526316
 40
0.4473684210526316
 40
0.4473684210526316
 40
0.4473684210526316
 40
0.4736842105263158
 40
0.4736842105263158
 40
0.4736842105263158
 40
0.4736842105263158
 40
0.5
 40
0.5
 40
0.5
 40
0.5
 40
0.5263157894736842
 40
0.5263157894736842
 40
0.5263157894736842
 40
0.5263157894736842
 40
0.5526315789473685
 40
0.5526315789473685
 40
0.5526315789473685
 40
0.5526315789473685
 40
0.5789473684210527
 40
0.5789473684210527
 40
0.5789473684210527
 40
0.5789473684210527
 40
0.6052631578947368
 40
0.6052631578947368
 40
0.6052631578947368
 40
0.6052631578947368
 40
0.631578947368421
 40
0.631578947368421
 40
0.631578947368421
 40
0.631578947368421
 40
0.6578947368421053
 40
0.6578947368421053
 40
0.6578947368421053
 40
0.6578947368421053
 40
0.6842105263157895
 40
0.6842105263157895
 40
0.6842105263157895
 40
0.6842105263157895
 40
0.7105263157894737
 40
0.7105263157894737
 40
0.7105263157894737
 40
0.7105263157894737
 40
0.7368421052631579
 40
0.7368421052631579
 40
0.7368421052631579
 40
0.7368421052631579
 40
0.7631578947368421
 40
0.7631578947368421
 40
0.7631578947368421
 40
0.7631578947368421
 40
0.7894736842105263
 40
0.7894736842105263
 40
0.7894736842105263
 40
0.7894736842105263
 40
0.8157894736842105
 40
0.8157894736842105
 40
0.8157894736842105
 40
0.8157894736842105
 40
0.8421052631578947
 40
0.8421052631578947
 40
0.8421052631578947
 40
0.8421052631578947
 40
0.868421052631579
 40
0.868421052631579
 40
0.868421052631579
 40
0.868421052631579
 40
0.8947368421052632
 40
0.8947368421052632
 40
0.8947368421052632
 40
0.8947368421052632
 40
0.9210526315789473
 40
0.9210526315789473
 40
0.9210526315789473
 40
0.9210526315789473
 40
0.9473684210526315
 40
0.9473684210526315
 40
0.9473684210526315
 40
0.9473684210526315
 40
1.0
 40
1.0
 40
1.0
 40
1.0
 10
-24.1413
 20
-0.5254
 30
0.0
 10
-24.1413
 20
-0.5254
 30
0.0
 10
-21.5893
 20
-0.4897
 30
0.0
 10
-21.5893
 20
-0.4897
 30
0.0
 10
-21.5893
 20
-0.4897
 30
0.0
 10
-21.5893
 20
-0.4897
 30
0.0
 10
-19.8197
 20
-2.2107
 30
0.0
 10
-19.8197
 20
-2.2107
 30
0.0
 10
-19.8197
 20
-2.2107
 30
0.0
 10
-19.8197
 20
-2.2107
 30
0.0
 10
-19.6895
 20
-2.2369
 30
0.0
 10
-19.6895
 20
-2.2369
 30
0.0
 10
-19.6895
 20
-2.2369
 30
0.0
 10
-19.6895
 20
-2.2369
 30
0.0
 10
-18.0502
 20
-0.8808
 30
0.0
 10
-18.0502
 20
-0.8808
 30
0.0
 10
-18.0502
 20
-0.8808
 30
0.0
 10
-18.0502
 20
-0.8808
 30
0.0
 10
-17.0613
 20
-2.3411
 30
0.0
 10
-17.0613
 20
-2.3411
 30
0.0
 10
-17.0613
 20
-2.3411
 30
0.0
 10
-17.0613
 20
-2.3411
 30
0.0
 10
-16.9052
 20
-2.3411
 30
0.0
 10
-16.9052
 20
-2.3411
 30
0.0
 10
-16.9052
 20
-2.3411
 30
0.0
 10
-16.9052
 20
-2.3411
 30
0.0
 10
-15.2397
 20
-0.9591
 30
0.0
 10
-15.2397
 20
-0.9591
 30
0.0
 10
-15.2397
 20
-0.9591
 30
0.0
 10
-15.2397
 20
-0.9591
 30
0.0
 10
-14.2509
 20
-2.2889
 30
0.0
 10
-14.2509
 20
-2.2889
 30
0.0
 10
-14.2509
 20
-2.2889
 30
0.0
 10
-14.2509
 20
-2.2889
 30
0.0
 10
-14.0167
 20
-2.2369
 30
0.0
 10
-14.0167
 20
-2.2369
 30
0.0
 10
-14.0167
 20
-2.2369
 30
0.0
 10
-14.0167
 20
-2.2369
 30
0.0
 10
-12.4292
 20
-0.8548
 30
0.0
 10
-12.4292
 20
-0.8548
 30
0.0
 10
-12.4292
 20
-0.8548
 30
0.0
 10
-12.4292
 20
-0.8548
 30
0.0
 10
-11.5184
 20
-2.2629
 30
0.0
 10
-11.5184
 20
-2.2629
 30
0.0
 10
-11.5184
 20
-2.2629
 30
0.0
 10
-11.5184
 20
-2.2629
 30
0.0
 10
-11.2842
 20
-2.3411
 30
0.0
 10
-11.2842
 20
-2.3411
 30
0.0
 10
-11.2842
 20
-2.3411
 30
0.0
 10
-11.2842
 20
-2.3411
 30
0.0
 10
-9.5927
 20
-0.907
 30
0.0
 10
-9.5927
 20
-0.907
 30
0.0
 10
-9.5927
 20
-0.907
 30
0.0
 10
-9.5927
 20
-0.907
 30
0.0
 10
-9.0984
 20
-1.976
 30
0.0
 10
-9.0984
 20
-1.976
 30
0.0
 10
-9.0984
 20
-1.976
 30
0.0
 10
-9.0984
 20
-1.976
 30
0.0
 10
-8.8121
 20
-1.95
 30
0.0
 10
-8.8121
 20
-1.95
 30
0.0
 10
-8.8121
 20
-1.95
 30
0.0
 10
-8.8121
 20
-1.95
 30
0.0
 10
-8.8641
 20
0.1622
 30
0.0
 10
-8.8641
 20
0.1622
 30
0.0
 10
-8.8641
 20
0.1622
 30
0.0
 10
-8.8641
 20
0.1622
 30
0.0
 10
-8.8902
 20
1.6485
 30
0.0
 10
-8.8902
 20
1.6485
 30
0.0
 10
-8.8902
 20
1.6485
 30
0.0
 10
-8.8902
 20
1.6485
 30
0.0
 10
-9.1403
 20
3.5871
 30
0.0
 10
-9.1403
 20
3.5871
 30
0.0
 10
-9.1403
 20
3.5871
 30
0.0
 10
-9.1403
 20
3.5871
 30
0.0
 10
-9.5599
 20
4.7516
 30
0.0
 10
-9.5599
 20
4.7516
 30
0.0
 10
-9.5599
 20
4.7516
 30
0.0
 10
-9.5599
 20
4.7516
 30
0.0
 10
-9.6084
 20
5.5764
 30
0.0
 10
-9.6084
 20
5.5764
 30
0.0
 10
-9.6084
 20
5.5764
 30
0.0
 10
-9.6084
 20
5.5764
 30
0.0
 10
-9.3984
 20
6.4821
 30
0.0
 10
-9.3984
 20
6.4821
 30
0.0
 10
-9.3984
 20
6.4821
 30
0.0
 10
-9.3984
 20
6.4821
 30
0.0
 10
-8.3816
 20
9.4742
 30
0.0
 10
-8.3816
 20
9.4742
 30
0.0
 10
-8.3816
 20
9.4742
 30
0.0
 10
-8.3816
 20
9.4742
 30
0.0
 10
-8.5592
 20
9.5228
 30
0.0
 10
-8.5592
 20
9.5228
 30
0.0
 10
-8.5592
 20
9.5228
 30
0.0
 10
-8.5592
 20
9.5228
 30
0.0
 10
-9.5849
 20
8.12
 30
0.0
 10
-9.5849
 20
8.12
 30
0.0
 10
-9.5849
 20
8.12
 30
0.0
 10
-9.5849
 20
8.12
 30
0.0
 10
-11.2257
 20
9.4968
 30
0.0
 10
-11.2257
 20
9.4968
 30
0.0
 10
-11.2257
 20
9.4968
 30
0.0
 10
-11.2257
 20
9.4968
 30
0.0
 10
-11.3811
 20
9.501
 30
0.0
 10
-11.3811
 20
9.501
 30
0.0
 10
-11.3811
 20
9.501
 30
0.0
 10
-11.3811
 20
9.501
 30
0.0
 10
-12.4192
 20
8.1442
 30
0.0
 10
-12.4192
 20
8.1442
 30
0.0
 10
-12.4192
 20
8.1442
 30
0.0
 10
-12.4192
 20
8.1442
 30
0.0
 10
-14.0216
 20
9.4557
 30
0.0
 10
-14.0216
 20
9.4557
 30
0.0
 10
-14.0216
 20
9.4557
 30
0.0
 10
-14.0216
 20
9.4557
 30
0.0
 10
-14.2021
 20
9.4784
 30
0.0
 10
-14.2021
 20
9.4784
 30
0.0
 10
-14.2021
 20
9.4784
 30
0.0
 10
-14.2021
 20
9.4784
 30
0.0
 10
-15.1725
 20
8.1442
 30
0.0
 10
-15.1725
 20
8.1442
 30
0.0
 10
-15.1725
 20
8.1442
 30
0.0
 10
-15.1725
 20
8.1442
 30
0.0
 10
-16.8878
 20
9.5462
 30
0.0
 10
-16.8878
 20
9.5462
 30
0.0
 10
-16.8878
 20
9.5462
 30
0.0
 10
-16.8878
 20
9.5462
 30
0.0
 10
-17.0457
 20
9.5462
 30
0.0
 10
-17.0457
 20
9.5462
 30
0.0
 10
-17.0457
 20
9.5462
 30
0.0
 10
-17.0457
 20
9.5462
 30
0.0
 10
-18.0613
 20
8.1894
 30
0.0
 10
-18.0613
 20
8.1894
 30
0.0
 10
-18.0613
 20
8.1894
 30
0.0
 10
-18.0613
 20
8.1894
 30
0.0
 10
-19.6637
 20
9.4784
 30
0.0
 10
-19.6637
 20
9.4784
 30
0.0
 10
-19.6637
 20
9.4784
 30
0.0
 10
-19.6637
 20
9.4784
 30
0.0
 10
-19.8217
 20
9.4784
 30
0.0
 10
-19.8217
 20
9.4784
 30
0.0
 10
-19.8217
 20
9.4784
 30
0.0
 10
-19.8217
 20
9.4784
 30
0.0
 10
-21.5143
 20
7.8049
 30
0.0
 10
-21.5143
 20
7.8049
 30
0.0
 10
-21.5143
 20
7.8049
 30
0.0
 10
-21.5143
 20
7.8049
 30
0.0
 10
-24.1138
 20
7.7772
 30
0.0
 10
-24.1138
 20
7.7772
 30
0.0
  0
SPLINE
  5
5D
330
1F
100
AcDbEntity
  8
VRSTVA_1
 62
   250
100
AcDbSpline
210
0.0
220
0.0
230
1.0
 70
    24
 71
     3
 72
     8
 73
     4
 74
     0
 42
0.0000000001
 43
0.0000000001
 40
0.0
 40
0.0
 40
0.0
 40
0.0
 40
1.0
 40
1.0
 40
1.0
 40
1.0
 10
-21.5003
 20
-0.5449
 30
0.0
 10
-21.5003
 20
-0.5449
 30
0.0
 10
-21.5003
 20
7.7862
 30
0.0
 10
-21.5003
 20
7.7862
 30
0.0
  0
SPLINE
  5
5E
330
1F
100
AcDbEntity
  8
VRSTVA_1
 62
   250
100
AcDbSpline
210
0.0
220
0.0
230
1.0
 70
    24
 71
     3
 72
     8
 73
     4
 74
     0
 42
0.0000000001
 43
0.0000000001
 40
0.0
 40
0.0
 40
0.0
 40
0.0
 40
1.0
 40
1.0
 40
1.0
 40
1.0
 10
-19.7508
 20
-2.2944
 30
0.0
 10
-19.7508
 20
-2.2944
 30
0.0
 10
-19.7508
 20
9.5357
 30
0.0
 10
-19.7508
 20
9.5357
 30
0.0
  0
SPLINE
  5
5F
330
1F
100
AcDbEntity
  8
VRSTVA_1
 62
   250
100
AcDbSpline
210
0.0
220
0.0
230
1.0
 70
    24
 71
     3
 72
     8
 73
     4
 74
     0
 42
0.0000000001
 43
0.0000000001
 40
0.0
 40
0.0
 40
0.0
 40
0.0
 40
1.0
 40
1.0
 40
1.0
 40
1.0
 10
-18.063
 20
-0.8781
 30
0.0
 10
-18.063
 20
-0.8781
 30
0.0
 10
-18.063
 20
8.1194
 30
0.0
 10
-18.063
 20
8.1194
 30
0.0
  0
SPLINE
  5
60
330
1F
100
AcDbEntity
  8
VRSTVA_1
 62
   250
100
AcDbSpline
210
0.0
220
0.0
230
1.0
 70
    24
 71
     3
 72
     8
 73
     4
 74
     0
 42
0.0000000001
 43
0.0000000001
 40
0.0
 40
0.0
 40
0.0
 40
0.0
 40
1.0
 40
1.0
 40
1.0
 40
1.0
 10
-15.2367
 20
-0.8786
 30
0.0
 10
-15.2367
 20
-0.8786
 30
0.0
 10
-15.2367
 20
8.12
 30
0.0
 10
-15.2367
 20
8.12
 30
0.0
  0
SPLINE
  5
61
330
1F
100
AcDbEntity
  8
VRSTVA_1
 62
   250
100
AcDbSpline
210
0.0
220
0.0
230
1.0
 70
    24
 71
     3
 72
     8
 73
     4
 74
     0
 42
0.0000000001
 43
0.0000000001
 40
0.0
 40
0.0
 40
0.0
 40
0.0
 40
1.0
 40
1.0
 40
1.0
 40
1.0
 10
-12.4108
 20
-0.8786
 30
0.0
 10
-12.4108
 20
-0.8786
 30
0.0
 10
-12.4108
 20
8.12
 30
0.0
 10
-12.4108
 20
8.12
 30
0.0
  0
SPLINE
  5
62
330
1F
100
AcDbEntity
  8
VRSTVA_1
 62
   250
100
AcDbSpline
210
0.0
220
0.0
230
1.0
 70
    24
 71
     3
 72
     8
 73
     4
 74
     0
 42
0.0000000001
 43
0.0000000001
 40
0.0
 40
0.0
 40
0.0
 40
0.0
 40
1.0
 40
1.0
 40
1.0
 40
1.0
 10
-9.585
 20
-0.8786
 30
0.0
 10
-9.585
 20
-0.8786
 30
0.0
 10
-9.585
 20
8.12
 30
0.0
 10
-9.585
 20
8.12
 30
0.0
  0
SPLINE
  5
63
330
1F
100
AcDbEntity
  8
VRSTVA_1
  6
NEW_LINE1
 62
   250
100
AcDbSpline
210
0.0
220
0.0
230
1.0
 70
    24
 71
     3
 72
     8
 73
     4
 74
     0
 42
0.0000000001
 43
0.0000000001
 40
0.0
 40
0.0
 40
0.0
 40
0.0
 40
1.0
 40
1.0
 40
1.0
 40
1.0
 10
-45.4017
 20
3.6207
 30
0.0
 10
-45.4017
 20
3.6207
 30
0.0
 10
50.7895
 20
3.6207
 30
0.0
 10
50.7895
 20
3.6207
 30
0.0
  0
SPLINE
  5
65
330
1F
100
AcDbEntity
  8
VRSTVA_1
 62
   250
100
AcDbSpline
210
0.0
220
0.0
230
1.0
 70
    24
 71
     3
 72
     8
 73
     4
 74
     0
 42
0.0000000001
 43
0.0000000001
 40
0.0
 40
0.0
 40
0.0
 40
0.0
 40
1.0
 40
1.0
 40
1.0
 40
1.0
 10
22.9642
 20
-10.6761
 30
0.0
 10
22.9642
 20
-10.6761
 30
0.0
 10
22.9642
 20
14.7189
 30
0.0
 10
22.9642
 20
14.7189
 30
0.0
  0
SPLINE
  5
66
330
1F
100
AcDbEntity
  8
VRSTVA_1
 62
   250
100
AcDbSpline
210
0.0
220
0.0
230
1.0
 70
    11
 71
     3
 72
    20
 73
    16
 74
     0
 42
0.0000000001
 43
0.0000000001
 40
0.0
 40
0.0
 40
0.0
 40
0.0
 40
0.2
 40
0.2
 40
0.2
 40
0.2
 40
0.4
 40
0.4
 40
0.4
 40
0.4
 40
0.6
 40
0.6
 40
0.6
 40
0.6
 40
1.0
 40
1.0
 40
1.0
 40
1.0
 10
22.4975
 20
-6.1066
 30
0.0
 10
22.4975
 20
-6.1066
 30
0.0
 10
22.9208
 20
-3.1066
 30
0.0
 10
22.9208
 20
-3.1066
 30
0.0
 10
22.9208
 20
-3.1066
 30
0.0
 10
22.9208
 20
-3.1066
 30
0.0
 10
23.0148
 20
-3.1066
 30
0.0
 10
23.0148
 20
-3.1066
 30
0.0
 10
23.0148
 20
-3.1066
 30
0.0
 10
23.0148
 20
-3.1066
 30
0.0
 10
23.4662
 20
-6.1066
 30
0.0
 10
23.4662
 20
-6.1066
 30
0.0
 10
23.4662
 20
-6.1066
 30
0.0
 10
23.4662
 20
-6.1066
 30
0.0
 10
22.4975
 20
-6.1066
 30
0.0
 10
22.4975
 20
-6.1066
 30
0.0
  0
SPLINE
  5
67
330
1F
100
AcDbEntity
  8
VRSTVA_1
 62
   250
100
AcDbSpline
210
0.0
220
0.0
230
1.0
 70
    11
 71
     3
 72
    84
 73
    80
 74
     0
 42
0.0000000001
 43
0.0000000001
 40
0.0
 40
0.0
 40
0.0
 40
0.0
 40
0.0476190476190476
 40
0.0476190476190476
 40
0.0476190476190476
 40
0.0476190476190476
 40
0.0952380952380952
 40
0.0952380952380952
 40
0.0952380952380952
 40
0.0952380952380952
 40
0.1428571428571428
 40
0.1428571428571428
 40
0.1428571428571428
 40
0.1428571428571428
 40
0.1904761904761905
 40
0.1904761904761905
 40
0.1904761904761905
 40
0.1904761904761905
 40
0.2380952380952381
 40
0.2380952380952381
 40
0.2380952380952381
 40
0.2380952380952381
 40
0.2857142857142857
 40
0.2857142857142857
 40
0.2857142857142857
 40
0.2857142857142857
 40
0.3333333333333333
 40
0.3333333333333333
 40
0.3333333333333333
 40
0.3333333333333333
 40
0.3809523809523809
 40
0.3809523809523809
 40
0.3809523809523809
 40
0.3809523809523809
 40
0.4285714285714285
 40
0.4285714285714285
 40
0.4285714285714285
 40
0.4285714285714285
 40
0.4761904761904762
 40
0.4761904761904762
 40
0.4761904761904762
 40
0.4761904761904762
 40
0.5238095238095238
 40
0.5238095238095238
 40
0.5238095238095238
 40
0.5238095238095238
 40
0.5714285714285714
 40
0.5714285714285714
 40
0.5714285714285714
 40
0.5714285714285714
 40
0.6190476190476191
 40
0.6190476190476191
 40
0.6190476190476191
 40
0.6190476190476191
 40
0.6666666666666666
 40
0.6666666666666666
 40
0.6666666666666666
 40
0.6666666666666666
 40
0.7142857142857143
 40
0.7142857142857143
 40
0.7142857142857143
 40
0.7142857142857143
 40
0.7619047619047619
 40
0.7619047619047619
 40
0.7619047619047619
 40
0.7619047619047619
 40
0.8095238095238095
 40
0.8095238095238095
 40
0.8095238095238095
 40
0.8095238095238095
 40
0.8571428571428571
 40
0.8571428571428571
 40
0.8571428571428571
 40
0.8571428571428571
 40
0.9047619047619048
 40
0.9047619047619048
 40
0.9047619047619048
 40
0.9047619047619048
 40
1.0
 40
1.0
 40
1.0
 40
1.0
 10
20.3106
 20
-8.8194
 30
0.0
 10
20.3106
 20
-8.8194
 30
0.0
 10
20.0522
 20
-8.5872
 30
0.0
 10
20.0522
 20
-8.5872
 30
0.0
 10
20.0522
 20
-8.5872
 30
0.0
 10
20.0522
 20
-8.5872
 30
0.0
 10
20.1683
 20
-8.4512
 30
0.0
 10
20.1683
 20
-8.4512
 30
0.0
 10
20.1683
 20
-8.4512
 30
0.0
 10
20.1683
 20
-8.4512
 30
0.0
 10
20.4404
 20
-8.6942
 30
0.0
 10
20.4404
 20
-8.6942
 30
0.0
 10
20.4404
 20
-8.6942
 30
0.0
 10
20.5582
 20
-8.6155
 30
0.0
 10
20.6614
 20
-8.5627
 30
0.0
 10
20.7493
 20
-8.5352
 30
0.0
 10
20.7493
 20
-8.5352
 30
0.0
 10
20.8653
 20
-8.4989
 30
0.0
 10
20.9951
 20
-8.4809
 30
0.0
 10
21.1381
 20
-8.4814
 30
0.0
 10
21.1381
 20
-8.4814
 30
0.0
 10
21.345
 20
-8.482
 30
0.0
 10
21.5293
 20
-8.5244
 30
0.0
 10
21.6903
 20
-8.6086
 30
0.0
 10
21.6903
 20
-8.6086
 30
0.0
 10
21.852
 20
-8.6928
 30
0.0
 10
21.9738
 20
-8.8103
 30
0.0
 10
22.0562
 20
-8.9615
 30
0.0
 10
22.0562
 20
-8.9615
 30
0.0
 10
22.138
 20
-9.1133
 30
0.0
 10
22.1789
 20
-9.2737
 30
0.0
 10
22.1784
 20
-9.4435
 30
0.0
 10
22.1784
 20
-9.4435
 30
0.0
 10
22.178
 20
-9.5705
 30
0.0
 10
22.1599
 20
-9.6853
 30
0.0
 10
22.1238
 20
-9.7881
 30
0.0
 10
22.1238
 20
-9.7881
 30
0.0
 10
22.0958
 20
-9.8671
 30
0.0
 10
22.0429
 20
-9.9591
 30
0.0
 10
21.9645
 20
-10.0648
 30
0.0
 10
21.9645
 20
-10.0648
 30
0.0
 10
21.9645
 20
-10.0648
 30
0.0
 10
22.223
 20
-10.2969
 30
0.0
 10
22.223
 20
-10.2969
 30
0.0
 10
22.223
 20
-10.2969
 30
0.0
 10
22.223
 20
-10.2969
 30
0.0
 10
22.1068
 20
-10.433
 30
0.0
 10
22.1068
 20
-10.433
 30
0.0
 10
22.1068
 20
-10.433
 30
0.0
 10
22.1068
 20
-10.433
 30
0.0
 10
21.8362
 20
-10.1895
 30
0.0
 10
21.8362
 20
-10.1895
 30
0.0
 10
21.8362
 20
-10.1895
 30
0.0
 10
21.699
 20
-10.2794
 30
0.0
 10
21.5817
 20
-10.3392
 30
0.0
 10
21.4847
 20
-10.369
 30
0.0
 10
21.4847
 20
-10.369
 30
0.0
 10
21.3877
 20
-10.3988
 30
0.0
 10
21.271
 20
-10.414
 30
0.0
 10
21.1351
 20
-10.4136
 30
0.0
 10
21.1351
 20
-10.4136
 30
0.0
 10
20.9277
 20
-10.413
 30
0.0
 10
20.7429
 20
-10.371
 30
0.0
 10
20.5809
 20
-10.2878
 30
0.0
 10
20.5809
 20
-10.2878
 30
0.0
 10
20.4188
 20
-10.2045
 30
0.0
 10
20.2965
 20
-10.0885
 30
0.0
 10
20.2132
 20
-9.9386
 30
0.0
 10
20.2132
 20
-9.9386
 30
0.0
 10
20.1304
 20
-9.7893
 30
0.0
 10
20.089
 20
-9.623
 30
0.0
 10
20.0895
 20
-9.4401
 30
0.0
 10
20.0895
 20
-9.4401
 30
0.0
 10
20.0899
 20
-9.3168
 30
0.0
 10
20.1062
 20
-9.2092
 30
0.0
 10
20.1395
 20
-9.1171
 30
0.0
 10
20.1395
 20
-9.1171
 30
0.0
 10
20.1722
 20
-9.025
 30
0.0
 10
20.2294
 20
-8.9254
 30
0.0
 10
20.3106
 20
-8.8194
 30
0.0
  0
SPLINE
  5
68
330
1F
100
AcDbEntity
  8
VRSTVA_1
 62
   250
100
AcDbSpline
210
0.0
220
0.0
230
1.0
 70
    11
 71
     3
 72
    32
 73
    28
 74
     0
 42
0.0000000001
 43
0.0000000001
 40
0.0
 40
0.0
 40
0.0
 40
0.0
 40
0.125
 40
0.125
 40
0.125
 40
0.125
 40
0.25
 40
0.25
 40
0.25
 40
0.25
 40
0.375
 40
0.375
 40
0.375
 40
0.375
 40
0.5
 40
0.5
 40
0.5
 40
0.5
 40
0.625
 40
0.625
 40
0.625
 40
0.625
 40
0.75
 40
0.75
 40
0.75
 40
0.75
 40
1.0
 40
1.0
 40
1.0
 40
1.0
 10
20.4959
 20
-8.985
 30
0.0
 10
20.4279
 20
-9.0714
 30
0.0
 10
20.3811
 20
-9.147
 30
0.0
 10
20.356
 20
-9.2113
 30
0.0
 10
20.356
 20
-9.2113
 30
0.0
 10
20.3313
 20
-9.2762
 30
0.0
 10
20.3184
 20
-9.3523
 30
0.0
 10
20.3181
 20
-9.4394
 30
0.0
 10
20.3181
 20
-9.4394
 30
0.0
 10
20.3175
 20
-9.6407
 30
0.0
 10
20.3852
 20
-9.8069
 30
0.0
 10
20.5212
 20
-9.939
 30
0.0
 10
20.5212
 20
-9.939
 30
0.0
 10
20.6573
 20
-10.0707
 30
0.0
 10
20.8607
 20
-10.1371
 30
0.0
 10
21.1321
 20
-10.138
 30
0.0
 10
21.1321
 20
-10.138
 30
0.0
 10
21.2384
 20
-10.1383
 30
0.0
 10
21.3331
 20
-10.1283
 30
0.0
 10
21.4159
 20
-10.1082
 30
0.0
 10
21.4159
 20
-10.1082
 30
0.0
 10
21.4776
 20
-10.0938
 30
0.0
 10
21.5534
 20
-10.0635
 30
0.0
 10
21.6433
 20
-10.0167
 30
0.0
 10
21.6433
 20
-10.0167
 30
0.0
 10
21.6433
 20
-10.0167
 30
0.0
 10
20.4959
 20
-8.985
 30
0.0
 10
20.4959
 20
-8.985
 30
0.0
  0
SPLINE
  5
69
330
1F
100
AcDbEntity
  8
VRSTVA_1
 62
   250
100
AcDbSpline
210
0.0
220
0.0
230
1.0
 70
    11
 71
     3
 72
    28
 73
    24
 74
     0
 42
0.0000000001
 43
0.0000000001
 40
0.0
 40
0.0
 40
0.0
 40
0.0
 40
0.1428571428571428
 40
0.1428571428571428
 40
0.1428571428571428
 40
0.1428571428571428
 40
0.2857142857142857
 40
0.2857142857142857
 40
0.2857142857142857
 40
0.2857142857142857
 40
0.4285714285714285
 40
0.4285714285714285
 40
0.4285714285714285
 40
0.4285714285714285
 40
0.5714285714285714
 40
0.5714285714285714
 40
0.5714285714285714
 40
0.5714285714285714
 40
0.7142857142857143
 40
0.7142857142857143
 40
0.7142857142857143
 40
0.7142857142857143
 40
1.0
 40
1.0
 40
1.0
 40
1.0
 10
20.6383
 20
-8.8726
 30
0.0
 10
20.6383
 20
-8.8726
 30
0.0
 10
21.7815
 20
-9.9
 30
0.0
 10
21.7815
 20
-9.9
 30
0.0
 10
21.7815
 20
-9.9
 30
0.0
 10
21.8396
 20
-9.8297
 30
0.0
 10
21.8803
 20
-9.7644
 30
0.0
 10
21.9034
 20
-9.7047
 30
0.0
 10
21.9034
 20
-9.7047
 30
0.0
 10
21.9343
 20
-9.6268
 30
0.0
 10
21.9495
 20
-9.5421
 30
0.0
 10
21.9498
 20
-9.4513
 30
0.0
 10
21.9498
 20
-9.4513
 30
0.0
 10
21.9504
 20
-9.2509
 30
0.0
 10
21.8804
 20
-9.0856
 30
0.0
 10
21.7392
 20
-8.9545
 30
0.0
 10
21.7392
 20
-8.9545
 30
0.0
 10
21.598
 20
-8.8238
 30
0.0
 10
21.3997
 20
-8.7578
 30
0.0
 10
21.1443
 20
-8.757
 30
0.0
 10
21.1443
 20
-8.757
 30
0.0
 10
20.9534
 20
-8.7564
 30
0.0
 10
20.7844
 20
-8.7949
 30
0.0
 10
20.6383
 20
-8.8726
 30
0.0
  0
SPLINE
  5
6A
330
1F
100
AcDbEntity
  8
VRSTVA_1
 62
   250
100
AcDbSpline
210
0.0
220
0.0
230
1.0
 70
    11
 71
     3
 72
    48
 73
    44
 74
     0
 42
0.0000000001
 43
0.0000000001
 40
0.0
 40
0.0
 40
0.0
 40
0.0
 40
0.0833333333333333
 40
0.0833333333333333
 40
0.0833333333333333
 40
0.0833333333333333
 40
0.1666666666666667
 40
0.1666666666666667
 40
0.1666666666666667
 40
0.1666666666666667
 40
0.25
 40
0.25
 40
0.25
 40
0.25
 40
0.3333333333333333
 40
0.3333333333333333
 40
0.3333333333333333
 40
0.3333333333333333
 40
0.4166666666666667
 40
0.4166666666666667
 40
0.4166666666666667
 40
0.4166666666666667
 40
0.5
 40
0.5
 40
0.5
 40
0.5
 40
0.5833333333333334
 40
0.5833333333333334
 40
0.5833333333333334
 40
0.5833333333333334
 40
0.6666666666666666
 40
0.6666666666666666
 40
0.6666666666666666
 40
0.6666666666666666
 40
0.75
 40
0.75
 40
0.75
 40
0.75
 40
0.8333333333333334
 40
0.8333333333333334
 40
0.8333333333333334
 40
0.8333333333333334
 40
1.0
 40
1.0
 40
1.0
 40
1.0
 10
22.1501
 20
-7.4402
 30
0.0
 10
22.1501
 20
-7.4402
 30
0.0
 10
21.6666
 20
-7.4388
 30
0.0
 10
21.6666
 20
-7.4388
 30
0.0
 10
21.6666
 20
-7.4388
 30
0.0
 10
21.6666
 20
-7.4388
 30
0.0
 10
21.664
 20
-8.3151
 30
0.0
 10
21.664
 20
-8.3151
 30
0.0
 10
21.664
 20
-8.3151
 30
0.0
 10
21.664
 20
-8.3151
 30
0.0
 10
21.4363
 20
-8.3144
 30
0.0
 10
21.4363
 20
-8.3144
 30
0.0
 10
21.4363
 20
-8.3144
 30
0.0
 10
21.4363
 20
-8.3144
 30
0.0
 10
20.1301
 20
-7.3884
 30
0.0
 10
20.1301
 20
-7.3884
 30
0.0
 10
20.1301
 20
-7.3884
 30
0.0
 10
20.1301
 20
-7.3884
 30
0.0
 10
20.1307
 20
-7.1857
 30
0.0
 10
20.1307
 20
-7.1857
 30
0.0
 10
20.1307
 20
-7.1857
 30
0.0
 10
20.1307
 20
-7.1857
 30
0.0
 10
21.4397
 20
-7.1897
 30
0.0
 10
21.4397
 20
-7.1897
 30
0.0
 10
21.4397
 20
-7.1897
 30
0.0
 10
21.4397
 20
-7.1897
 30
0.0
 10
21.4405
 20
-6.9169
 30
0.0
 10
21.4405
 20
-6.9169
 30
0.0
 10
21.4405
 20
-6.9169
 30
0.0
 10
21.4405
 20
-6.9169
 30
0.0
 10
21.6682
 20
-6.9176
 30
0.0
 10
21.6682
 20
-6.9176
 30
0.0
 10
21.6682
 20
-6.9176
 30
0.0
 10
21.6682
 20
-6.9176
 30
0.0
 10
21.6674
 20
-7.1904
 30
0.0
 10
21.6674
 20
-7.1904
 30
0.0
 10
21.6674
 20
-7.1904
 30
0.0
 10
21.6674
 20
-7.1904
 30
0.0
 10
22.1509
 20
-7.1918
 30
0.0
 10
22.1509
 20
-7.1918
 30
0.0
 10
22.1509
 20
-7.1918
 30
0.0
 10
22.1509
 20
-7.1918
 30
0.0
 10
22.1501
 20
-7.4402
 30
0.0
 10
22.1501
 20
-7.4402
 30
0.0
  0
SPLINE
  5
6B
330
1F
100
AcDbEntity
  8
VRSTVA_1
 62
   250
100
AcDbSpline
210
0.0
220
0.0
230
1.0
 70
    11
 71
     3
 72
    16
 73
    12
 74
     0
 42
0.0000000001
 43
0.0000000001
 40
0.0
 40
0.0
 40
0.0
 40
0.0
 40
0.25
 40
0.25
 40
0.25
 40
0.25
 40
0.5
 40
0.5
 40
0.5
 40
0.5
 40
1.0
 40
1.0
 40
1.0
 40
1.0
 10
21.4389
 20
-7.4381
 30
0.0
 10
21.4389
 20
-7.4381
 30
0.0
 10
20.5283
 20
-7.4353
 30
0.0
 10
20.5283
 20
-7.4353
 30
0.0
 10
20.5283
 20
-7.4353
 30
0.0
 10
20.5283
 20
-7.4353
 30
0.0
 10
21.437
 20
-8.0702
 30
0.0
 10
21.437
 20
-8.0702
 30
0.0
 10
21.437
 20
-8.0702
 30
0.0
 10
21.437
 20
-8.0702
 30
0.0
 10
21.4389
 20
-7.4381
 30
0.0
 10
21.4389
 20
-7.4381
 30
0.0
  0
SPLINE
  5
6C
330
1F
100
AcDbEntity
  8
VRSTVA_1
 62
   250
100
AcDbSpline
210
0.0
220
0.0
230
1.0
 70
    11
 71
     3
 72
    52
 73
    48
 74
     0
 42
0.0000000001
 43
0.0000000001
 40
0.0
 40
0.0
 40
0.0
 40
0.0
 40
0.0769230769230769
 40
0.0769230769230769
 40
0.0769230769230769
 40
0.0769230769230769
 40
0.1538461538461539
 40
0.1538461538461539
 40
0.1538461538461539
 40
0.1538461538461539
 40
0.2307692307692308
 40
0.2307692307692308
 40
0.2307692307692308
 40
0.2307692307692308
 40
0.3076923076923077
 40
0.3076923076923077
 40
0.3076923076923077
 40
0.3076923076923077
 40
0.3846153846153846
 40
0.3846153846153846
 40
0.3846153846153846
 40
0.3846153846153846
 40
0.4615384615384616
 40
0.4615384615384616
 40
0.4615384615384616
 40
0.4615384615384616
 40
0.5384615384615384
 40
0.5384615384615384
 40
0.5384615384615384
 40
0.5384615384615384
 40
0.6153846153846154
 40
0.6153846153846154
 40
0.6153846153846154
 40
0.6153846153846154
 40
0.6923076923076923
 40
0.6923076923076923
 40
0.6923076923076923
 40
0.6923076923076923
 40
0.7692307692307693
 40
0.7692307692307693
 40
0.7692307692307693
 40
0.7692307692307693
 40
0.8461538461538461
 40
0.8461538461538461
 40
0.8461538461538461
 40
0.8461538461538461
 40
1.0
 40
1.0
 40
1.0
 40
1.0
 10
21.1563
 20
-6.6625
 30
0.0
 10
20.9173
 20
-6.6618
 30
0.0
 10
20.725
 20
-6.6367
 30
0.0
 10
20.5798
 20
-6.5869
 30
0.0
 10
20.5798
 20
-6.5869
 30
0.0
 10
20.4341
 20
-6.5376
 30
0.0
 10
20.322
 20
-6.4638
 30
0.0
 10
20.2432
 20
-6.3667
 30
0.0
 10
20.2432
 20
-6.3667
 30
0.0
 10
20.1645
 20
-6.2695
 30
0.0
 10
20.1253
 20
-6.1476
 30
0.0
 10
20.1258
 20
-6.0009
 30
0.0
 10
20.1258
 20
-6.0009
 30
0.0
 10
20.1261
 20
-5.8922
 30
0.0
 10
20.1485
 20
-5.7973
 30
0.0
 10
20.1925
 20
-5.7156
 30
0.0
 10
20.1925
 20
-5.7156
 30
0.0
 10
20.236
 20
-5.6339
 30
0.0
 10
20.2993
 20
-5.5667
 30
0.0
 10
20.3817
 20
-5.5134
 30
0.0
 10
20.3817
 20
-5.5134
 30
0.0
 10
20.4642
 20
-5.4605
 30
0.0
 10
20.5645
 20
-5.4189
 30
0.0
 10
20.6826
 20
-5.3892
 30
0.0
 10
20.6826
 20
-5.3892
 30
0.0
 10
20.8008
 20
-5.3589
 30
0.0
 10
20.9598
 20
-5.3444
 30
0.0
 10
21.1602
 20
-5.345
 30
0.0
 10
21.1602
 20
-5.345
 30
0.0
 10
21.3972
 20
-5.3457
 30
0.0
 10
21.5882
 20
-5.3707
 30
0.0
 10
21.7338
 20
-5.4197
 30
0.0
 10
21.7338
 20
-5.4197
 30
0.0
 10
21.8795
 20
-5.469
 30
0.0
 10
21.9916
 20
-5.5422
 30
0.0
 10
22.0709
 20
-5.6394
 30
0.0
 10
22.0709
 20
-5.6394
 30
0.0
 10
22.1501
 20
-5.7365
 30
0.0
 10
22.1892
 20
-5.8589
 30
0.0
 10
22.1888
 20
-6.0071
 30
0.0
 10
22.1888
 20
-6.0071
 30
0.0
 10
22.1882
 20
-6.2018
 30
0.0
 10
22.1181
 20
-6.3545
 30
0.0
 10
21.9781
 20
-6.4651
 30
0.0
 10
21.9781
 20
-6.4651
 30
0.0
 10
21.8098
 20
-6.5977
 30
0.0
 10
21.5354
 20
-6.6637
 30
0.0
 10
21.1563
 20
-6.6625
 30
0.0
  0
SPLINE
  5
6D
330
1F
100
AcDbEntity
  8
VRSTVA_1
 62
   250
100
AcDbSpline
210
0.0
220
0.0
230
1.0
 70
    11
 71
     3
 72
    36
 73
    32
 74
     0
 42
0.0000000001
 43
0.0000000001
 40
0.0
 40
0.0
 40
0.0
 40
0.0
 40
0.1111111111111111
 40
0.1111111111111111
 40
0.1111111111111111
 40
0.1111111111111111
 40
0.2222222222222222
 40
0.2222222222222222
 40
0.2222222222222222
 40
0.2222222222222222
 40
0.3333333333333333
 40
0.3333333333333333
 40
0.3333333333333333
 40
0.3333333333333333
 40
0.4444444444444444
 40
0.4444444444444444
 40
0.4444444444444444
 40
0.4444444444444444
 40
0.5555555555555556
 40
0.5555555555555556
 40
0.5555555555555556
 40
0.5555555555555556
 40
0.6666666666666666
 40
0.6666666666666666
 40
0.6666666666666666
 40
0.6666666666666666
 40
0.7777777777777778
 40
0.7777777777777778
 40
0.7777777777777778
 40
0.7777777777777778
 40
1.0
 40
1.0
 40
1.0
 40
1.0
 10
21.157
 20
-6.4075
 30
0.0
 10
21.4886
 20
-6.4085
 30
0.0
 10
21.7094
 20
-6.3702
 30
0.0
 10
21.8196
 20
-6.2929
 30
0.0
 10
21.8196
 20
-6.2929
 30
0.0
 10
21.9294
 20
-6.2156
 30
0.0
 10
21.9848
 20
-6.1203
 30
0.0
 10
21.9852
 20
-6.0065
 30
0.0
 10
21.9852
 20
-6.0065
 30
0.0
 10
21.9855
 20
-5.8922
 30
0.0
 10
21.9303
 20
-5.7965
 30
0.0
 10
21.8204
 20
-5.7186
 30
0.0
 10
21.8204
 20
-5.7186
 30
0.0
 10
21.7106
 20
-5.6407
 30
0.0
 10
21.4901
 20
-5.6009
 30
0.0
 10
21.1595
 20
-5.5999
 30
0.0
 10
21.1595
 20
-5.5999
 30
0.0
 10
20.8269
 20
-5.5989
 30
0.0
 10
20.6057
 20
-5.6374
 30
0.0
 10
20.4963
 20
-5.7146
 30
0.0
 10
20.4963
 20
-5.7146
 30
0.0
 10
20.3865
 20
-5.7919
 30
0.0
 10
20.3317
 20
-5.8881
 30
0.0
 10
20.3314
 20
-6.0038
 30
0.0
 10
20.3314
 20
-6.0038
 30
0.0
 10
20.331
 20
-6.1181
 30
0.0
 10
20.3791
 20
-6.2091
 30
0.0
 10
20.4753
 20
-6.2776
 30
0.0
 10
20.4753
 20
-6.2776
 30
0.0
 10
20.5979
 20
-6.363
 30
0.0
 10
20.8254
 20
-6.4065
 30
0.0
 10
21.157
 20
-6.4075
 30
0.0
  0
SPLINE
  5
6E
330
1F
100
AcDbEntity
  8
VRSTVA_1
 62
   250
100
AcDbSpline
210
0.0
220
0.0
230
1.0
 70
    11
 71
     3
 72
    20
 73
    16
 74
     0
 42
0.0000000001
 43
0.0000000001
 40
0.0
 40
0.0
 40
0.0
 40
0.0
 40
0.2
 40
0.2
 40
0.2
 40
0.2
 40
0.4
 40
0.4
 40
0.4
 40
0.4
 40
0.6
 40
0.6
 40
0.6
 40
0.6
 40
1.0
 40
1.0
 40
1.0
 40
1.0
 10
23.4406
 20
13.4418
 30
0.0
 10
23.4406
 20
13.4418
 30
0.0
 10
23.0173
 20
10.4418
 30
0.0
 10
23.0173
 20
10.4418
 30
0.0
 10
23.0173
 20
10.4418
 30
0.0
 10
23.0173
 20
10.4418
 30
0.0
 10
22.9232
 20
10.4418
 30
0.0
 10
22.9232
 20
10.4418
 30
0.0
 10
22.9232
 20
10.4418
 30
0.0
 10
22.9232
 20
10.4418
 30
0.0
 10
22.4718
 20
13.4418
 30
0.0
 10
22.4718
 20
13.4418
 30
0.0
 10
22.4718
 20
13.4418
 30
0.0
 10
22.4718
 20
13.4418
 30
0.0
 10
23.4406
 20
13.4418
 30
0.0
 10
23.4406
 20
13.4418
 30
0.0
  0
SPLINE
  5
6F
330
1F
100
AcDbEntity
  8
VRSTVA_1
 62
   250
100
AcDbSpline
210
0.0
220
0.0
230
1.0
 70
    11
 71
     3
 72
    20
 73
    16
 74
     0
 42
0.0000000001
 43
0.0000000001
 40
0.0
 40
0.0
 40
0.0
 40
0.0
 40
0.2
 40
0.2
 40
0.2
 40
0.2
 40
0.4
 40
0.4
 40
0.4
 40
0.4
 40
0.6
 40
0.6
 40
0.6
 40
0.6
 40
1.0
 40
1.0
 40
1.0
 40
1.0
 10
32.8176
 20
11.9553
 30
0.0
 10
32.8176
 20
11.9553
 30
0.0
 10
49.5516
 20
11.9553
 30
0.0
 10
49.5516
 20
11.9553
 30
0.0
 10
49.5516
 20
11.9553
 30
0.0
 10
49.5516
 20
11.9553
 30
0.0
 10
49.5516
 20
-4.8298
 30
0.0
 10
49.5516
 20
-4.8298
 30
0.0
 10
49.5516
 20
-4.8298
 30
0.0
 10
49.5516
 20
-4.8298
 30
0.0
 10
32.8176
 20
-4.8298
 30
0.0
 10
32.8176
 20
-4.8298
 30
0.0
 10
32.8176
 20
-4.8298
 30
0.0
 10
32.8176
 20
-4.8298
 30
0.0
 10
32.8176
 20
11.9553
 30
0.0
 10
32.8176
 20
11.9553
 30
0.0
  0
SPLINE
  5
70
330
1F
100
AcDbEntity
  8
VRSTVA_1
 62
   250
100
AcDbSpline
210
0.0
220
0.0
230
1.0
 70
     8
 71
     3
 72
    16
 73
    12
 74
     0
 42
0.0000000001
 43
0.0000000001
 40
0.0
 40
0.0
 40
0.0
 40
0.0
 40
0.25
 40
0.25
 40
0.25
 40
0.25
 40
0.5
 40
0.5
 40
0.5
 40
0.5
 40
1.0
 40
1.0
 40
1.0
 40
1.0
 10
16.1529
 20
-2.5986
 30
0.0
 10
16.1529
 20
-2.5986
 30
0.0
 10
14.5025
 20
-2.5986
 30
0.0
 10
14.5025
 20
-2.5986
 30
0.0
 10
14.5025
 20
-2.5986
 30
0.0
 10
14.5025
 20
-2.5986
 30
0.0
 10
14.5025
 20
9.8011
 30
0.0
 10
14.5025
 20
9.8011
 30
0.0
 10
14.5025
 20
9.8011
 30
0.0
 10
14.5025
 20
9.8011
 30
0.0
 10
16.1529
 20
9.8011
 30
0.0
 10
16.1529
 20
9.8011
 30
0.0
  0
SPLINE
  5
71
330
1F
100
AcDbEntity
  8
VRSTVA_1
 62
   250
100
AcDbSpline
210
0.0
220
0.0
230
1.0
 70
     8
 71
     3
 72
    16
 73
    12
 74
     0
 42
0.0000000001
 43
0.0000000001
 40
0.0
 40
0.0
 40
0.0
 40
0.0
 40
0.25
 40
0.25
 40
0.25
 40
0.25
 40
0.5
 40
0.5
 40
0.5
 40
0.5
 40
1.0
 40
1.0
 40
1.0
 40
1.0
 10
32.8234
 20
-3.134
 30
0.0
 10
32.8234
 20
-3.134
 30
0.0
 10
16.1745
 20
-3.134
 30
0.0
 10
16.1745
 20
-3.134
 30
0.0
 10
16.1745
 20
-3.134
 30
0.0
 10
16.1745
 20
-3.134
 30
0.0
 10
16.1745
 20
10.2715
 30
0.0
 10
16.1745
 20
10.2715
 30
0.0
 10
16.1745
 20
10.2715
 30
0.0
 10
16.1745
 20
10.2715
 30
0.0
 10
32.8234
 20
10.2715
 30
0.0
 10
32.8234
 20
10.2715
 30
0.0
  0
SPLINE
  5
72
330
1F
100
AcDbEntity
  8
VRSTVA_1
 62
   250
100
AcDbSpline
210
0.0
220
0.0
230
1.0
 70
    24
 71
     3
 72
     8
 73
     4
 74
     0
 42
0.0000000001
 43
0.0000000001
 40
0.0
 40
0.0
 40
0.0
 40
0.0
 40
1.0
 40
1.0
 40
1.0
 40
1.0
 10
-48.248
 20
-7.9967
 30
0.0
 10
-48.248
 20
-7.9967
 30
0.0
 10
-48.248
 20
14.9327
 30
0.0
 10
-48.248
 20
14.9327
 30
0.0
  0
SPLINE
  5
73
330
1F
100
AcDbEntity
  8
VRSTVA_1
 62
   250
100
AcDbSpline
210
0.0
220
0.0
230
1.0
 70
    11
 71
     3
 72
    20
 73
    16
 74
     0
 42
0.0000000001
 43
0.0000000001
 40
0.0
 40
0.0
 40
0.0
 40
0.0
 40
0.2
 40
0.2
 40
0.2
 40
0.2
 40
0.4
 40
0.4
 40
0.4
 40
0.4
 40
0.6
 40
0.6
 40
0.6
 40
0.6
 40
1.0
 40
1.0
 40
1.0
 40
1.0
 10
-48.7155
 20
-7.003
 30
0.0
 10
-48.7155
 20
-7.003
 30
0.0
 10
-48.2923
 20
-4.003
 30
0.0
 10
-48.2923
 20
-4.003
 30
0.0
 10
-48.2923
 20
-4.003
 30
0.0
 10
-48.2923
 20
-4.003
 30
0.0
 10
-48.1982
 20
-4.003
 30
0.0
 10
-48.1982
 20
-4.003
 30
0.0
 10
-48.1982
 20
-4.003
 30
0.0
 10
-48.1982
 20
-4.003
 30
0.0
 10
-47.7468
 20
-7.003
 30
0.0
 10
-47.7468
 20
-7.003
 30
0.0
 10
-47.7468
 20
-7.003
 30
0.0
 10
-47.7468
 20
-7.003
 30
0.0
 10
-48.7155
 20
-7.003
 30
0.0
 10
-48.7155
 20
-7.003
 30
0.0
  0
SPLINE
  5
74
330
1F
100
AcDbEntity
  8
VRSTVA_1
 62
   250
100
AcDbSpline
210
0.0
220
0.0
230
1.0
 70
    11
 71
     3
 72
   120
 73
   116
 74
     0
 42
0.0000000001
 43
0.0000000001
 40
0.0
 40
0.0
 40
0.0
 40
0.0
 40
0.0333333333333333
 40
0.0333333333333333
 40
0.0333333333333333
 40
0.0333333333333333
 40
0.0666666666666667
 40
0.0666666666666667
 40
0.0666666666666667
 40
0.0666666666666667
 40
0.1
 40
0.1
 40
0.1
 40
0.1
 40
0.1333333333333333
 40
0.1333333333333333
 40
0.1333333333333333
 40
0.1333333333333333
 40
0.1666666666666667
 40
0.1666666666666667
 40
0.1666666666666667
 40
0.1666666666666667
 40
0.2
 40
0.2
 40
0.2
 40
0.2
 40
0.2333333333333333
 40
0.2333333333333333
 40
0.2333333333333333
 40
0.2333333333333333
 40
0.2666666666666667
 40
0.2666666666666667
 40
0.2666666666666667
 40
0.2666666666666667
 40
0.3
 40
0.3
 40
0.3
 40
0.3
 40
0.3333333333333333
 40
0.3333333333333333
 40
0.3333333333333333
 40
0.3333333333333333
 40
0.3666666666666666
 40
0.3666666666666666
 40
0.3666666666666666
 40
0.3666666666666666
 40
0.4
 40
0.4
 40
0.4
 40
0.4
 40
0.4333333333333333
 40
0.4333333333333333
 40
0.4333333333333333
 40
0.4333333333333333
 40
0.4666666666666667
 40
0.4666666666666667
 40
0.4666666666666667
 40
0.4666666666666667
 40
0.5
 40
0.5
 40
0.5
 40
0.5
 40
0.5333333333333333
 40
0.5333333333333333
 40
0.5333333333333333
 40
0.5333333333333333
 40
0.5666666666666667
 40
0.5666666666666667
 40
0.5666666666666667
 40
0.5666666666666667
 40
0.6
 40
0.6
 40
0.6
 40
0.6
 40
0.6333333333333333
 40
0.6333333333333333
 40
0.6333333333333333
 40
0.6333333333333333
 40
0.6666666666666666
 40
0.6666666666666666
 40
0.6666666666666666
 40
0.6666666666666666
 40
0.7
 40
0.7
 40
0.7
 40
0.7
 40
0.7333333333333333
 40
0.7333333333333333
 40
0.7333333333333333
 40
0.7333333333333333
 40
0.7666666666666667
 40
0.7666666666666667
 40
0.7666666666666667
 40
0.7666666666666667
 40
0.8
 40
0.8
 40
0.8
 40
0.8
 40
0.8333333333333334
 40
0.8333333333333334
 40
0.8333333333333334
 40
0.8333333333333334
 40
0.8666666666666667
 40
0.8666666666666667
 40
0.8666666666666667
 40
0.8666666666666667
 40
0.9
 40
0.9
 40
0.9
 40
0.9
 40
0.9333333333333333
 40
0.9333333333333333
 40
0.9333333333333333
 40
0.9333333333333333
 40
1.0
 40
1.0
 40
1.0
 40
1.0
 10
-49.5266
 20
0.6704
 30
0.0
 10
-49.5266
 20
0.6704
 30
0.0
 10
-49.7632
 20
0.6711
 30
0.0
 10
-49.7632
 20
0.6711
 30
0.0
 10
-49.7632
 20
0.6711
 30
0.0
 10
-49.7632
 20
0.6711
 30
0.0
 10
-49.762
 20
1.5267
 30
0.0
 10
-49.762
 20
1.5267
 30
0.0
 10
-49.762
 20
1.5267
 30
0.0
 10
-49.762
 20
1.5267
 30
0.0
 10
-49.0127
 20
1.5244
 30
0.0
 10
-49.0127
 20
1.5244
 30
0.0
 10
-49.0127
 20
1.5244
 30
0.0
 10
-48.9082
 20
1.3929
 30
0.0
 10
-48.83
 20
1.2572
 30
0.0
 10
-48.7774
 20
1.1173
 30
0.0
 10
-48.7774
 20
1.1173
 30
0.0
 10
-48.7251
 20
0.9775
 30
0.0
 10
-48.6992
 20
0.834
 30
0.0
 10
-48.6996
 20
0.6872
 30
0.0
 10
-48.6996
 20
0.6872
 30
0.0
 10
-48.7002
 20
0.4887
 30
0.0
 10
-48.7431
 20
0.3082
 30
0.0
 10
-48.8287
 20
0.1467
 30
0.0
 10
-48.8287
 20
0.1467
 30
0.0
 10
-48.9139
 20
-0.0154
 30
0.0
 10
-49.0374
 20
-0.1373
 30
0.0
 10
-49.1981
 20
-0.2196
 30
0.0
 10
-49.1981
 20
-0.2196
 30
0.0
 10
-49.3592
 20
-0.3019
 30
0.0
 10
-49.539
 20
-0.3428
 30
0.0
 10
-49.7375
 20
-0.3422
 30
0.0
 10
-49.7375
 20
-0.3422
 30
0.0
 10
-49.9341
 20
-0.3416
 30
0.0
 10
-50.1174
 20
-0.2997
 30
0.0
 10
-50.2875
 20
-0.2167
 30
0.0
 10
-50.2875
 20
-0.2167
 30
0.0
 10
-50.4579
 20
-0.1344
 30
0.0
 10
-50.5842
 20
-0.0155
 30
0.0
 10
-50.6665
 20
0.139
 30
0.0
 10
-50.6665
 20
0.139
 30
0.0
 10
-50.7483
 20
0.2935
 30
0.0
 10
-50.7892
 20
0.4715
 30
0.0
 10
-50.7886
 20
0.6728
 30
0.0
 10
-50.7886
 20
0.6728
 30
0.0
 10
-50.7882
 20
0.8186
 30
0.0
 10
-50.7642
 20
0.9507
 30
0.0
 10
-50.7163
 20
1.0687
 30
0.0
 10
-50.7163
 20
1.0687
 30
0.0
 10
-50.669
 20
1.1865
 30
0.0
 10
-50.6028
 20
1.279
 30
0.0
 10
-50.518
 20
1.3456
 30
0.0
 10
-50.518
 20
1.3456
 30
0.0
 10
-50.4331
 20
1.4125
 30
0.0
 10
-50.3229
 20
1.463
 30
0.0
 10
-50.1868
 20
1.4979
 30
0.0
 10
-50.1868
 20
1.4979
 30
0.0
 10
-50.1868
 20
1.4979
 30
0.0
 10
-50.1212
 20
1.2564
 30
0.0
 10
-50.1212
 20
1.2564
 30
0.0
 10
-50.1212
 20
1.2564
 30
0.0
 10
-50.2243
 20
1.2261
 30
0.0
 10
-50.3053
 20
1.1887
 30
0.0
 10
-50.3643
 20
1.1442
 30
0.0
 10
-50.3643
 20
1.1442
 30
0.0
 10
-50.4232
 20
1.0993
 30
0.0
 10
-50.4704
 20
1.0349
 30
0.0
 10
-50.506
 20
0.9513
 30
0.0
 10
-50.506
 20
0.9513
 30
0.0
 10
-50.5415
 20
0.8681
 30
0.0
 10
-50.5597
 20
0.7751
 30
0.0
 10
-50.56
 20
0.6735
 30
0.0
 10
-50.56
 20
0.6735
 30
0.0
 10
-50.5604
 20
0.5512
 30
0.0
 10
-50.5418
 20
0.4453
 30
0.0
 10
-50.5049
 20
0.3563
 30
0.0
 10
-50.5049
 20
0.3563
 30
0.0
 10
-50.468
 20
0.2668
 30
0.0
 10
-50.4193
 20
0.1952
 30
0.0
 10
-50.3588
 20
0.14
 30
0.0
 10
-50.3588
 20
0.14
 30
0.0
 10
-50.2984
 20
0.0852
 30
0.0
 10
-50.2321
 20
0.0427
 30
0.0
 10
-50.1593
 20
0.0119
 30
0.0
 10
-50.1593
 20
0.0119
 30
0.0
 10
-50.0348
 20
-0.0397
 30
0.0
 10
-49.8994
 20
-0.066
 30
0.0
 10
-49.7531
 20
-0.0664
 30
0.0
 10
-49.7531
 20
-0.0664
 30
0.0
 10
-49.573
 20
-0.067
 30
0.0
 10
-49.4224
 20
-0.0364
 30
0.0
 10
-49.3008
 20
0.0253
 30
0.0
 10
-49.3008
 20
0.0253
 30
0.0
 10
-49.1794
 20
0.087
 30
0.0
 10
-49.0892
 20
0.1771
 30
0.0
 10
-49.03
 20
0.2954
 30
0.0
 10
-49.03
 20
0.2954
 30
0.0
 10
-48.9709
 20
0.4138
 30
0.0
 10
-48.9409
 20
0.5393
 30
0.0
 10
-48.9405
 20
0.6724
 30
0.0
 10
-48.9405
 20
0.6724
 30
0.0
 10
-48.9401
 20
0.7886
 30
0.0
 10
-48.9624
 20
0.9015
 30
0.0
 10
-49.0068
 20
1.0117
 30
0.0
 10
-49.0068
 20
1.0117
 30
0.0
 10
-49.0506
 20
1.1224
 30
0.0
 10
-49.0979
 20
1.2058
 30
0.0
 10
-49.1485
 20
1.2628
 30
0.0
 10
-49.1485
 20
1.2628
 30
0.0
 10
-49.1485
 20
1.2628
 30
0.0
 10
-49.5248
 20
1.264
 30
0.0
 10
-49.5248
 20
1.264
 30
0.0
 10
-49.5248
 20
1.264
 30
0.0
 10
-49.5248
 20
1.264
 30
0.0
 10
-49.5266
 20
0.6704
 30
0.0
 10
-49.5266
 20
0.6704
 30
0.0
  0
SPLINE
  5
75
330
1F
100
AcDbEntity
  8
VRSTVA_1
 62
   250
100
AcDbSpline
210
0.0
220
0.0
230
1.0
 70
    11
 71
     3
 72
    80
 73
    76
 74
     0
 42
0.0000000001
 43
0.0000000001
 40
0.0
 40
0.0
 40
0.0
 40
0.0
 40
0.05
 40
0.05
 40
0.05
 40
0.05
 40
0.1
 40
0.1
 40
0.1
 40
0.1
 40
0.15
 40
0.15
 40
0.15
 40
0.15
 40
0.2
 40
0.2
 40
0.2
 40
0.2
 40
0.25
 40
0.25
 40
0.25
 40
0.25
 40
0.3
 40
0.3
 40
0.3
 40
0.3
 40
0.35
 40
0.35
 40
0.35
 40
0.35
 40
0.4
 40
0.4
 40
0.4
 40
0.4
 40
0.45
 40
0.45
 40
0.45
 40
0.45
 40
0.5
 40
0.5
 40
0.5
 40
0.5
 40
0.55
 40
0.55
 40
0.55
 40
0.55
 40
0.6
 40
0.6
 40
0.6
 40
0.6
 40
0.65
 40
0.65
 40
0.65
 40
0.65
 40
0.7
 40
0.7
 40
0.7
 40
0.7
 40
0.75
 40
0.75
 40
0.75
 40
0.75
 40
0.8
 40
0.8
 40
0.8
 40
0.8
 40
0.85
 40
0.85
 40
0.85
 40
0.85
 40
0.9
 40
0.9
 40
0.9
 40
0.9
 40
1.0
 40
1.0
 40
1.0
 40
1.0
 10
-50.2497
 20
3.8927
 30
0.0
 10
-50.2497
 20
3.8927
 30
0.0
 10
-50.2312
 20
3.6462
 30
0.0
 10
-50.2312
 20
3.6462
 30
0.0
 10
-50.2312
 20
3.6462
 30
0.0
 10
-50.3286
 20
3.6244
 30
0.0
 10
-50.3997
 20
3.5935
 30
0.0
 10
-50.4435
 20
3.5532
 30
0.0
 10
-50.4435
 20
3.5532
 30
0.0
 10
-50.5148
 20
3.4862
 30
0.0
 10
-50.5504
 20
3.4035
 30
0.0
 10
-50.5507
 20
3.3052
 30
0.0
 10
-50.5507
 20
3.3052
 30
0.0
 10
-50.5509
 20
3.2262
 30
0.0
 10
-50.5289
 20
3.157
 30
0.0
 10
-50.4849
 20
3.0971
 30
0.0
 10
-50.4849
 20
3.0971
 30
0.0
 10
-50.4282
 20
3.0188
 30
0.0
 10
-50.3452
 20
2.9569
 30
0.0
 10
-50.2362
 20
2.9115
 30
0.0
 10
-50.2362
 20
2.9115
 30
0.0
 10
-50.1272
 20
2.8665
 30
0.0
 10
-49.9716
 20
2.8425
 30
0.0
 10
-49.7694
 20
2.84
 30
0.0
 10
-49.7694
 20
2.84
 30
0.0
 10
-49.8599
 20
2.9
 30
0.0
 10
-49.9275
 20
2.9731
 30
0.0
 10
-49.9714
 20
3.0598
 30
0.0
 10
-49.9714
 20
3.0598
 30
0.0
 10
-50.0149
 20
3.146
 30
0.0
 10
-50.0367
 20
3.2368
 30
0.0
 10
-50.0364
 20
3.3314
 30
0.0
 10
-50.0364
 20
3.3314
 30
0.0
 10
-50.0359
 20
3.4969
 30
0.0
 10
-49.9749
 20
3.6374
 30
0.0
 10
-49.8526
 20
3.7533
 30
0.0
 10
-49.8526
 20
3.7533
 30
0.0
 10
-49.7305
 20
3.869
 30
0.0
 10
-49.5732
 20
3.9269
 30
0.0
 10
-49.3804
 20
3.9264
 30
0.0
 10
-49.3804
 20
3.9264
 30
0.0
 10
-49.2534
 20
3.926
 30
0.0
 10
-49.1359
 20
3.8978
 30
0.0
 10
-49.0269
 20
3.8429
 30
0.0
 10
-49.0269
 20
3.8429
 30
0.0
 10
-48.9184
 20
3.7881
 30
0.0
 10
-48.8349
 20
3.7125
 30
0.0
 10
-48.7773
 20
3.6168
 30
0.0
 10
-48.7773
 20
3.6168
 30
0.0
 10
-48.7198
 20
3.5213
 30
0.0
 10
-48.6914
 20
3.413
 30
0.0
 10
-48.6918
 20
3.2916
 30
0.0
 10
-48.6918
 20
3.2916
 30
0.0
 10
-48.6924
 20
3.0847
 30
0.0
 10
-48.7686
 20
2.9165
 30
0.0
 10
-48.9214
 20
2.7867
 30
0.0
 10
-48.9214
 20
2.7867
 30
0.0
 10
-49.0737
 20
2.6563
 30
0.0
 10
-49.3246
 20
2.5922
 30
0.0
 10
-49.6736
 20
2.5932
 30
0.0
 10
-49.6736
 20
2.5932
 30
0.0
 10
-50.064
 20
2.5944
 30
0.0
 10
-50.3475
 20
2.6673
 30
0.0
 10
-50.5244
 20
2.8122
 30
0.0
 10
-50.5244
 20
2.8122
 30
0.0
 10
-50.6783
 20
2.9383
 30
0.0
 10
-50.7554
 20
3.1078
 30
0.0
 10
-50.7547
 20
3.3213
 30
0.0
 10
-50.7547
 20
3.3213
 30
0.0
 10
-50.7543
 20
3.4799
 30
0.0
 10
-50.7092
 20
3.6099
 30
0.0
 10
-50.6195
 20
3.7113
 30
0.0
 10
-50.6195
 20
3.7113
 30
0.0
 10
-50.5303
 20
3.8126
 30
0.0
 10
-50.4069
 20
3.8729
 30
0.0
 10
-50.2497
 20
3.8927
 30
0.0
  0
SPLINE
  5
76
330
1F
100
AcDbEntity
  8
VRSTVA_1
 62
   250
100
AcDbSpline
210
0.0
220
0.0
230
1.0
 70
    11
 71
     3
 72
    40
 73
    36
 74
     0
 42
0.0000000001
 43
0.0000000001
 40
0.0
 40
0.0
 40
0.0
 40
0.0
 40
0.1
 40
0.1
 40
0.1
 40
0.1
 40
0.2
 40
0.2
 40
0.2
 40
0.2
 40
0.3
 40
0.3
 40
0.3
 40
0.3
 40
0.4
 40
0.4
 40
0.4
 40
0.4
 40
0.5
 40
0.5
 40
0.5
 40
0.5
 40
0.6
 40
0.6
 40
0.6
 40
0.6
 40
0.7
 40
0.7
 40
0.7
 40
0.7
 40
0.8
 40
0.8
 40
0.8
 40
0.8
 40
1.0
 40
1.0
 40
1.0
 40
1.0
 10
-49.3822
 20
2.8774
 30
0.0
 10
-49.2965
 20
2.8771
 30
0.0
 10
-49.2146
 20
2.8952
 30
0.0
 10
-49.1364
 20
2.9312
 30
0.0
 10
-49.1364
 20
2.9312
 30
0.0
 10
-49.0582
 20
2.9672
 30
0.0
 10
-48.9988
 20
3.0178
 30
0.0
 10
-48.9577
 20
3.0826
 30
0.0
 10
-48.9577
 20
3.0826
 30
0.0
 10
-48.9165
 20
3.1479
 30
0.0
 10
-48.8956
 20
3.2165
 30
0.0
 10
-48.8954
 20
3.288
 30
0.0
 10
-48.8954
 20
3.288
 30
0.0
 10
-48.8951
 20
3.3929
 30
0.0
 10
-48.9372
 20
3.4828
 30
0.0
 10
-49.0216
 20
3.5584
 30
0.0
 10
-49.0216
 20
3.5584
 30
0.0
 10
-49.1061
 20
3.6338
 30
0.0
 10
-49.2208
 20
3.6719
 30
0.0
 10
-49.3656
 20
3.6723
 30
0.0
 10
-49.3656
 20
3.6723
 30
0.0
 10
-49.5053
 20
3.6727
 30
0.0
 10
-49.6155
 20
3.6359
 30
0.0
 10
-49.6961
 20
3.5618
 30
0.0
 10
-49.6961
 20
3.5618
 30
0.0
 10
-49.7768
 20
3.4877
 30
0.0
 10
-49.8171
 20
3.3943
 30
0.0
 10
-49.8175
 20
3.2814
 30
0.0
 10
-49.8175
 20
3.2814
 30
0.0
 10
-49.8178
 20
3.169
 30
0.0
 10
-49.7781
 20
3.0737
 30
0.0
 10
-49.6978
 20
2.9955
 30
0.0
 10
-49.6978
 20
2.9955
 30
0.0
 10
-49.6176
 20
2.9172
 30
0.0
 10
-49.5124
 20
2.8777
 30
0.0
 10
-49.3822
 20
2.8774
 30
0.0
  0
SPLINE
  5
77
330
1F
100
AcDbEntity
  8
VRSTVA_1
 62
   250
100
AcDbSpline
210
0.0
220
0.0
230
1.0
 70
    11
 71
     3
 72
    20
 73
    16
 74
     0
 42
0.0000000001
 43
0.0000000001
 40
0.0
 40
0.0
 40
0.0
 40
0.0
 40
0.2
 40
0.2
 40
0.2
 40
0.2
 40
0.4
 40
0.4
 40
0.4
 40
0.4
 40
0.6
 40
0.6
 40
0.6
 40
0.6
 40
1.0
 40
1.0
 40
1.0
 40
1.0
 10
-48.6895
 20
4.0536
 30
0.0
 10
-48.6895
 20
4.0536
 30
0.0
 10
-50.7767
 20
4.6455
 30
0.0
 10
-50.7767
 20
4.6455
 30
0.0
 10
-50.7767
 20
4.6455
 30
0.0
 10
-50.7767
 20
4.6455
 30
0.0
 10
-50.7761
 20
4.844
 30
0.0
 10
-50.7761
 20
4.844
 30
0.0
 10
-50.7761
 20
4.844
 30
0.0
 10
-50.7761
 20
4.844
 30
0.0
 10
-48.6889
 20
4.2535
 30
0.0
 10
-48.6889
 20
4.2535
 30
0.0
 10
-48.6889
 20
4.2535
 30
0.0
 10
-48.6889
 20
4.2535
 30
0.0
 10
-48.6895
 20
4.0536
 30
0.0
 10
-48.6895
 20
4.0536
 30
0.0
  0
SPLINE
  5
78
330
1F
100
AcDbEntity
  8
VRSTVA_1
 62
   250
100
AcDbSpline
210
0.0
220
0.0
230
1.0
 70
    11
 71
     3
 72
    48
 73
    44
 74
     0
 42
0.0000000001
 43
0.0000000001
 40
0.0
 40
0.0
 40
0.0
 40
0.0
 40
0.0833333333333333
 40
0.0833333333333333
 40
0.0833333333333333
 40
0.0833333333333333
 40
0.1666666666666667
 40
0.1666666666666667
 40
0.1666666666666667
 40
0.1666666666666667
 40
0.25
 40
0.25
 40
0.25
 40
0.25
 40
0.3333333333333333
 40
0.3333333333333333
 40
0.3333333333333333
 40
0.3333333333333333
 40
0.4166666666666667
 40
0.4166666666666667
 40
0.4166666666666667
 40
0.4166666666666667
 40
0.5
 40
0.5
 40
0.5
 40
0.5
 40
0.5833333333333334
 40
0.5833333333333334
 40
0.5833333333333334
 40
0.5833333333333334
 40
0.6666666666666666
 40
0.6666666666666666
 40
0.6666666666666666
 40
0.6666666666666666
 40
0.75
 40
0.75
 40
0.75
 40
0.75
 40
0.8333333333333334
 40
0.8333333333333334
 40
0.8333333333333334
 40
0.8333333333333334
 40
1.0
 40
1.0
 40
1.0
 40
1.0
 10
-48.7187
 20
5.7498
 30
0.0
 10
-48.7187
 20
5.7498
 30
0.0
 10
-49.2022
 20
5.7512
 30
0.0
 10
-49.2022
 20
5.7512
 30
0.0
 10
-49.2022
 20
5.7512
 30
0.0
 10
-49.2022
 20
5.7512
 30
0.0
 10
-49.2049
 20
4.8749
 30
0.0
 10
-49.2049
 20
4.8749
 30
0.0
 10
-49.2049
 20
4.8749
 30
0.0
 10
-49.2049
 20
4.8749
 30
0.0
 10
-49.4326
 20
4.8756
 30
0.0
 10
-49.4326
 20
4.8756
 30
0.0
 10
-49.4326
 20
4.8756
 30
0.0
 10
-49.4326
 20
4.8756
 30
0.0
 10
-50.7388
 20
5.8015
 30
0.0
 10
-50.7388
 20
5.8015
 30
0.0
 10
-50.7388
 20
5.8015
 30
0.0
 10
-50.7388
 20
5.8015
 30
0.0
 10
-50.7382
 20
6.0042
 30
0.0
 10
-50.7382
 20
6.0042
 30
0.0
 10
-50.7382
 20
6.0042
 30
0.0
 10
-50.7382
 20
6.0042
 30
0.0
 10
-49.4292
 20
6.0003
 30
0.0
 10
-49.4292
 20
6.0003
 30
0.0
 10
-49.4292
 20
6.0003
 30
0.0
 10
-49.4292
 20
6.0003
 30
0.0
 10
-49.4284
 20
6.2731
 30
0.0
 10
-49.4284
 20
6.2731
 30
0.0
 10
-49.4284
 20
6.2731
 30
0.0
 10
-49.4284
 20
6.2731
 30
0.0
 10
-49.2007
 20
6.2724
 30
0.0
 10
-49.2007
 20
6.2724
 30
0.0
 10
-49.2007
 20
6.2724
 30
0.0
 10
-49.2007
 20
6.2724
 30
0.0
 10
-49.2015
 20
5.9996
 30
0.0
 10
-49.2015
 20
5.9996
 30
0.0
 10
-49.2015
 20
5.9996
 30
0.0
 10
-49.2015
 20
5.9996
 30
0.0
 10
-48.718
 20
5.9982
 30
0.0
 10
-48.718
 20
5.9982
 30
0.0
 10
-48.718
 20
5.9982
 30
0.0
 10
-48.718
 20
5.9982
 30
0.0
 10
-48.7187
 20
5.7498
 30
0.0
 10
-48.7187
 20
5.7498
 30
0.0
  0
SPLINE
  5
79
330
1F
100
AcDbEntity
  8
VRSTVA_1
 62
   250
100
AcDbSpline
210
0.0
220
0.0
230
1.0
 70
    11
 71
     3
 72
    16
 73
    12
 74
     0
 42
0.0000000001
 43
0.0000000001
 40
0.0
 40
0.0
 40
0.0
 40
0.0
 40
0.25
 40
0.25
 40
0.25
 40
0.25
 40
0.5
 40
0.5
 40
0.5
 40
0.5
 40
1.0
 40
1.0
 40
1.0
 40
1.0
 10
-49.4299
 20
5.7519
 30
0.0
 10
-49.4299
 20
5.7519
 30
0.0
 10
-50.3405
 20
5.7546
 30
0.0
 10
-50.3405
 20
5.7546
 30
0.0
 10
-50.3405
 20
5.7546
 30
0.0
 10
-50.3405
 20
5.7546
 30
0.0
 10
-49.4318
 20
5.1198
 30
0.0
 10
-49.4318
 20
5.1198
 30
0.0
 10
-49.4318
 20
5.1198
 30
0.0
 10
-49.4318
 20
5.1198
 30
0.0
 10
-49.4299
 20
5.7519
 30
0.0
 10
-49.4299
 20
5.7519
 30
0.0
  0
SPLINE
  5
7A
330
1F
100
AcDbEntity
  8
VRSTVA_1
 62
   250
100
AcDbSpline
210
0.0
220
0.0
230
1.0
 70
    11
 71
     3
 72
    28
 73
    24
 74
     0
 42
0.0000000001
 43
0.0000000001
 40
0.0
 40
0.0
 40
0.0
 40
0.0
 40
0.1428571428571428
 40
0.1428571428571428
 40
0.1428571428571428
 40
0.1428571428571428
 40
0.2857142857142857
 40
0.2857142857142857
 40
0.2857142857142857
 40
0.2857142857142857
 40
0.4285714285714285
 40
0.4285714285714285
 40
0.4285714285714285
 40
0.4285714285714285
 40
0.5714285714285714
 40
0.5714285714285714
 40
0.5714285714285714
 40
0.5714285714285714
 40
0.7142857142857143
 40
0.7142857142857143
 40
0.7142857142857143
 40
0.7142857142857143
 40
1.0
 40
1.0
 40
1.0
 40
1.0
 10
-50.0209
 20
6.6098
 30
0.0
 10
-50.0209
 20
6.6098
 30
0.0
 10
-50.4059
 20
6.5418
 30
0.0
 10
-50.4059
 20
6.5418
 30
0.0
 10
-50.4059
 20
6.5418
 30
0.0
 10
-50.4059
 20
6.5418
 30
0.0
 10
-50.7365
 20
6.5428
 30
0.0
 10
-50.7365
 20
6.5428
 30
0.0
 10
-50.7365
 20
6.5428
 30
0.0
 10
-50.7365
 20
6.5428
 30
0.0
 10
-50.7357
 20
6.8254
 30
0.0
 10
-50.7357
 20
6.8254
 30
0.0
 10
-50.7357
 20
6.8254
 30
0.0
 10
-50.7357
 20
6.8254
 30
0.0
 10
-50.4051
 20
6.8244
 30
0.0
 10
-50.4051
 20
6.8244
 30
0.0
 10
-50.4051
 20
6.8244
 30
0.0
 10
-50.4051
 20
6.8244
 30
0.0
 10
-50.0205
 20
6.7613
 30
0.0
 10
-50.0205
 20
6.7613
 30
0.0
 10
-50.0205
 20
6.7613
 30
0.0
 10
-50.0205
 20
6.7613
 30
0.0
 10
-50.0209
 20
6.6098
 30
0.0
 10
-50.0209
 20
6.6098
 30
0.0
  0
SPLINE
  5
7B
330
1F
100
AcDbEntity
  8
VRSTVA_1
 62
   250
100
AcDbSpline
210
0.0
220
0.0
230
1.0
 70
    11
 71
     3
 72
    28
 73
    24
 74
     0
 42
0.0000000001
 43
0.0000000001
 40
0.0
 40
0.0
 40
0.0
 40
0.0
 40
0.1428571428571428
 40
0.1428571428571428
 40
0.1428571428571428
 40
0.1428571428571428
 40
0.2857142857142857
 40
0.2857142857142857
 40
0.2857142857142857
 40
0.2857142857142857
 40
0.4285714285714285
 40
0.4285714285714285
 40
0.4285714285714285
 40
0.4285714285714285
 40
0.5714285714285714
 40
0.5714285714285714
 40
0.5714285714285714
 40
0.5714285714285714
 40
0.7142857142857143
 40
0.7142857142857143
 40
0.7142857142857143
 40
0.7142857142857143
 40
1.0
 40
1.0
 40
1.0
 40
1.0
 10
-50.0196
 20
7.0661
 30
0.0
 10
-50.0196
 20
7.0661
 30
0.0
 10
-50.4046
 20
6.9994
 30
0.0
 10
-50.4046
 20
6.9994
 30
0.0
 10
-50.4046
 20
6.9994
 30
0.0
 10
-50.4046
 20
6.9994
 30
0.0
 10
-50.7352
 20
7.0004
 30
0.0
 10
-50.7352
 20
7.0004
 30
0.0
 10
-50.7352
 20
7.0004
 30
0.0
 10
-50.7352
 20
7.0004
 30
0.0
 10
-50.7343
 20
7.2831
 30
0.0
 10
-50.7343
 20
7.2831
 30
0.0
 10
-50.7343
 20
7.2831
 30
0.0
 10
-50.7343
 20
7.2831
 30
0.0
 10
-50.4037
 20
7.2821
 30
0.0
 10
-50.4037
 20
7.2821
 30
0.0
 10
-50.4037
 20
7.2821
 30
0.0
 10
-50.4037
 20
7.2821
 30
0.0
 10
-50.0191
 20
7.2147
 30
0.0
 10
-50.0191
 20
7.2147
 30
0.0
 10
-50.0191
 20
7.2147
 30
0.0
 10
-50.0191
 20
7.2147
 30
0.0
 10
-50.0196
 20
7.0661
 30
0.0
 10
-50.0196
 20
7.0661
 30
0.0
  0
SPLINE
  5
7C
330
1F
100
AcDbEntity
  8
VRSTVA_1
 62
   250
100
AcDbSpline
210
0.0
220
0.0
230
1.0
 70
    11
 71
     3
 72
    20
 73
    16
 74
     0
 42
0.0000000001
 43
0.0000000001
 40
0.0
 40
0.0
 40
0.0
 40
0.0
 40
0.2
 40
0.2
 40
0.2
 40
0.2
 40
0.4
 40
0.4
 40
0.4
 40
0.4
 40
0.6
 40
0.6
 40
0.6
 40
0.6
 40
1.0
 40
1.0
 40
1.0
 40
1.0
 10
-47.7666
 20
14.2073
 30
0.0
 10
-47.7666
 20
14.2073
 30
0.0
 10
-48.1899
 20
11.2073
 30
0.0
 10
-48.1899
 20
11.2073
 30
0.0
 10
-48.1899
 20
11.2073
 30
0.0
 10
-48.1899
 20
11.2073
 30
0.0
 10
-48.2839
 20
11.2073
 30
0.0
 10
-48.2839
 20
11.2073
 30
0.0
 10
-48.2839
 20
11.2073
 30
0.0
 10
-48.2839
 20
11.2073
 30
0.0
 10
-48.7353
 20
14.2073
 30
0.0
 10
-48.7353
 20
14.2073
 30
0.0
 10
-48.7353
 20
14.2073
 30
0.0
 10
-48.7353
 20
14.2073
 30
0.0
 10
-47.7666
 20
14.2073
 30
0.0
 10
-47.7666
 20
14.2073
 30
0.0
  0
SPLINE
  5
7D
330
1F
100
AcDbEntity
  8
VRSTVA_1
 62
   250
100
AcDbSpline
210
0.0
220
0.0
230
1.0
 70
    24
 71
     3
 72
     8
 73
     4
 74
     0
 42
0.0000000001
 43
0.0000000001
 40
0.0
 40
0.0
 40
0.0
 40
0.0
 40
1.0
 40
1.0
 40
1.0
 40
1.0
 10
42.0142
 20
-11.4039
 30
0.0
 10
42.0142
 20
-11.4039
 30
0.0
 10
42.0142
 20
16.1363
 30
0.0
 10
42.0142
 20
16.1363
 30
0.0
  0
SPLINE
  5
7E
330
1F
100
AcDbEntity
  8
VRSTVA_1
 62
   250
100
AcDbSpline
210
0.0
220
0.0
230
1.0
 70
    11
 71
     3
 72
    20
 73
    16
 74
     0
 42
0.0000000001
 43
0.0000000001
 40
0.0
 40
0.0
 40
0.0
 40
0.0
 40
0.2
 40
0.2
 40
0.2
 40
0.2
 40
0.4
 40
0.4
 40
0.4
 40
0.4
 40
0.6
 40
0.6
 40
0.6
 40
0.6
 40
1.0
 40
1.0
 40
1.0
 40
1.0
 10
41.5475
 20
-7.9591
 30
0.0
 10
41.5475
 20
-7.9591
 30
0.0
 10
41.9708
 20
-4.9591
 30
0.0
 10
41.9708
 20
-4.9591
 30
0.0
 10
41.9708
 20
-4.9591
 30
0.0
 10
41.9708
 20
-4.9591
 30
0.0
 10
42.0648
 20
-4.9591
 30
0.0
 10
42.0648
 20
-4.9591
 30
0.0
 10
42.0648
 20
-4.9591
 30
0.0
 10
42.0648
 20
-4.9591
 30
0.0
 10
42.5162
 20
-7.9591
 30
0.0
 10
42.5162
 20
-7.9591
 30
0.0
 10
42.5162
 20
-7.9591
 30
0.0
 10
42.5162
 20
-7.9591
 30
0.0
 10
41.5475
 20
-7.9591
 30
0.0
 10
41.5475
 20
-7.9591
 30
0.0
  0
SPLINE
  5
7F
330
1F
100
AcDbEntity
  8
VRSTVA_1
 62
   250
100
AcDbSpline
210
0.0
220
0.0
230
1.0
 70
    11
 71
     3
 72
    84
 73
    80
 74
     0
 42
0.0000000001
 43
0.0000000001
 40
0.0
 40
0.0
 40
0.0
 40
0.0
 40
0.0476190476190476
 40
0.0476190476190476
 40
0.0476190476190476
 40
0.0476190476190476
 40
0.0952380952380952
 40
0.0952380952380952
 40
0.0952380952380952
 40
0.0952380952380952
 40
0.1428571428571428
 40
0.1428571428571428
 40
0.1428571428571428
 40
0.1428571428571428
 40
0.1904761904761905
 40
0.1904761904761905
 40
0.1904761904761905
 40
0.1904761904761905
 40
0.2380952380952381
 40
0.2380952380952381
 40
0.2380952380952381
 40
0.2380952380952381
 40
0.2857142857142857
 40
0.2857142857142857
 40
0.2857142857142857
 40
0.2857142857142857
 40
0.3333333333333333
 40
0.3333333333333333
 40
0.3333333333333333
 40
0.3333333333333333
 40
0.3809523809523809
 40
0.3809523809523809
 40
0.3809523809523809
 40
0.3809523809523809
 40
0.4285714285714285
 40
0.4285714285714285
 40
0.4285714285714285
 40
0.4285714285714285
 40
0.4761904761904762
 40
0.4761904761904762
 40
0.4761904761904762
 40
0.4761904761904762
 40
0.5238095238095238
 40
0.5238095238095238
 40
0.5238095238095238
 40
0.5238095238095238
 40
0.5714285714285714
 40
0.5714285714285714
 40
0.5714285714285714
 40
0.5714285714285714
 40
0.6190476190476191
 40
0.6190476190476191
 40
0.6190476190476191
 40
0.6190476190476191
 40
0.6666666666666666
 40
0.6666666666666666
 40
0.6666666666666666
 40
0.6666666666666666
 40
0.7142857142857143
 40
0.7142857142857143
 40
0.7142857142857143
 40
0.7142857142857143
 40
0.7619047619047619
 40
0.7619047619047619
 40
0.7619047619047619
 40
0.7619047619047619
 40
0.8095238095238095
 40
0.8095238095238095
 40
0.8095238095238095
 40
0.8095238095238095
 40
0.8571428571428571
 40
0.8571428571428571
 40
0.8571428571428571
 40
0.8571428571428571
 40
0.9047619047619048
 40
0.9047619047619048
 40
0.9047619047619048
 40
0.9047619047619048
 40
1.0
 40
1.0
 40
1.0
 40
1.0
 10
39.3606
 20
-9.7503
 30
0.0
 10
39.3606
 20
-9.7503
 30
0.0
 10
39.1022
 20
-9.5181
 30
0.0
 10
39.1022
 20
-9.5181
 30
0.0
 10
39.1022
 20
-9.5181
 30
0.0
 10
39.1022
 20
-9.5181
 30
0.0
 10
39.2183
 20
-9.3821
 30
0.0
 10
39.2183
 20
-9.3821
 30
0.0
 10
39.2183
 20
-9.3821
 30
0.0
 10
39.2183
 20
-9.3821
 30
0.0
 10
39.4904
 20
-9.6251
 30
0.0
 10
39.4904
 20
-9.6251
 30
0.0
 10
39.4904
 20
-9.6251
 30
0.0
 10
39.6082
 20
-9.5464
 30
0.0
 10
39.7114
 20
-9.4936
 30
0.0
 10
39.7993
 20
-9.4661
 30
0.0
 10
39.7993
 20
-9.4661
 30
0.0
 10
39.9153
 20
-9.4298
 30
0.0
 10
40.0451
 20
-9.4118
 30
0.0
 10
40.1881
 20
-9.4123
 30
0.0
 10
40.1881
 20
-9.4123
 30
0.0
 10
40.395
 20
-9.4129
 30
0.0
 10
40.5793
 20
-9.4553
 30
0.0
 10
40.7403
 20
-9.5395
 30
0.0
 10
40.7403
 20
-9.5395
 30
0.0
 10
40.902
 20
-9.6237
 30
0.0
 10
41.0238
 20
-9.7412
 30
0.0
 10
41.1062
 20
-9.8924
 30
0.0
 10
41.1062
 20
-9.8924
 30
0.0
 10
41.188
 20
-10.0442
 30
0.0
 10
41.2289
 20
-10.2046
 30
0.0
 10
41.2284
 20
-10.3744
 30
0.0
 10
41.2284
 20
-10.3744
 30
0.0
 10
41.228
 20
-10.5014
 30
0.0
 10
41.2099
 20
-10.6162
 30
0.0
 10
41.1738
 20
-10.719
 30
0.0
 10
41.1738
 20
-10.719
 30
0.0
 10
41.1458
 20
-10.798
 30
0.0
 10
41.0929
 20
-10.89
 30
0.0
 10
41.0145
 20
-10.9957
 30
0.0
 10
41.0145
 20
-10.9957
 30
0.0
 10
41.0145
 20
-10.9957
 30
0.0
 10
41.273
 20
-11.2278
 30
0.0
 10
41.273
 20
-11.2278
 30
0.0
 10
41.273
 20
-11.2278
 30
0.0
 10
41.273
 20
-11.2278
 30
0.0
 10
41.1568
 20
-11.3639
 30
0.0
 10
41.1568
 20
-11.3639
 30
0.0
 10
41.1568
 20
-11.3639
 30
0.0
 10
41.1568
 20
-11.3639
 30
0.0
 10
40.8862
 20
-11.1204
 30
0.0
 10
40.8862
 20
-11.1204
 30
0.0
 10
40.8862
 20
-11.1204
 30
0.0
 10
40.749
 20
-11.2103
 30
0.0
 10
40.6317
 20
-11.2701
 30
0.0
 10
40.5347
 20
-11.2999
 30
0.0
 10
40.5347
 20
-11.2999
 30
0.0
 10
40.4377
 20
-11.3297
 30
0.0
 10
40.321
 20
-11.3449
 30
0.0
 10
40.1851
 20
-11.3445
 30
0.0
 10
40.1851
 20
-11.3445
 30
0.0
 10
39.9777
 20
-11.3439
 30
0.0
 10
39.7929
 20
-11.3019
 30
0.0
 10
39.6309
 20
-11.2187
 30
0.0
 10
39.6309
 20
-11.2187
 30
0.0
 10
39.4688
 20
-11.1354
 30
0.0
 10
39.3465
 20
-11.0194
 30
0.0
 10
39.2632
 20
-10.8695
 30
0.0
 10
39.2632
 20
-10.8695
 30
0.0
 10
39.1804
 20
-10.7202
 30
0.0
 10
39.139
 20
-10.5539
 30
0.0
 10
39.1395
 20
-10.371
 30
0.0
 10
39.1395
 20
-10.371
 30
0.0
 10
39.1399
 20
-10.2477
 30
0.0
 10
39.1562
 20
-10.1401
 30
0.0
 10
39.1895
 20
-10.048
 30
0.0
 10
39.1895
 20
-10.048
 30
0.0
 10
39.2222
 20
-9.9559
 30
0.0
 10
39.2794
 20
-9.8563
 30
0.0
 10
39.3606
 20
-9.7503
 30
0.0
  0
SPLINE
  5
80
330
1F
100
AcDbEntity
  8
VRSTVA_1
 62
   250
100
AcDbSpline
210
0.0
220
0.0
230
1.0
 70
    11
 71
     3
 72
    32
 73
    28
 74
     0
 42
0.0000000001
 43
0.0000000001
 40
0.0
 40
0.0
 40
0.0
 40
0.0
 40
0.125
 40
0.125
 40
0.125
 40
0.125
 40
0.25
 40
0.25
 40
0.25
 40
0.25
 40
0.375
 40
0.375
 40
0.375
 40
0.375
 40
0.5
 40
0.5
 40
0.5
 40
0.5
 40
0.625
 40
0.625
 40
0.625
 40
0.625
 40
0.75
 40
0.75
 40
0.75
 40
0.75
 40
1.0
 40
1.0
 40
1.0
 40
1.0
 10
39.5459
 20
-9.9159
 30
0.0
 10
39.4779
 20
-10.0023
 30
0.0
 10
39.4311
 20
-10.0779
 30
0.0
 10
39.406
 20
-10.1422
 30
0.0
 10
39.406
 20
-10.1422
 30
0.0
 10
39.3813
 20
-10.2071
 30
0.0
 10
39.3684
 20
-10.2832
 30
0.0
 10
39.3681
 20
-10.3703
 30
0.0
 10
39.3681
 20
-10.3703
 30
0.0
 10
39.3675
 20
-10.5716
 30
0.0
 10
39.4352
 20
-10.7378
 30
0.0
 10
39.5712
 20
-10.8699
 30
0.0
 10
39.5712
 20
-10.8699
 30
0.0
 10
39.7073
 20
-11.0016
 30
0.0
 10
39.9107
 20
-11.068
 30
0.0
 10
40.1821
 20
-11.0689
 30
0.0
 10
40.1821
 20
-11.0689
 30
0.0
 10
40.2884
 20
-11.0692
 30
0.0
 10
40.3831
 20
-11.0592
 30
0.0
 10
40.4659
 20
-11.0391
 30
0.0
 10
40.4659
 20
-11.0391
 30
0.0
 10
40.5276
 20
-11.0247
 30
0.0
 10
40.6034
 20
-10.9944
 30
0.0
 10
40.6933
 20
-10.9476
 30
0.0
 10
40.6933
 20
-10.9476
 30
0.0
 10
40.6933
 20
-10.9476
 30
0.0
 10
39.5459
 20
-9.9159
 30
0.0
 10
39.5459
 20
-9.9159
 30
0.0
  0
SPLINE
  5
81
330
1F
100
AcDbEntity
  8
VRSTVA_1
 62
   250
100
AcDbSpline
210
0.0
220
0.0
230
1.0
 70
    11
 71
     3
 72
    28
 73
    24
 74
     0
 42
0.0000000001
 43
0.0000000001
 40
0.0
 40
0.0
 40
0.0
 40
0.0
 40
0.1428571428571428
 40
0.1428571428571428
 40
0.1428571428571428
 40
0.1428571428571428
 40
0.2857142857142857
 40
0.2857142857142857
 40
0.2857142857142857
 40
0.2857142857142857
 40
0.4285714285714285
 40
0.4285714285714285
 40
0.4285714285714285
 40
0.4285714285714285
 40
0.5714285714285714
 40
0.5714285714285714
 40
0.5714285714285714
 40
0.5714285714285714
 40
0.7142857142857143
 40
0.7142857142857143
 40
0.7142857142857143
 40
0.7142857142857143
 40
1.0
 40
1.0
 40
1.0
 40
1.0
 10
39.6883
 20
-9.8035
 30
0.0
 10
39.6883
 20
-9.8035
 30
0.0
 10
40.8315
 20
-10.8309
 30
0.0
 10
40.8315
 20
-10.8309
 30
0.0
 10
40.8315
 20
-10.8309
 30
0.0
 10
40.8896
 20
-10.7606
 30
0.0
 10
40.9303
 20
-10.6953
 30
0.0
 10
40.9534
 20
-10.6356
 30
0.0
 10
40.9534
 20
-10.6356
 30
0.0
 10
40.9843
 20
-10.5577
 30
0.0
 10
40.9995
 20
-10.473
 30
0.0
 10
40.9998
 20
-10.3822
 30
0.0
 10
40.9998
 20
-10.3822
 30
0.0
 10
41.0004
 20
-10.1818
 30
0.0
 10
40.9304
 20
-10.0165
 30
0.0
 10
40.7892
 20
-9.8854
 30
0.0
 10
40.7892
 20
-9.8854
 30
0.0
 10
40.648
 20
-9.7547
 30
0.0
 10
40.4497
 20
-9.6887
 30
0.0
 10
40.1943
 20
-9.6879
 30
0.0
 10
40.1943
 20
-9.6879
 30
0.0
 10
40.0034
 20
-9.6873
 30
0.0
 10
39.8344
 20
-9.7258
 30
0.0
 10
39.6883
 20
-9.8035
 30
0.0
  0
SPLINE
  5
82
330
1F
100
AcDbEntity
  8
VRSTVA_1
 62
   250
100
AcDbSpline
210
0.0
220
0.0
230
1.0
 70
    11
 71
     3
 72
    92
 73
    88
 74
     0
 42
0.0000000001
 43
0.0000000001
 40
0.0
 40
0.0
 40
0.0
 40
0.0
 40
0.0434782608695652
 40
0.0434782608695652
 40
0.0434782608695652
 40
0.0434782608695652
 40
0.0869565217391304
 40
0.0869565217391304
 40
0.0869565217391304
 40
0.0869565217391304
 40
0.1304347826086956
 40
0.1304347826086956
 40
0.1304347826086956
 40
0.1304347826086956
 40
0.1739130434782609
 40
0.1739130434782609
 40
0.1739130434782609
 40
0.1739130434782609
 40
0.2173913043478261
 40
0.2173913043478261
 40
0.2173913043478261
 40
0.2173913043478261
 40
0.2608695652173913
 40
0.2608695652173913
 40
0.2608695652173913
 40
0.2608695652173913
 40
0.3043478260869565
 40
0.3043478260869565
 40
0.3043478260869565
 40
0.3043478260869565
 40
0.3478260869565217
 40
0.3478260869565217
 40
0.3478260869565217
 40
0.3478260869565217
 40
0.391304347826087
 40
0.391304347826087
 40
0.391304347826087
 40
0.391304347826087
 40
0.4347826086956522
 40
0.4347826086956522
 40
0.4347826086956522
 40
0.4347826086956522
 40
0.4782608695652174
 40
0.4782608695652174
 40
0.4782608695652174
 40
0.4782608695652174
 40
0.5217391304347826
 40
0.5217391304347826
 40
0.5217391304347826
 40
0.5217391304347826
 40
0.5652173913043478
 40
0.5652173913043478
 40
0.5652173913043478
 40
0.5652173913043478
 40
0.6086956521739131
 40
0.6086956521739131
 40
0.6086956521739131
 40
0.6086956521739131
 40
0.6521739130434783
 40
0.6521739130434783
 40
0.6521739130434783
 40
0.6521739130434783
 40
0.6956521739130435
 40
0.6956521739130435
 40
0.6956521739130435
 40
0.6956521739130435
 40
0.7391304347826086
 40
0.7391304347826086
 40
0.7391304347826086
 40
0.7391304347826086
 40
0.782608695652174
 40
0.782608695652174
 40
0.782608695652174
 40
0.782608695652174
 40
0.8260869565217391
 40
0.8260869565217391
 40
0.8260869565217391
 40
0.8260869565217391
 40
0.8695652173913043
 40
0.8695652173913043
 40
0.8695652173913043
 40
0.8695652173913043
 40
0.9130434782608695
 40
0.9130434782608695
 40
0.9130434782608695
 40
0.9130434782608695
 40
1.0
 40
1.0
 40
1.0
 40
1.0
 10
40.6686
 20
-9.1644
 30
0.0
 10
40.6686
 20
-9.1644
 30
0.0
 10
40.6472
 20
-8.9038
 30
0.0
 10
40.6472
 20
-8.9038
 30
0.0
 10
40.6472
 20
-8.9038
 30
0.0
 10
40.7743
 20
-8.8848
 30
0.0
 10
40.8694
 20
-8.8404
 30
0.0
 10
40.9336
 20
-8.7705
 30
0.0
 10
40.9336
 20
-8.7705
 30
0.0
 10
40.9979
 20
-8.7002
 30
0.0
 10
41.0301
 20
-8.6156
 30
0.0
 10
41.0304
 20
-8.5164
 30
0.0
 10
41.0304
 20
-8.5164
 30
0.0
 10
41.0308
 20
-8.3969
 30
0.0
 10
40.9859
 20
-8.2957
 30
0.0
 10
40.8963
 20
-8.2131
 30
0.0
 10
40.8963
 20
-8.2131
 30
0.0
 10
40.8063
 20
-8.13
 30
0.0
 10
40.6869
 20
-8.0883
 30
0.0
 10
40.5383
 20
-8.0878
 30
0.0
 10
40.5383
 20
-8.0878
 30
0.0
 10
40.3967
 20
-8.0874
 30
0.0
 10
40.2851
 20
-8.1266
 30
0.0
 10
40.203
 20
-8.2058
 30
0.0
 10
40.203
 20
-8.2058
 30
0.0
 10
40.1209
 20
-8.2851
 30
0.0
 10
40.0797
 20
-8.3888
 30
0.0
 10
40.0793
 20
-8.5177
 30
0.0
 10
40.0793
 20
-8.5177
 30
0.0
 10
40.0791
 20
-8.5977
 30
0.0
 10
40.0971
 20
-8.6697
 30
0.0
 10
40.1331
 20
-8.7343
 30
0.0
 10
40.1331
 20
-8.7343
 30
0.0
 10
40.1693
 20
-8.7988
 30
0.0
 10
40.2161
 20
-8.8493
 30
0.0
 10
40.2739
 20
-8.8861
 30
0.0
 10
40.2739
 20
-8.8861
 30
0.0
 10
40.2739
 20
-8.8861
 30
0.0
 10
40.2431
 20
-9.1189
 30
0.0
 10
40.2431
 20
-9.1189
 30
0.0
 10
40.2431
 20
-9.1189
 30
0.0
 10
40.2431
 20
-9.1189
 30
0.0
 10
39.206
 20
-8.9201
 30
0.0
 10
39.206
 20
-8.9201
 30
0.0
 10
39.206
 20
-8.9201
 30
0.0
 10
39.206
 20
-8.9201
 30
0.0
 10
39.209
 20
-7.9154
 30
0.0
 10
39.209
 20
-7.9154
 30
0.0
 10
39.209
 20
-7.9154
 30
0.0
 10
39.209
 20
-7.9154
 30
0.0
 10
39.4461
 20
-7.9161
 30
0.0
 10
39.4461
 20
-7.9161
 30
0.0
 10
39.4461
 20
-7.9161
 30
0.0
 10
39.4461
 20
-7.9161
 30
0.0
 10
39.4437
 20
-8.7223
 30
0.0
 10
39.4437
 20
-8.7223
 30
0.0
 10
39.4437
 20
-8.7223
 30
0.0
 10
39.4437
 20
-8.7223
 30
0.0
 10
39.9861
 20
-8.8331
 30
0.0
 10
39.9861
 20
-8.8331
 30
0.0
 10
39.9861
 20
-8.8331
 30
0.0
 10
39.9018
 20
-8.7115
 30
0.0
 10
39.8599
 20
-8.5839
 30
0.0
 10
39.8603
 20
-8.4508
 30
0.0
 10
39.8603
 20
-8.4508
 30
0.0
 10
39.8608
 20
-8.2744
 30
0.0
 10
39.9224
 20
-8.126
 30
0.0
 10
40.045
 20
-8.0049
 30
0.0
 10
40.045
 20
-8.0049
 30
0.0
 10
40.1677
 20
-7.884
 30
0.0
 10
40.325
 20
-7.8238
 30
0.0
 10
40.5169
 20
-7.8244
 30
0.0
 10
40.5169
 20
-7.8244
 30
0.0
 10
40.6999
 20
-7.8249
 30
0.0
 10
40.8578
 20
-7.879
 30
0.0
 10
40.9906
 20
-7.9857
 30
0.0
 10
40.9906
 20
-7.9857
 30
0.0
 10
41.1534
 20
-8.116
 30
0.0
 10
41.2347
 20
-8.2931
 30
0.0
 10
41.234
 20
-8.517
 30
0.0
 10
41.234
 20
-8.517
 30
0.0
 10
41.2335
 20
-8.7009
 30
0.0
 10
41.1818
 20
-8.8508
 30
0.0
 10
41.0785
 20
-8.9667
 30
0.0
 10
41.0785
 20
-8.9667
 30
0.0
 10
40.975
 20
-9.0825
 30
0.0
 10
40.8384
 20
-9.1484
 30
0.0
 10
40.6686
 20
-9.1644
 30
0.0
  0
SPLINE
  5
83
330
1F
100
AcDbEntity
  8
VRSTVA_1
 62
   250
100
AcDbSpline
210
0.0
220
0.0
230
1.0
 70
    11
 71
     3
 72
    52
 73
    48
 74
     0
 42
0.0000000001
 43
0.0000000001
 40
0.0
 40
0.0
 40
0.0
 40
0.0
 40
0.0769230769230769
 40
0.0769230769230769
 40
0.0769230769230769
 40
0.0769230769230769
 40
0.1538461538461539
 40
0.1538461538461539
 40
0.1538461538461539
 40
0.1538461538461539
 40
0.2307692307692308
 40
0.2307692307692308
 40
0.2307692307692308
 40
0.2307692307692308
 40
0.3076923076923077
 40
0.3076923076923077
 40
0.3076923076923077
 40
0.3076923076923077
 40
0.3846153846153846
 40
0.3846153846153846
 40
0.3846153846153846
 40
0.3846153846153846
 40
0.4615384615384616
 40
0.4615384615384616
 40
0.4615384615384616
 40
0.4615384615384616
 40
0.5384615384615384
 40
0.5384615384615384
 40
0.5384615384615384
 40
0.5384615384615384
 40
0.6153846153846154
 40
0.6153846153846154
 40
0.6153846153846154
 40
0.6153846153846154
 40
0.6923076923076923
 40
0.6923076923076923
 40
0.6923076923076923
 40
0.6923076923076923
 40
0.7692307692307693
 40
0.7692307692307693
 40
0.7692307692307693
 40
0.7692307692307693
 40
0.8461538461538461
 40
0.8461538461538461
 40
0.8461538461538461
 40
0.8461538461538461
 40
1.0
 40
1.0
 40
1.0
 40
1.0
 10
40.2063
 20
-7.5934
 30
0.0
 10
39.9673
 20
-7.5927
 30
0.0
 10
39.775
 20
-7.5676
 30
0.0
 10
39.6298
 20
-7.5178
 30
0.0
 10
39.6298
 20
-7.5178
 30
0.0
 10
39.4841
 20
-7.4685
 30
0.0
 10
39.372
 20
-7.3947
 30
0.0
 10
39.2932
 20
-7.2976
 30
0.0
 10
39.2932
 20
-7.2976
 30
0.0
 10
39.2145
 20
-7.2004
 30
0.0
 10
39.1753
 20
-7.0785
 30
0.0
 10
39.1758
 20
-6.9318
 30
0.0
 10
39.1758
 20
-6.9318
 30
0.0
 10
39.1761
 20
-6.8231
 30
0.0
 10
39.1985
 20
-6.7282
 30
0.0
 10
39.2425
 20
-6.6465
 30
0.0
 10
39.2425
 20
-6.6465
 30
0.0
 10
39.286
 20
-6.5648
 30
0.0
 10
39.3493
 20
-6.4976
 30
0.0
 10
39.4317
 20
-6.4443
 30
0.0
 10
39.4317
 20
-6.4443
 30
0.0
 10
39.5142
 20
-6.3914
 30
0.0
 10
39.6145
 20
-6.3498
 30
0.0
 10
39.7326
 20
-6.3201
 30
0.0
 10
39.7326
 20
-6.3201
 30
0.0
 10
39.8508
 20
-6.2898
 30
0.0
 10
40.0098
 20
-6.2753
 30
0.0
 10
40.2102
 20
-6.2759
 30
0.0
 10
40.2102
 20
-6.2759
 30
0.0
 10
40.4472
 20
-6.2766
 30
0.0
 10
40.6382
 20
-6.3016
 30
0.0
 10
40.7838
 20
-6.3506
 30
0.0
 10
40.7838
 20
-6.3506
 30
0.0
 10
40.9295
 20
-6.3999
 30
0.0
 10
41.0416
 20
-6.4731
 30
0.0
 10
41.1209
 20
-6.5703
 30
0.0
 10
41.1209
 20
-6.5703
 30
0.0
 10
41.2001
 20
-6.6674
 30
0.0
 10
41.2392
 20
-6.7898
 30
0.0
 10
41.2388
 20
-6.938
 30
0.0
 10
41.2388
 20
-6.938
 30
0.0
 10
41.2382
 20
-7.1327
 30
0.0
 10
41.1681
 20
-7.2854
 30
0.0
 10
41.0281
 20
-7.396
 30
0.0
 10
41.0281
 20
-7.396
 30
0.0
 10
40.8598
 20
-7.5286
 30
0.0
 10
40.5854
 20
-7.5946
 30
0.0
 10
40.2063
 20
-7.5934
 30
0.0
  0
SPLINE
  5
84
330
1F
100
AcDbEntity
  8
VRSTVA_1
 62
   250
100
AcDbSpline
210
0.0
220
0.0
230
1.0
 70
    11
 71
     3
 72
    36
 73
    32
 74
     0
 42
0.0000000001
 43
0.0000000001
 40
0.0
 40
0.0
 40
0.0
 40
0.0
 40
0.1111111111111111
 40
0.1111111111111111
 40
0.1111111111111111
 40
0.1111111111111111
 40
0.2222222222222222
 40
0.2222222222222222
 40
0.2222222222222222
 40
0.2222222222222222
 40
0.3333333333333333
 40
0.3333333333333333
 40
0.3333333333333333
 40
0.3333333333333333
 40
0.4444444444444444
 40
0.4444444444444444
 40
0.4444444444444444
 40
0.4444444444444444
 40
0.5555555555555556
 40
0.5555555555555556
 40
0.5555555555555556
 40
0.5555555555555556
 40
0.6666666666666666
 40
0.6666666666666666
 40
0.6666666666666666
 40
0.6666666666666666
 40
0.7777777777777778
 40
0.7777777777777778
 40
0.7777777777777778
 40
0.7777777777777778
 40
1.0
 40
1.0
 40
1.0
 40
1.0
 10
40.207
 20
-7.3384
 30
0.0
 10
40.5386
 20
-7.3394
 30
0.0
 10
40.7594
 20
-7.3011
 30
0.0
 10
40.8696
 20
-7.2238
 30
0.0
 10
40.8696
 20
-7.2238
 30
0.0
 10
40.9794
 20
-7.1465
 30
0.0
 10
41.0348
 20
-7.0512
 30
0.0
 10
41.0352
 20
-6.9374
 30
0.0
 10
41.0352
 20
-6.9374
 30
0.0
 10
41.0355
 20
-6.8231
 30
0.0
 10
40.9803
 20
-6.7274
 30
0.0
 10
40.8704
 20
-6.6495
 30
0.0
 10
40.8704
 20
-6.6495
 30
0.0
 10
40.7606
 20
-6.5716
 30
0.0
 10
40.5401
 20
-6.5318
 30
0.0
 10
40.2095
 20
-6.5308
 30
0.0
 10
40.2095
 20
-6.5308
 30
0.0
 10
39.8769
 20
-6.5298
 30
0.0
 10
39.6557
 20
-6.5683
 30
0.0
 10
39.5463
 20
-6.6455
 30
0.0
 10
39.5463
 20
-6.6455
 30
0.0
 10
39.4365
 20
-6.7228
 30
0.0
 10
39.3817
 20
-6.819
 30
0.0
 10
39.3814
 20
-6.9347
 30
0.0
 10
39.3814
 20
-6.9347
 30
0.0
 10
39.381
 20
-7.049
 30
0.0
 10
39.4291
 20
-7.14
 30
0.0
 10
39.5253
 20
-7.2085
 30
0.0
 10
39.5253
 20
-7.2085
 30
0.0
 10
39.6479
 20
-7.2939
 30
0.0
 10
39.8754
 20
-7.3374
 30
0.0
 10
40.207
 20
-7.3384
 30
0.0
  0
SPLINE
  5
85
330
1F
100
AcDbEntity
  8
VRSTVA_1
 62
   250
100
AcDbSpline
210
0.0
220
0.0
230
1.0
 70
    11
 71
     3
 72
    20
 73
    16
 74
     0
 42
0.0000000001
 43
0.0000000001
 40
0.0
 40
0.0
 40
0.0
 40
0.0
 40
0.2
 40
0.2
 40
0.2
 40
0.2
 40
0.4
 40
0.4
 40
0.4
 40
0.4
 40
0.6
 40
0.6
 40
0.6
 40
0.6
 40
1.0
 40
1.0
 40
1.0
 40
1.0
 10
42.4797
 20
15.1316
 30
0.0
 10
42.4797
 20
15.1316
 30
0.0
 10
42.0564
 20
12.1316
 30
0.0
 10
42.0564
 20
12.1316
 30
0.0
 10
42.0564
 20
12.1316
 30
0.0
 10
42.0564
 20
12.1316
 30
0.0
 10
41.9623
 20
12.1316
 30
0.0
 10
41.9623
 20
12.1316
 30
0.0
 10
41.9623
 20
12.1316
 30
0.0
 10
41.9623
 20
12.1316
 30
0.0
 10
41.5109
 20
15.1316
 30
0.0
 10
41.5109
 20
15.1316
 30
0.0
 10
41.5109
 20
15.1316
 30
0.0
 10
41.5109
 20
15.1316
 30
0.0
 10
42.4797
 20
15.1316
 30
0.0
 10
42.4797
 20
15.1316
 30
0.0
  0
SPLINE
  5
86
330
1F
100
AcDbEntity
  8
VRSTVA_1
 62
   250
100
AcDbSpline
210
0.0
220
0.0
230
1.0
 70
    27
 71
     3
 72
    12
 73
     8
 74
     0
 42
0.0000000001
 43
0.0000000001
 40
0.0
 40
0.0
 40
0.0
 40
0.0
 40
0.3333333333333333
 40
0.3333333333333333
 40
0.3333333333333333
 40
0.3333333333333333
 40
1.0
 40
1.0
 40
1.0
 40
1.0
 10
-45.2473
 20
-3.9329
 30
0.0
 10
-45.2473
 20
-3.9329
 30
0.0
 10
-48.9301
 20
-3.9329
 30
0.0
 10
-48.9301
 20
-3.9329
 30
0.0
 10
-48.9301
 20
-3.9329
 30
0.0
 10
-48.9301
 20
-3.9329
 30
0.0
 10
-45.2473
 20
-3.9329
 30
0.0
 10
-45.2473
 20
-3.9329
 30
0.0
  0
SPLINE
  5
87
330
1F
100
AcDbEntity
  8
VRSTVA_1
 62
   250
100
AcDbSpline
210
0.0
220
0.0
230
1.0
 70
    27
 71
     3
 72
    12
 73
     8
 74
     0
 42
0.0000000001
 43
0.0000000001
 40
0.0
 40
0.0
 40
0.0
 40
0.0
 40
0.3333333333333333
 40
0.3333333333333333
 40
0.3333333333333333
 40
0.3333333333333333
 40
1.0
 40
1.0
 40
1.0
 40
1.0
 10
-45.2473
 20
11.1495
 30
0.0
 10
-45.2473
 20
11.1495
 30
0.0
 10
-48.9301
 20
11.1495
 30
0.0
 10
-48.9301
 20
11.1495
 30
0.0
 10
-48.9301
 20
11.1495
 30
0.0
 10
-48.9301
 20
11.1495
 30
0.0
 10
-45.2473
 20
11.1495
 30
0.0
 10
-45.2473
 20
11.1495
 30
0.0
  0
SPLINE
  5
88
330
1F
100
AcDbEntity
  8
VRSTVA_1
 62
   250
100
AcDbSpline
210
0.0
220
0.0
230
1.0
 70
    11
 71
     3
 72
    12
 73
     8
 74
     0
 42
0.0000000001
 43
0.0000000001
 40
0.0
 40
0.0
 40
0.0
 40
0.0
 40
0.3333333333333333
 40
0.3333333333333333
 40
0.3333333333333333
 40
0.3333333333333333
 40
1.0
 40
1.0
 40
1.0
 40
1.0
 10
-39.0284
 20
11.4926
 30
0.0
 10
-39.0284
 20
11.9565
 30
0.0
 10
-39.4044
 20
12.3325
 30
0.0
 10
-39.8683
 20
12.3325
 30
0.0
 10
-39.8683
 20
12.3325
 30
0.0
 10
-39.8683
 20
12.3325
 30
0.0
 10
-39.0284
 20
11.4926
 30
0.0
 10
-39.0284
 20
11.4926
 30
0.0
  0
SPLINE
  5
89
330
1F
100
AcDbEntity
  8
VRSTVA_1
 62
   250
100
AcDbSpline
210
0.0
220
0.0
230
1.0
 70
    11
 71
     3
 72
    12
 73
     8
 74
     0
 42
0.0000000001
 43
0.0000000001
 40
0.0
 40
0.0
 40
0.0
 40
0.0
 40
0.3333333333333333
 40
0.3333333333333333
 40
0.3333333333333333
 40
0.3333333333333333
 40
1.0
 40
1.0
 40
1.0
 40
1.0
 10
-39.8683
 20
-5.1367
 30
0.0
 10
-39.4044
 20
-5.1367
 30
0.0
 10
-39.0284
 20
-4.7606
 30
0.0
 10
-39.0284
 20
-4.2968
 30
0.0
 10
-39.0284
 20
-4.2968
 30
0.0
 10
-39.0284
 20
-4.2968
 30
0.0
 10
-39.8683
 20
-5.1367
 30
0.0
 10
-39.8683
 20
-5.1367
 30
0.0
  0
SPLINE
  5
8A
330
1F
100
AcDbEntity
  8
VRSTVA_1
 62
   250
100
AcDbSpline
210
0.0
220
0.0
230
1.0
 70
    11
 71
     3
 72
    44
 73
    40
 74
     0
 42
0.0000000001
 43
0.0000000001
 40
0.0
 40
0.0
 40
0.0
 40
0.0
 40
0.0909090909090909
 40
0.0909090909090909
 40
0.0909090909090909
 40
0.0909090909090909
 40
0.1818181818181818
 40
0.1818181818181818
 40
0.1818181818181818
 40
0.1818181818181818
 40
0.2727272727272727
 40
0.2727272727272727
 40
0.2727272727272727
 40
0.2727272727272727
 40
0.3636363636363636
 40
0.3636363636363636
 40
0.3636363636363636
 40
0.3636363636363636
 40
0.4545454545454545
 40
0.4545454545454545
 40
0.4545454545454545
 40
0.4545454545454545
 40
0.5454545454545454
 40
0.5454545454545454
 40
0.5454545454545454
 40
0.5454545454545454
 40
0.6363636363636364
 40
0.6363636363636364
 40
0.6363636363636364
 40
0.6363636363636364
 40
0.7272727272727273
 40
0.7272727272727273
 40
0.7272727272727273
 40
0.7272727272727273
 40
0.8181818181818182
 40
0.8181818181818182
 40
0.8181818181818182
 40
0.8181818181818182
 40
1.0
 40
1.0
 40
1.0
 40
1.0
 10
-44.7396
 20
3.094
 30
0.0
 10
-44.7396
 20
3.094
 30
0.0
 10
-39.8683
 20
3.094
 30
0.0
 10
-39.8683
 20
3.094
 30
0.0
 10
-39.8683
 20
3.094
 30
0.0
 10
-39.8683
 20
3.094
 30
0.0
 10
-39.8683
 20
4.1018
 30
0.0
 10
-39.8683
 20
4.1018
 30
0.0
 10
-39.8683
 20
4.1018
 30
0.0
 10
-39.8683
 20
4.1018
 30
0.0
 10
-44.7396
 20
4.1018
 30
0.0
 10
-44.7396
 20
4.1018
 30
0.0
 10
-44.7396
 20
4.1018
 30
0.0
 10
-44.7396
 20
4.1018
 30
0.0
 10
-44.7396
 20
12.3325
 30
0.0
 10
-44.7396
 20
12.3325
 30
0.0
 10
-44.7396
 20
12.3325
 30
0.0
 10
-44.7396
 20
12.3325
 30
0.0
 10
-39.8683
 20
12.3325
 30
0.0
 10
-39.8683
 20
12.3325
 30
0.0
 10
-39.8683
 20
12.3325
 30
0.0
 10
-39.8683
 20
12.3325
 30
0.0
 10
-39.8683
 20
4.1018
 30
0.0
 10
-39.8683
 20
4.1018
 30
0.0
 10
-39.8683
 20
4.1018
 30
0.0
 10
-39.8683
 20
4.1018
 30
0.0
 10
-39.8683
 20
3.094
 30
0.0
 10
-39.8683
 20
3.094
 30
0.0
 10
-39.8683
 20
3.094
 30
0.0
 10
-39.8683
 20
3.094
 30
0.0
 10
-44.7396
 20
3.094
 30
0.0
 10
-44.7396
 20
3.094
 30
0.0
 10
-44.7396
 20
3.094
 30
0.0
 10
-44.7396
 20
3.094
 30
0.0
 10
-44.7396
 20
4.1018
 30
0.0
 10
-44.7396
 20
4.1018
 30
0.0
 10
-44.7396
 20
4.1018
 30
0.0
 10
-44.7396
 20
4.1018
 30
0.0
 10
-44.7396
 20
3.094
 30
0.0
 10
-44.7396
 20
3.094
 30
0.0
  0
SPLINE
  5
8B
330
1F
100
AcDbEntity
  8
VRSTVA_1
 62
   250
100
AcDbSpline
210
0.0
220
0.0
230
1.0
 70
    27
 71
     3
 72
    12
 73
     8
 74
     0
 42
0.0000000001
 43
0.0000000001
 40
0.0
 40
0.0
 40
0.0
 40
0.0
 40
0.3333333333333333
 40
0.3333333333333333
 40
0.3333333333333333
 40
0.3333333333333333
 40
1.0
 40
1.0
 40
1.0
 40
1.0
 10
-39.0284
 20
-4.2968
 30
0.0
 10
-39.0284
 20
-4.2968
 30
0.0
 10
-39.0284
 20
11.4926
 30
0.0
 10
-39.0284
 20
11.4926
 30
0.0
 10
-39.0284
 20
11.4926
 30
0.0
 10
-39.0284
 20
11.4926
 30
0.0
 10
-39.0284
 20
-4.2968
 30
0.0
 10
-39.0284
 20
-4.2968
 30
0.0
  0
SPLINE
  5
8C
330
1F
100
AcDbEntity
  8
VRSTVA_1
 62
   250
100
AcDbSpline
210
0.0
220
0.0
230
1.0
 70
    11
 71
     3
 72
    20
 73
    16
 74
     0
 42
0.0000000001
 43
0.0000000001
 40
0.0
 40
0.0
 40
0.0
 40
0.0
 40
0.2
 40
0.2
 40
0.2
 40
0.2
 40
0.4
 40
0.4
 40
0.4
 40
0.4
 40
0.6
 40
0.6
 40
0.6
 40
0.6
 40
1.0
 40
1.0
 40
1.0
 40
1.0
 10
-44.7396
 20
12.3325
 30
0.0
 10
-44.7396
 20
12.3325
 30
0.0
 10
-44.7396
 20
4.1018
 30
0.0
 10
-44.7396
 20
4.1018
 30
0.0
 10
-44.7396
 20
4.1018
 30
0.0
 10
-44.7396
 20
4.1018
 30
0.0
 10
-39.8683
 20
4.1018
 30
0.0
 10
-39.8683
 20
4.1018
 30
0.0
 10
-39.8683
 20
4.1018
 30
0.0
 10
-39.8683
 20
4.1018
 30
0.0
 10
-39.8683
 20
12.3325
 30
0.0
 10
-39.8683
 20
12.3325
 30
0.0
 10
-39.8683
 20
12.3325
 30
0.0
 10
-39.8683
 20
12.3325
 30
0.0
 10
-44.7396
 20
12.3325
 30
0.0
 10
-44.7396
 20
12.3325
 30
0.0
  0
SPLINE
  5
8D
330
1F
100
AcDbEntity
  8
VRSTVA_1
 62
   250
100
AcDbSpline
210
0.0
220
0.0
230
1.0
 70
    11
 71
     3
 72
    28
 73
    24
 74
     0
 42
0.0000000001
 43
0.0000000001
 40
0.0
 40
0.0
 40
0.0
 40
0.0
 40
0.1428571428571428
 40
0.1428571428571428
 40
0.1428571428571428
 40
0.1428571428571428
 40
0.2857142857142857
 40
0.2857142857142857
 40
0.2857142857142857
 40
0.2857142857142857
 40
0.4285714285714285
 40
0.4285714285714285
 40
0.4285714285714285
 40
0.4285714285714285
 40
0.5714285714285714
 40
0.5714285714285714
 40
0.5714285714285714
 40
0.5714285714285714
 40
0.7142857142857143
 40
0.7142857142857143
 40
0.7142857142857143
 40
0.7142857142857143
 40
1.0
 40
1.0
 40
1.0
 40
1.0
 10
-44.7396
 20
-5.1367
 30
0.0
 10
-44.7396
 20
-5.1367
 30
0.0
 10
-39.8683
 20
-5.1367
 30
0.0
 10
-39.8683
 20
-5.1367
 30
0.0
 10
-39.8683
 20
-5.1367
 30
0.0
 10
-39.8683
 20
-5.1367
 30
0.0
 10
-39.8683
 20
3.094
 30
0.0
 10
-39.8683
 20
3.094
 30
0.0
 10
-39.8683
 20
3.094
 30
0.0
 10
-39.8683
 20
3.094
 30
0.0
 10
-39.8683
 20
-5.1367
 30
0.0
 10
-39.8683
 20
-5.1367
 30
0.0
 10
-39.8683
 20
-5.1367
 30
0.0
 10
-39.8683
 20
-5.1367
 30
0.0
 10
-44.7396
 20
-5.1367
 30
0.0
 10
-44.7396
 20
-5.1367
 30
0.0
 10
-44.7396
 20
-5.1367
 30
0.0
 10
-44.7396
 20
-5.1367
 30
0.0
 10
-44.7396
 20
3.094
 30
0.0
 10
-44.7396
 20
3.094
 30
0.0
 10
-44.7396
 20
3.094
 30
0.0
 10
-44.7396
 20
3.094
 30
0.0
 10
-44.7396
 20
-5.1367
 30
0.0
 10
-44.7396
 20
-5.1367
 30
0.0
  0
SPLINE
  5
8E
330
1F
100
AcDbEntity
  8
VRSTVA_1
 62
   250
100
AcDbSpline
210
0.0
220
0.0
230
1.0
 70
     8
 71
     3
 72
     8
 73
     4
 74
     0
 42
0.0000000001
 43
0.0000000001
 40
0.0
 40
0.0
 40
0.0
 40
0.0
 40
1.0
 40
1.0
 40
1.0
 40
1.0
 10
-39.0284
 20
11.4926
 30
0.0
 10
-39.0284
 20
11.9565
 30
0.0
 10
-39.4044
 20
12.3325
 30
0.0
 10
-39.8683
 20
12.3325
 30
0.0
  0
SPLINE
  5
8F
330
1F
100
AcDbEntity
  8
VRSTVA_1
 62
   250
100
AcDbSpline
210
0.0
220
0.0
230
1.0
 70
     8
 71
     3
 72
     8
 73
     4
 74
     0
 42
0.0000000001
 43
0.0000000001
 40
0.0
 40
0.0
 40
0.0
 40
0.0
 40
1.0
 40
1.0
 40
1.0
 40
1.0
 10
-39.8683
 20
-5.1367
 30
0.0
 10
-39.4044
 20
-5.1367
 30
0.0
 10
-39.0284
 20
-4.7606
 30
0.0
 10
-39.0284
 20
-4.2968
 30
0.0
  0
SPLINE
  5
90
330
1F
100
AcDbEntity
  8
VRSTVA_1
 62
   250
100
AcDbSpline
210
0.0
220
0.0
230
1.0
 70
    11
 71
     3
 72
    44
 73
    40
 74
     0
 42
0.0000000001
 43
0.0000000001
 40
0.0
 40
0.0
 40
0.0
 40
0.0
 40
0.0909090909090909
 40
0.0909090909090909
 40
0.0909090909090909
 40
0.0909090909090909
 40
0.1818181818181818
 40
0.1818181818181818
 40
0.1818181818181818
 40
0.1818181818181818
 40
0.2727272727272727
 40
0.2727272727272727
 40
0.2727272727272727
 40
0.2727272727272727
 40
0.3636363636363636
 40
0.3636363636363636
 40
0.3636363636363636
 40
0.3636363636363636
 40
0.4545454545454545
 40
0.4545454545454545
 40
0.4545454545454545
 40
0.4545454545454545
 40
0.5454545454545454
 40
0.5454545454545454
 40
0.5454545454545454
 40
0.5454545454545454
 40
0.6363636363636364
 40
0.6363636363636364
 40
0.6363636363636364
 40
0.6363636363636364
 40
0.7272727272727273
 40
0.7272727272727273
 40
0.7272727272727273
 40
0.7272727272727273
 40
0.8181818181818182
 40
0.8181818181818182
 40
0.8181818181818182
 40
0.8181818181818182
 40
1.0
 40
1.0
 40
1.0
 40
1.0
 10
-44.7396
 20
3.094
 30
0.0
 10
-44.7396
 20
3.094
 30
0.0
 10
-39.8683
 20
3.094
 30
0.0
 10
-39.8683
 20
3.094
 30
0.0
 10
-39.8683
 20
3.094
 30
0.0
 10
-39.8683
 20
3.094
 30
0.0
 10
-39.8683
 20
4.1018
 30
0.0
 10
-39.8683
 20
4.1018
 30
0.0
 10
-39.8683
 20
4.1018
 30
0.0
 10
-39.8683
 20
4.1018
 30
0.0
 10
-44.7396
 20
4.1018
 30
0.0
 10
-44.7396
 20
4.1018
 30
0.0
 10
-44.7396
 20
4.1018
 30
0.0
 10
-44.7396
 20
4.1018
 30
0.0
 10
-44.7396
 20
12.3325
 30
0.0
 10
-44.7396
 20
12.3325
 30
0.0
 10
-44.7396
 20
12.3325
 30
0.0
 10
-44.7396
 20
12.3325
 30
0.0
 10
-39.8683
 20
12.3325
 30
0.0
 10
-39.8683
 20
12.3325
 30
0.0
 10
-39.8683
 20
12.3325
 30
0.0
 10
-39.8683
 20
12.3325
 30
0.0
 10
-39.8683
 20
4.1018
 30
0.0
 10
-39.8683
 20
4.1018
 30
0.0
 10
-39.8683
 20
4.1018
 30
0.0
 10
-39.8683
 20
4.1018
 30
0.0
 10
-39.8683
 20
3.094
 30
0.0
 10
-39.8683
 20
3.094
 30
0.0
 10
-39.8683
 20
3.094
 30
0.0
 10
-39.8683
 20
3.094
 30
0.0
 10
-44.7396
 20
3.094
 30
0.0
 10
-44.7396
 20
3.094
 30
0.0
 10
-44.7396
 20
3.094
 30
0.0
 10
-44.7396
 20
3.094
 30
0.0
 10
-44.7396
 20
4.1018
 30
0.0
 10
-44.7396
 20
4.1018
 30
0.0
 10
-44.7396
 20
4.1018
 30
0.0
 10
-44.7396
 20
4.1018
 30
0.0
 10
-44.7396
 20
3.094
 30
0.0
 10
-44.7396
 20
3.094
 30
0.0
  0
SPLINE
  5
91
330
1F
100
AcDbEntity
  8
VRSTVA_1
 62
   250
100
AcDbSpline
210
0.0
220
0.0
230
1.0
 70
    27
 71
     3
 72
    12
 73
     8
 74
     0
 42
0.0000000001
 43
0.0000000001
 40
0.0
 40
0.0
 40
0.0
 40
0.0
 40
0.3333333333333333
 40
0.3333333333333333
 40
0.3333333333333333
 40
0.3333333333333333
 40
1.0
 40
1.0
 40
1.0
 40
1.0
 10
-39.0284
 20
-4.2968
 30
0.0
 10
-39.0284
 20
-4.2968
 30
0.0
 10
-39.0284
 20
11.4926
 30
0.0
 10
-39.0284
 20
11.4926
 30
0.0
 10
-39.0284
 20
11.4926
 30
0.0
 10
-39.0284
 20
11.4926
 30
0.0
 10
-39.0284
 20
-4.2968
 30
0.0
 10
-39.0284
 20
-4.2968
 30
0.0
  0
SPLINE
  5
92
330
1F
100
AcDbEntity
  8
VRSTVA_1
 62
   250
100
AcDbSpline
210
0.0
220
0.0
230
1.0
 70
    11
 71
     3
 72
    20
 73
    16
 74
     0
 42
0.0000000001
 43
0.0000000001
 40
0.0
 40
0.0
 40
0.0
 40
0.0
 40
0.2
 40
0.2
 40
0.2
 40
0.2
 40
0.4
 40
0.4
 40
0.4
 40
0.4
 40
0.6
 40
0.6
 40
0.6
 40
0.6
 40
1.0
 40
1.0
 40
1.0
 40
1.0
 10
-44.7396
 20
12.3325
 30
0.0
 10
-44.7396
 20
12.3325
 30
0.0
 10
-44.7396
 20
4.1018
 30
0.0
 10
-44.7396
 20
4.1018
 30
0.0
 10
-44.7396
 20
4.1018
 30
0.0
 10
-44.7396
 20
4.1018
 30
0.0
 10
-39.8683
 20
4.1018
 30
0.0
 10
-39.8683
 20
4.1018
 30
0.0
 10
-39.8683
 20
4.1018
 30
0.0
 10
-39.8683
 20
4.1018
 30
0.0
 10
-39.8683
 20
12.3325
 30
0.0
 10
-39.8683
 20
12.3325
 30
0.0
 10
-39.8683
 20
12.3325
 30
0.0
 10
-39.8683
 20
12.3325
 30
0.0
 10
-44.7396
 20
12.3325
 30
0.0
 10
-44.7396
 20
12.3325
 30
0.0
  0
SPLINE
  5
93
330
1F
100
AcDbEntity
  8
VRSTVA_1
 62
   250
100
AcDbSpline
210
0.0
220
0.0
230
1.0
 70
    11
 71
     3
 72
    28
 73
    24
 74
     0
 42
0.0000000001
 43
0.0000000001
 40
0.0
 40
0.0
 40
0.0
 40
0.0
 40
0.1428571428571428
 40
0.1428571428571428
 40
0.1428571428571428
 40
0.1428571428571428
 40
0.2857142857142857
 40
0.2857142857142857
 40
0.2857142857142857
 40
0.2857142857142857
 40
0.4285714285714285
 40
0.4285714285714285
 40
0.4285714285714285
 40
0.4285714285714285
 40
0.5714285714285714
 40
0.5714285714285714
 40
0.5714285714285714
 40
0.5714285714285714
 40
0.7142857142857143
 40
0.7142857142857143
 40
0.7142857142857143
 40
0.7142857142857143
 40
1.0
 40
1.0
 40
1.0
 40
1.0
 10
-44.7396
 20
-5.1367
 30
0.0
 10
-44.7396
 20
-5.1367
 30
0.0
 10
-39.8683
 20
-5.1367
 30
0.0
 10
-39.8683
 20
-5.1367
 30
0.0
 10
-39.8683
 20
-5.1367
 30
0.0
 10
-39.8683
 20
-5.1367
 30
0.0
 10
-39.8683
 20
3.094
 30
0.0
 10
-39.8683
 20
3.094
 30
0.0
 10
-39.8683
 20
3.094
 30
0.0
 10
-39.8683
 20
3.094
 30
0.0
 10
-39.8683
 20
-5.1367
 30
0.0
 10
-39.8683
 20
-5.1367
 30
0.0
 10
-39.8683
 20
-5.1367
 30
0.0
 10
-39.8683
 20
-5.1367
 30
0.0
 10
-44.7396
 20
-5.1367
 30
0.0
 10
-44.7396
 20
-5.1367
 30
0.0
 10
-44.7396
 20
-5.1367
 30
0.0
 10
-44.7396
 20
-5.1367
 30
0.0
 10
-44.7396
 20
3.094
 30
0.0
 10
-44.7396
 20
3.094
 30
0.0
 10
-44.7396
 20
3.094
 30
0.0
 10
-44.7396
 20
3.094
 30
0.0
 10
-44.7396
 20
-5.1367
 30
0.0
 10
-44.7396
 20
-5.1367
 30
0.0
  0
SPLINE
  5
94
330
1F
100
AcDbEntity
  8
VRSTVA_1
 62
   250
100
AcDbSpline
210
0.0
220
0.0
230
1.0
 70
    11
 71
     3
 72
    68
 73
    64
 74
     0
 42
0.0000000001
 43
0.0000000001
 40
0.0
 40
0.0
 40
0.0
 40
0.0
 40
0.0588235294117647
 40
0.0588235294117647
 40
0.0588235294117647
 40
0.0588235294117647
 40
0.1176470588235294
 40
0.1176470588235294
 40
0.1176470588235294
 40
0.1176470588235294
 40
0.1764705882352941
 40
0.1764705882352941
 40
0.1764705882352941
 40
0.1764705882352941
 40
0.2352941176470588
 40
0.2352941176470588
 40
0.2352941176470588
 40
0.2352941176470588
 40
0.2941176470588235
 40
0.2941176470588235
 40
0.2941176470588235
 40
0.2941176470588235
 40
0.3529411764705883
 40
0.3529411764705883
 40
0.3529411764705883
 40
0.3529411764705883
 40
0.4117647058823529
 40
0.4117647058823529
 40
0.4117647058823529
 40
0.4117647058823529
 40
0.4705882352941176
 40
0.4705882352941176
 40
0.4705882352941176
 40
0.4705882352941176
 40
0.5294117647058824
 40
0.5294117647058824
 40
0.5294117647058824
 40
0.5294117647058824
 40
0.5882352941176471
 40
0.5882352941176471
 40
0.5882352941176471
 40
0.5882352941176471
 40
0.6470588235294118
 40
0.6470588235294118
 40
0.6470588235294118
 40
0.6470588235294118
 40
0.7058823529411765
 40
0.7058823529411765
 40
0.7058823529411765
 40
0.7058823529411765
 40
0.7647058823529411
 40
0.7647058823529411
 40
0.7647058823529411
 40
0.7647058823529411
 40
0.8235294117647058
 40
0.8235294117647058
 40
0.8235294117647058
 40
0.8235294117647058
 40
0.8823529411764706
 40
0.8823529411764706
 40
0.8823529411764706
 40
0.8823529411764706
 40
1.0
 40
1.0
 40
1.0
 40
1.0
 10
-38.8981
 20
-2.0494
 30
0.0
 10
-38.8981
 20
-2.0494
 30
0.0
 10
-25.5901
 20
-2.0494
 30
0.0
 10
-25.5901
 20
-2.0494
 30
0.0
 10
-25.5901
 20
-2.0494
 30
0.0
 10
-25.5901
 20
-2.0494
 30
0.0
 10
-25.5901
 20
-1.6201
 30
0.0
 10
-25.5901
 20
-1.6201
 30
0.0
 10
-25.5901
 20
-1.6201
 30
0.0
 10
-25.5901
 20
-1.6201
 30
0.0
 10
-24.1591
 20
-1.6201
 30
0.0
 10
-24.1591
 20
-1.6201
 30
0.0
 10
-24.1591
 20
-1.6201
 30
0.0
 10
-24.1591
 20
-1.6201
 30
0.0
 10
-24.1591
 20
8.9691
 30
0.0
 10
-24.1591
 20
8.9691
 30
0.0
 10
-24.1591
 20
8.9691
 30
0.0
 10
-24.1591
 20
8.9691
 30
0.0
 10
-25.5901
 20
8.9691
 30
0.0
 10
-25.5901
 20
8.9691
 30
0.0
 10
-25.5901
 20
8.9691
 30
0.0
 10
-25.5901
 20
8.9691
 30
0.0
 10
-25.5901
 20
9.3984
 30
0.0
 10
-25.5901
 20
9.3984
 30
0.0
 10
-25.5901
 20
9.3984
 30
0.0
 10
-25.5901
 20
9.3984
 30
0.0
 10
-38.8981
 20
9.3984
 30
0.0
 10
-38.8981
 20
9.3984
 30
0.0
 10
-38.8981
 20
9.3984
 30
0.0
 10
-38.8981
 20
9.3984
 30
0.0
 10
-25.5901
 20
9.3984
 30
0.0
 10
-25.5901
 20
9.3984
 30
0.0
 10
-25.5901
 20
9.3984
 30
0.0
 10
-25.5901
 20
9.3984
 30
0.0
 10
-25.5901
 20
8.9691
 30
0.0
 10
-25.5901
 20
8.9691
 30
0.0
 10
-25.5901
 20
8.9691
 30
0.0
 10
-25.5901
 20
8.9691
 30
0.0
 10
-24.1591
 20
8.9691
 30
0.0
 10
-24.1591
 20
8.9691
 30
0.0
 10
-24.1591
 20
8.9691
 30
0.0
 10
-24.1591
 20
8.9691
 30
0.0
 10
-24.1591
 20
-1.6201
 30
0.0
 10
-24.1591
 20
-1.6201
 30
0.0
 10
-24.1591
 20
-1.6201
 30
0.0
 10
-24.1591
 20
-1.6201
 30
0.0
 10
-25.5901
 20
-1.6201
 30
0.0
 10
-25.5901
 20
-1.6201
 30
0.0
 10
-25.5901
 20
-1.6201
 30
0.0
 10
-25.5901
 20
-1.6201
 30
0.0
 10
-25.5901
 20
8.9691
 30
0.0
 10
-25.5901
 20
8.9691
 30
0.0
 10
-25.5901
 20
8.9691
 30
0.0
 10
-25.5901
 20
8.9691
 30
0.0
 10
-25.5901
 20
-1.6201
 30
0.0
 10
-25.5901
 20
-1.6201
 30
0.0
 10
-25.5901
 20
-1.6201
 30
0.0
 10
-25.5901
 20
-1.6201
 30
0.0
 10
-25.5901
 20
-2.0494
 30
0.0
 10
-25.5901
 20
-2.0494
 30
0.0
 10
-25.5901
 20
-2.0494
 30
0.0
 10
-25.5901
 20
-2.0494
 30
0.0
 10
-38.8981
 20
-2.0494
 30
0.0
 10
-38.8981
 20
-2.0494
 30
0.0
  0
ENDSEC
  0
SECTION
  2
OBJECTS
  0
DICTIONARY
  5
C
330
0
100
AcDbDictionary
  3
ACAD_GROUP
350
D
  3
ACAD_LAYOUT
350
1A
  3
ACAD_MATERIAL
350
3B
  3
ACAD_MLEADERSTYLE
350
B7
  3
ACAD_MLINESTYLE
350
17
  3
ACAD_PLOTSETTINGS
350
19
  3
ACAD_VISUALSTYLE
350
2A
  3
ACDBHEADERROUNDTRIPXREC
350
95
  3
ACDBVARIABLEDICTIONARY
350
B5
  0
DICTIONARY
  5
D
102
{ACAD_REACTORS
330
C
102
}
330
C
100
AcDbDictionary
  0
DICTIONARY
  5
1A
102
{ACAD_REACTORS
330
C
102
}
330
C
100
AcDbDictionary
  0
DICTIONARY
  5
3B
102
{ACAD_REACTORS
330
C
102
}
330
C
100
AcDbDictionary
  3
BYBLOCK
350
3D
  3
BYLAYER
350
3C
  3
GLOBAL
350
3E
  0
DICTIONARY
  5
B7
102
{ACAD_REACTORS
330
C
102
}
330
C
100
AcDbDictionary
  0
DICTIONARY
  5
17
102
{ACAD_REACTORS
330
C
102
}
330
C
100
AcDbDictionary
  3
STANDARD
350
18
  0
DICTIONARY
  5
19
102
{ACAD_REACTORS
330
C
102
}
330
C
100
AcDbDictionary
  0
DICTIONARY
  5
2A
102
{ACAD_REACTORS
330
C
102
}
330
C
100
AcDbDictionary
  3
2DWIREFRAME
350
2F
  3
3D_HIDDEN
350
31
  3
3DWIREFRAME
350
30
  3
BASIC
350
32
  3
BRIGHTEN
350
36
  3
COLORCHANGE
350
3A
  3
CONCEPTUAL
350
34
  3
DIM
350
35
  3
FACEPATTERN
350
39
  3
FLAT
350
2B
  3
FLATWITHEDGES
350
2C
  3
GOURAUD
350
2D
  3
GOURAUDWITHEDGES
350
2E
  3
LINEPATTERN
350
38
  3
REALISTIC
350
33
  3
THICKEN
350
37
  0
DICTIONARY
  5
95
102
{ACAD_REACTORS
330
C
102
}
330
C
100
AcDbDictionary
  3
CEPSNTYPE
350
9E
  3
DIMSTYLEDATA
350
B4
  3
FINGERPRINTGUID
350
9F
  3
HYPERLINKBASE
350
98
  3
INSUNITS
350
9D
  3
LAYOUTDICT
350
9A
  3
LWETCUNION
350
9C
  3
PLOTSETDICT
350
9B
  3
PSVPSCALE
350
A1
  3
PUCSBASE
350
A4
  3
PUCSORGBACK
350
AA
  3
PUCSORGBOTTOM
350
A6
  3
PUCSORGFRONT
350
A9
  3
PUCSORGLEFT
350
A7
  3
PUCSORGRIGHT
350
A8
  3
PUCSORGTOP
350
A5
  3
PUCSORTHOREF
350
A2
  3
PUCSORTHOVIEW
350
A3
  3
STYLESHEET
350
99
  3
TSTACKALIGN
350
96
  3
TSTACKSIZE
350
97
  3
UCSBASE
350
AD
  3
UCSORGBACK
350
B3
  3
UCSORGBOTTOM
350
AF
  3
UCSORGFRONT
350
B2
  3
UCSORGLEFT
350
B0
  3
UCSORGRIGHT
350
B1
  3
UCSORGTOP
350
AE
  3
UCSORTHOREF
350
AB
  3
UCSORTHOVIEW
350
AC
  3
VERSIONGUID
350
A0
  0
DICTIONARY
  5
B5
102
{ACAD_REACTORS
330
C
102
}
330
C
100
AcDbDictionary
  3
DIMASSOC
350
B8
  3
HIDETEXT
350
B9
  0
MATERIAL
  5
3D
102
{ACAD_REACTORS
330
3B
102
}
102
{ACAD_XDICTIONARY
360
BC
102
}
330
3B
100
AcDbMaterial
  1
ByBlock
  0
MATERIAL
  5
3C
102
{ACAD_REACTORS
330
3B
102
}
102
{ACAD_XDICTIONARY
360
BA
102
}
330
3B
100
AcDbMaterial
  1
ByLayer
  0
MATERIAL
  5
3E
102
{ACAD_REACTORS
330
3B
102
}
102
{ACAD_XDICTIONARY
360
BE
102
}
330
3B
100
AcDbMaterial
  1
Global
  0
MLINESTYLE
  5
18
102
{ACAD_REACTORS
330
17
102
}
330
17
100
AcDbMlineStyle
  2
Standard
 70
     0
  3

 62
   256
 51
90.0
 52
90.0
 71
     2
 49
0.5
 62
   256
  6
BYLAYER
 49
-0.5
 62
   256
  6
BYLAYER
  0
ACAD_PROXY_OBJECT
  5
2F
102
{ACAD_REACTORS
330
2A
102
}
330
2A
100
AcDbProxyObject
 90
      499
 91
      501
 93
      436
310
42CC9915DA5C99599C985B595049028333333333333E3BF0000000000000FB0107901411070040501600405405064090741402480A0340
1001
ACAD
1000
AcDbSavedByObjectVersion
1070
     0
  0
ACAD_PROXY_OBJECT
  5
31
102
{ACAD_REACTORS
330
2A
102
}
330
2A
100
AcDbProxyObject
 90
      499
 91
      501
 93
      500
310
424CD108121A5919195B90640502408333333333333E3BF0000000000000FB01079024090700405020000000000001110200405405064090740C02480A0340
1001
ACAD
1000
AcDbSavedByObjectVersion
1070
     0
  0
ACAD_PROXY_OBJECT
  5
30
102
{ACAD_REACTORS
330
2A
102
}
330
2A
100
AcDbProxyObject
 90
      499
 91
      501
 93
      436
310
42CCD915DA5C99599C985B595059028333333333333E3BF0000000000000FB0107901411070040501600405405064090741402480A0340
1001
ACAD
1000
AcDbSavedByObjectVersion
1070
     0
  0
ACAD_PROXY_OBJECT
  5
32
102
{ACAD_REACTORS
330
2A
102
}
330
2A
100
AcDbProxyObject
 90
      499
 91
      501
 93
      388
310
4150985CDA58D07406404333333333333E3BF0000000000000FB0107A41107004050150841D405064090741402480A0350
1001
ACAD
1000
AcDbSavedByObjectVersion
1070
     0
  0
ACAD_PROXY_OBJECT
  5
36
102
{ACAD_REACTORS
330
2A
102
}
330
2A
100
AcDbProxyObject
 90
      499
 91
      501
 93
      428
310
42109C9A59DA1D195B90C409028333333333333E3BF0000000000000FB010790141107004050150841D405064090741402480A029950
1001
ACAD
1000
AcDbSavedByObjectVersion
1070
     0
  0
ACAD_PROXY_OBJECT
  5
3A
102
{ACAD_REACTORS
330
2A
102
}
330
2A
100
AcDbProxyObject
 90
      499
 91
      501
 93
      452
310
42D0DBDB1BDC90DA185B99D95104090240C333333333333E3BF0000000000000FB0108901411070040501508421405064090741402480A0350
1001
ACAD
1000
AcDbSavedByObjectVersion
1070
     0
  0
ACAD_PROXY_OBJECT
  5
34
102
{ACAD_REACTORS
330
2A
102
}
330
2A
100
AcDbProxyObject
 90
      499
 91
      501
 93
      500
310
4290DBDB98D95C1D1D585B10940D028333333333333E3BF0000000000000FB0107902409070040501000000000000111010841D405064090740C02480A0340
1001
ACAD
1000
AcDbSavedByObjectVersion
1070
     0
  0
ACAD_PROXY_OBJECT
  5
35
102
{ACAD_REACTORS
330
2A
102
}
330
2A
100
AcDbProxyObject
 90
      499
 91
      501
 93
      412
310
40D11A5B50B409028333333333333E3BF0000000000000FB010790141107004050150841D405064090741402480A02677FFFFFD0
1001
ACAD
1000
AcDbSavedByObjectVersion
1070
     0
  0
ACAD_PROXY_OBJECT
  5
39
102
{ACAD_REACTORS
330
2A
102
}
330
2A
100
AcDbProxyObject
 90
      499
 91
      501
 93
      444
310
42D19858D95C185D1D195C9B90F409028333333333333E3BF0000000000000FB010790141107004050150841D405064090741402480A0350
1001
ACAD
1000
AcDbSavedByObjectVersion
1070
     0
  0
ACAD_PROXY_OBJECT
  5
2B
102
{ACAD_REACTORS
330
2A
102
}
330
2A
100
AcDbProxyObject
 90
      499
 91
      501
 93
      388
310
41119B185D240901404333333333333E3BF0000000000000F9010740A41107004050150841D405064090741402480A1B50
1001
ACAD
1000
AcDbSavedByObjectVersion
1070
     0
  0
ACAD_PROXY_OBJECT
  5
2C
102
{ACAD_REACTORS
330
2A
102
}
330
2A
100
AcDbProxyObject
 90
      499
 91
      501
 93
      476
310
43519B185D15DA5D1A115919D95CD0140901404333333333333E3BF0000000000000F9010740901411070040501600405405064090741402480A1B50
1001
ACAD
1000
AcDbSavedByObjectVersion
1070
     0
  0
ACAD_PROXY_OBJECT
  5
2D
102
{ACAD_REACTORS
330
2A
102
}
330
2A
100
AcDbProxyObject
 90
      499
 91
      501
 93
      412
310
41D1DBDD5C985D5910240902404333333333333E3BF0000000000000F9010740A411070040501641D405064090741402480A1B50
1001
ACAD
1000
AcDbSavedByObjectVersion
1070
     0
  0
ACAD_PROXY_OBJECT
  5
2E
102
{ACAD_REACTORS
330
2A
102
}
330
2A
100
AcDbProxyObject
 90
      499
 91
      501
 93
      500
310
4411DBDD5C985D5915DA5D1A115919D95CD0340902404333333333333E3BF0000000000000F9010740901411070040501600405405064090741402480A1B50
1001
ACAD
1000
AcDbSavedByObjectVersion
1070
     0
  0
ACAD_PROXY_OBJECT
  5
38
102
{ACAD_REACTORS
330
2A
102
}
330
2A
100
AcDbProxyObject
 90
      499
 91
      501
 93
      444
310
42D31A5B995C185D1D195C9B90E409028333333333333E3BF0000000000000FB010790141107004050750841D405064090741402483A0350
1001
ACAD
1000
AcDbSavedByObjectVersion
1070
     0
  0
ACAD_PROXY_OBJECT
  5
33
102
{ACAD_REACTORS
330
2A
102
}
330
2A
100
AcDbProxyObject
 90
      499
 91
      501
 93
      420
310
425499585B1A5CDD1A58D08409028333333333333E3BF0000000000000FB01079019070040501508421405064090741402480A1B40
1001
ACAD
1000
AcDbSavedByObjectVersion
1070
     0
  0
ACAD_PROXY_OBJECT
  5
37
102
{ACAD_REACTORS
330
2A
102
}
330
2A
100
AcDbProxyObject
 90
      499
 91
      501
 93
      412
310
41D51A1A58DAD95B90D409028333333333333E3BF0000000000000FB010790141107004050150C41D405064090741402480A0350
1001
ACAD
1000
AcDbSavedByObjectVersion
1070
     0
  0
XRECORD
  5
9E
102
{ACAD_REACTORS
330
95
102
}
330
95
100
AcDbXrecord
 90
        0
  0
XRECORD
  5
B4
102
{ACAD_REACTORS
330
95
102
}
330
95
100
AcDbXrecord
1000
DSTYLE
1002
{
1070
   340
340
11
1002
}
  0
XRECORD
  5
9F
102
{ACAD_REACTORS
330
95
102
}
330
95
100
AcDbXrecord
  1
{5B7028BF-A0B6-4983-B6E8-15D8C9D2651F}
  0
XRECORD
  5
98
102
{ACAD_REACTORS
330
95
102
}
330
95
100
AcDbXrecord
  1

  0
XRECORD
  5
9D
102
{ACAD_REACTORS
330
95
102
}
330
95
100
AcDbXrecord
 90
        4
  0
XRECORD
  5
9A
102
{ACAD_REACTORS
330
95
102
}
330
95
100
AcDbXrecord
340
1A
  0
XRECORD
  5
9C
102
{ACAD_REACTORS
330
95
102
}
330
95
100
AcDbXrecord
 90
    10781
  0
XRECORD
  5
9B
102
{ACAD_REACTORS
330
95
102
}
330
95
100
AcDbXrecord
340
19
  0
XRECORD
  5
A1
102
{ACAD_REACTORS
330
95
102
}
330
95
100
AcDbXrecord
 40
0.0
  0
XRECORD
  5
A4
102
{ACAD_REACTORS
330
95
102
}
330
95
100
AcDbXrecord
340
0
  0
XRECORD
  5
AA
102
{ACAD_REACTORS
330
95
102
}
330
95
100
AcDbXrecord
 10
0.0
 20
0.0
 30
0.0
  0
XRECORD
  5
A6
102
{ACAD_REACTORS
330
95
102
}
330
95
100
AcDbXrecord
 10
0.0
 20
0.0
 30
0.0
  0
XRECORD
  5
A9
102
{ACAD_REACTORS
330
95
102
}
330
95
100
AcDbXrecord
 10
0.0
 20
0.0
 30
0.0
  0
XRECORD
  5
A7
102
{ACAD_REACTORS
330
95
102
}
330
95
100
AcDbXrecord
 10
0.0
 20
0.0
 30
0.0
  0
XRECORD
  5
A8
102
{ACAD_REACTORS
330
95
102
}
330
95
100
AcDbXrecord
 10
0.0
 20
0.0
 30
0.0
  0
XRECORD
  5
A5
102
{ACAD_REACTORS
330
95
102
}
330
95
100
AcDbXrecord
 10
0.0
 20
0.0
 30
0.0
  0
XRECORD
  5
A2
102
{ACAD_REACTORS
330
95
102
}
330
95
100
AcDbXrecord
340
0
  0
XRECORD
  5
A3
102
{ACAD_REACTORS
330
95
102
}
330
95
100
AcDbXrecord
 70
     0
  0
XRECORD
  5
99
102
{ACAD_REACTORS
330
95
102
}
330
95
100
AcDbXrecord
  1

  0
XRECORD
  5
96
102
{ACAD_REACTORS
330
95
102
}
330
95
100
AcDbXrecord
 90
        1
  0
XRECORD
  5
97
102
{ACAD_REACTORS
330
95
102
}
330
95
100
AcDbXrecord
 90
       70
  0
XRECORD
  5
AD
102
{ACAD_REACTORS
330
95
102
}
330
95
100
AcDbXrecord
340
0
  0
XRECORD
  5
B3
102
{ACAD_REACTORS
330
95
102
}
330
95
100
AcDbXrecord
 10
0.0
 20
0.0
 30
0.0
  0
XRECORD
  5
AF
102
{ACAD_REACTORS
330
95
102
}
330
95
100
AcDbXrecord
 10
0.0
 20
0.0
 30
0.0
  0
XRECORD
  5
B2
102
{ACAD_REACTORS
330
95
102
}
330
95
100
AcDbXrecord
 10
0.0
 20
0.0
 30
0.0
  0
XRECORD
  5
B0
102
{ACAD_REACTORS
330
95
102
}
330
95
100
AcDbXrecord
 10
0.0
 20
0.0
 30
0.0
  0
XRECORD
  5
B1
102
{ACAD_REACTORS
330
95
102
}
330
95
100
AcDbXrecord
 10
0.0
 20
0.0
 30
0.0
  0
XRECORD
  5
AE
102
{ACAD_REACTORS
330
95
102
}
330
95
100
AcDbXrecord
 10
0.0
 20
0.0
 30
0.0
  0
XRECORD
  5
AB
102
{ACAD_REACTORS
330
95
102
}
330
95
100
AcDbXrecord
340
0
  0
XRECORD
  5
AC
102
{ACAD_REACTORS
330
95
102
}
330
95
100
AcDbXrecord
 70
     0
  0
XRECORD
  5
A0
102
{ACAD_REACTORS
330
95
102
}
330
95
100
AcDbXrecord
  1
{FAEB1C32-E019-11D5-929B-00C0DF256EC4}
  0
DICTIONARYVAR
  5
B8
102
{ACAD_REACTORS
330
B5
102
}
330
B5
100
DictionaryVariables
280
     0
  1
2
  0
DICTIONARYVAR
  5
B9
102
{ACAD_REACTORS
330
B5
102
}
330
B5
100
DictionaryVariables
280
     0
  1
1
  0
DICTIONARY
  5
BC
330
3D
100
AcDbDictionary
280
     1
  3
ACAD_XREC_ROUNDTRIP
360
BD
  0
DICTIONARY
  5
BA
330
3C
100
AcDbDictionary
280
     1
  3
ACAD_XREC_ROUNDTRIP
360
BB
  0
DICTIONARY
  5
BE
330
3E
100
AcDbDictionary
280
     1
  3
ACAD_XREC_ROUNDTRIP
360
BF
  0
XRECORD
  5
BD
102
{ACAD_REACTORS
330
BC
102
}
330
BC
100
AcDbXrecord
102
MATERIAL
148
0.0
149
0.0
149
0.0
 93
        0
 94
      127
282
     0
 72
     1
 77
     1
171
     1
175
     1
179
     1
273
     0
  0
XRECORD
  5
BB
102
{ACAD_REACTORS
330
BA
102
}
330
BA
100
AcDbXrecord
102
MATERIAL
148
0.0
149
0.0
149
0.0
 93
        0
 94
      127
282
     0
 72
     1
 77
     1
171
     1
175
     1
179
     1
273
     0
  0
XRECORD
  5
BF
102
{ACAD_REACTORS
330
BE
102
}
330
BE
100
AcDbXrecord
102
MATERIAL
148
0.0
149
0.0
149
0.0
 93
        0
 94
      127
282
     0
 72
     1
 77
     1
171
     1
175
     1
179
     1
273
     0
  0
ENDSEC
  0
EOF
