  0
SECTION
  2
HEADER
  9
$ACADVER
  1
AC1014
  9
$ACADMAINTVER
 70
     9
  9
$DWGCODEPAGE
  3
ANSI_1250
  9
$INSBASE
 10
0.0
 20
0.0
 30
0.0
  9
$EXTMIN
 10
-34.1002
 20
-35.5288
 30
0.0
  9
$EXTMAX
 10
34.1004
 20
35.5292
 30
0.0
  9
$LIMMIN
 10
0.0
 20
0.0
  9
$LIMMAX
 10
12.0
 20
9.0
  9
$ORTHOMODE
 70
     0
  9
$REGENMODE
 70
     1
  9
$FILLMODE
 70
     1
  9
$QTEXTMODE
 70
     0
  9
$MIRRTEXT
 70
     1
  9
$DRAGMODE
 70
     2
  9
$LTSCALE
 40
1.0
  9
$OSMODE
 70
    37
  9
$ATTMODE
 70
     1
  9
$TEXTSIZE
 40
0.2
  9
$TRACEWID
 40
0.05
  9
$TEXTSTYLE
  7
STANDARD
  9
$CLAYER
  8
0
  9
$CELTYPE
  6
BYLAYER
  9
$CECOLOR
 62
   256
  9
$CELTSCALE
 40
1.0
  9
$DELOBJ
 70
     1
  9
$DISPSILH
 70
     0
  9
$DIMSCALE
 40
1.0
  9
$DIMASZ
 40
0.18
  9
$DIMEXO
 40
0.0625
  9
$DIMDLI
 40
0.38
  9
$DIMRND
 40
0.0
  9
$DIMDLE
 40
0.0
  9
$DIMEXE
 40
0.18
  9
$DIMTP
 40
0.0
  9
$DIMTM
 40
0.0
  9
$DIMTXT
 40
0.18
  9
$DIMCEN
 40
0.09
  9
$DIMTSZ
 40
0.0
  9
$DIMTOL
 70
     0
  9
$DIMLIM
 70
     0
  9
$DIMTIH
 70
     1
  9
$DIMTOH
 70
     1
  9
$DIMSE1
 70
     0
  9
$DIMSE2
 70
     0
  9
$DIMTAD
 70
     0
  9
$DIMZIN
 70
     0
  9
$DIMBLK
  1

  9
$DIMASO
 70
     1
  9
$DIMSHO
 70
     1
  9
$DIMPOST
  1

  9
$DIMAPOST
  1

  9
$DIMALT
 70
     0
  9
$DIMALTD
 70
     2
  9
$DIMALTF
 40
25.4
  9
$DIMLFAC
 40
1.0
  9
$DIMTOFL
 70
     0
  9
$DIMTVP
 40
0.0
  9
$DIMTIX
 70
     0
  9
$DIMSOXD
 70
     0
  9
$DIMSAH
 70
     0
  9
$DIMBLK1
  1

  9
$DIMBLK2
  1

  9
$DIMSTYLE
  2
STANDARD
  9
$DIMCLRD
 70
     0
  9
$DIMCLRE
 70
     0
  9
$DIMCLRT
 70
     0
  9
$DIMTFAC
 40
1.0
  9
$DIMGAP
 40
0.09
  9
$DIMJUST
 70
     0
  9
$DIMSD1
 70
     0
  9
$DIMSD2
 70
     0
  9
$DIMTOLJ
 70
     1
  9
$DIMTZIN
 70
     0
  9
$DIMALTZ
 70
     0
  9
$DIMALTTZ
 70
     0
  9
$DIMFIT
 70
     3
  9
$DIMUPT
 70
     0
  9
$DIMUNIT
 70
     2
  9
$DIMDEC
 70
     4
  9
$DIMTDEC
 70
     4
  9
$DIMALTU
 70
     2
  9
$DIMALTTD
 70
     2
  9
$DIMTXSTY
  7
STANDARD
  9
$DIMAUNIT
 70
     0
  9
$LUNITS
 70
     2
  9
$LUPREC
 70
     4
  9
$SKETCHINC
 40
0.1
  9
$FILLETRAD
 40
0.5
  9
$AUNITS
 70
     0
  9
$AUPREC
 70
     0
  9
$MENU
  1
.
  9
$ELEVATION
 40
0.0
  9
$PELEVATION
 40
0.0
  9
$THICKNESS
 40
0.0
  9
$LIMCHECK
 70
     0
  9
$CHAMFERA
 40
0.5
  9
$CHAMFERB
 40
0.5
  9
$CHAMFERC
 40
1.0
  9
$CHAMFERD
 40
0.0
  9
$SKPOLY
 70
     0
  9
$TDCREATE
 40
2456225.46178669
  9
$TDUPDATE
 40
2456225.461786701
  9
$TDINDWG
 40
0.0000000116
  9
$TDUSRTIMER
 40
0.0000000116
  9
$USRTIMER
 70
     1
  9
$ANGBASE
 50
0.0
  9
$ANGDIR
 70
     0
  9
$PDMODE
 70
     0
  9
$PDSIZE
 40
0.0
  9
$PLINEWID
 40
0.0
  9
$COORDS
 70
     1
  9
$SPLFRAME
 70
     0
  9
$SPLINETYPE
 70
     6
  9
$SPLINESEGS
 70
     8
  9
$ATTDIA
 70
     0
  9
$ATTREQ
 70
     1
  9
$HANDLING
 70
     1
  9
$HANDSEED
  5
CA
  9
$SURFTAB1
 70
     6
  9
$SURFTAB2
 70
     6
  9
$SURFTYPE
 70
     6
  9
$SURFU
 70
     6
  9
$SURFV
 70
     6
  9
$UCSNAME
  2

  9
$UCSORG
 10
0.0
 20
0.0
 30
0.0
  9
$UCSXDIR
 10
1.0
 20
0.0
 30
0.0
  9
$UCSYDIR
 10
0.0
 20
1.0
 30
0.0
  9
$PUCSNAME
  2

  9
$PUCSORG
 10
0.0
 20
0.0
 30
0.0
  9
$PUCSXDIR
 10
1.0
 20
0.0
 30
0.0
  9
$PUCSYDIR
 10
0.0
 20
1.0
 30
0.0
  9
$USERI1
 70
     0
  9
$USERI2
 70
     0
  9
$USERI3
 70
     0
  9
$USERI4
 70
     0
  9
$USERI5
 70
     0
  9
$USERR1
 40
0.0
  9
$USERR2
 40
0.0
  9
$USERR3
 40
0.0
  9
$USERR4
 40
0.0
  9
$USERR5
 40
0.0
  9
$WORLDVIEW
 70
     1
  9
$SHADEDGE
 70
     3
  9
$SHADEDIF
 70
    70
  9
$TILEMODE
 70
     1
  9
$MAXACTVP
 70
    64
  9
$PINSBASE
 10
0.0
 20
0.0
 30
0.0
  9
$PLIMCHECK
 70
     0
  9
$PEXTMIN
 10
1.000000000000000E+20
 20
1.000000000000000E+20
 30
1.000000000000000E+20
  9
$PEXTMAX
 10
-1.000000000000000E+20
 20
-1.000000000000000E+20
 30
-1.000000000000000E+20
  9
$PLIMMIN
 10
0.0
 20
0.0
  9
$PLIMMAX
 10
12.0
 20
9.0
  9
$UNITMODE
 70
     0
  9
$VISRETAIN
 70
     1
  9
$PLINEGEN
 70
     0
  9
$PSLTSCALE
 70
     1
  9
$TREEDEPTH
 70
  3020
  9
$PICKSTYLE
 70
     1
  9
$CMLSTYLE
  2
STANDARD
  9
$CMLJUST
 70
     0
  9
$CMLSCALE
 40
1.0
  9
$PROXYGRAPHICS
 70
     1
  9
$MEASUREMENT
 70
     0
  0
ENDSEC
  0
SECTION
  2
CLASSES
  0
CLASS
  1
ACDBDICTIONARYWDFLT
  2
AcDbDictionaryWithDefault
  3
ObjectDBX Classes
 90
        0
280
     0
281
     0
  0
CLASS
  1
VISUALSTYLE
  2
AcDbVisualStyle
  3
ObjectDBX Classes
 90
     4095
280
     0
281
     0
  0
CLASS
  1
MATERIAL
  2
AcDbMaterial
  3
ObjectDBX Classes
 90
     1153
280
     0
281
     0
  0
CLASS
  1
DICTIONARYVAR
  2
AcDbDictionaryVar
  3
ObjectDBX Classes
 90
        0
280
     0
281
     0
  0
CLASS
  1
XRECORD
  2
AcDbXrecord
  3
AutoCAD 2000
 90
        0
280
     0
281
     0
  0
CLASS
  1
LWPOLYLINE
  2
AcDbPolyline
  3
AutoCAD 2000
 90
        0
280
     0
281
     1
  0
CLASS
  1
HATCH
  2
AcDbHatch
  3
AutoCAD 2000
 90
        0
280
     0
281
     1
  0
CLASS
  1
ACDBPLACEHOLDER
  2
AcDbPlaceHolder
  3
ObjectDBX Classes
 90
        0
280
     0
281
     0
  0
CLASS
  1
LAYOUT
  2
AcDbLayout
  3
ObjectDBX Classes
 90
        0
280
     0
281
     0
  0
ENDSEC
  0
SECTION
  2
TABLES
  0
TABLE
  2
VPORT
  5
8
330
0
100
AcDbSymbolTable
 70
     1
  0
VPORT
  5
29
330
8
100
AcDbSymbolTableRecord
100
AcDbViewportTableRecord
  2
*ACTIVE
 70
     0
 10
0.0
 20
0.0
 11
1.0
 21
1.0
 12
10.42990654205607
 22
4.5
 13
0.0
 23
0.0
 14
0.5
 24
0.5
 15
0.5
 25
0.5
 16
0.0
 26
0.0
 36
1.0
 17
0.0
 27
0.0
 37
0.0
 40
9.0
 41
1.972972972850329
 42
50.0
 43
0.0
 44
0.0
 50
0.0
 51
0.0
 71
     0
 72
   100
 73
     1
 74
     3
 75
     0
 76
     0
 77
     0
 78
     0
  0
ENDTAB
  0
TABLE
  2
LTYPE
  5
5
330
0
100
AcDbSymbolTable
 70
     6
  0
LTYPE
  5
14
330
5
100
AcDbSymbolTableRecord
100
AcDbLinetypeTableRecord
  2
BYBLOCK
 70
     0
  3

 72
    65
 73
     0
 40
0.0
  0
LTYPE
  5
15
330
5
100
AcDbSymbolTableRecord
100
AcDbLinetypeTableRecord
  2
BYLAYER
 70
     0
  3

 72
    65
 73
     0
 40
0.0
  0
LTYPE
  5
16
330
5
100
AcDbSymbolTableRecord
100
AcDbLinetypeTableRecord
  2
CONTINUOUS
 70
     0
  3
Solid line
 72
    65
 73
     0
 40
0.0
  0
LTYPE
  5
82
330
5
100
AcDbSymbolTableRecord
100
AcDbLinetypeTableRecord
  2
NEW_LINE1
 70
     0
  3

 72
    65
 73
     4
 40
1.2
 49
0.5
 74
     4
 75
     0
340
0
 46
1.0
 50
0.0
 44
0.0
 45
0.0
 49
-0.3
 74
     4
 75
     0
340
0
 46
1.0
 50
0.0
 44
0.0
 45
0.0
 49
0.1
 74
     4
 75
     0
340
0
 46
1.0
 50
0.0
 44
0.0
 45
0.0
 49
-0.3
 74
     4
 75
     0
340
0
 46
1.0
 50
0.0
 44
0.0
 45
0.0
  0
LTYPE
  5
84
330
5
100
AcDbSymbolTableRecord
100
AcDbLinetypeTableRecord
  2
NEW_LINE2
 70
     0
  3

 72
    65
 73
     4
 40
1.2
 49
0.5
 74
     4
 75
     0
340
0
 46
1.0
 50
0.0
 44
0.0
 45
0.0
 49
-0.3
 74
     4
 75
     0
340
0
 46
1.0
 50
0.0
 44
0.0
 45
0.0
 49
0.1
 74
     4
 75
     0
340
0
 46
1.0
 50
0.0
 44
0.0
 45
0.0
 49
-0.3
 74
     4
 75
     0
340
0
 46
1.0
 50
0.0
 44
0.0
 45
0.0
  0
LTYPE
  5
86
330
5
100
AcDbSymbolTableRecord
100
AcDbLinetypeTableRecord
  2
NEW_LINE3
 70
     0
  3

 72
    65
 73
     4
 40
1.2
 49
0.5
 74
     4
 75
     0
340
0
 46
1.0
 50
0.0
 44
0.0
 45
0.0
 49
-0.3
 74
     4
 75
     0
340
0
 46
1.0
 50
0.0
 44
0.0
 45
0.0
 49
0.1
 74
     4
 75
     0
340
0
 46
1.0
 50
0.0
 44
0.0
 45
0.0
 49
-0.3
 74
     4
 75
     0
340
0
 46
1.0
 50
0.0
 44
0.0
 45
0.0
  0
LTYPE
  5
8C
330
5
100
AcDbSymbolTableRecord
100
AcDbLinetypeTableRecord
  2
NEW_LINE4
 70
     0
  3

 72
    65
 73
     4
 40
1.2
 49
0.5
 74
     4
 75
     0
340
0
 46
1.0
 50
0.0
 44
0.0
 45
0.0
 49
-0.3
 74
     4
 75
     0
340
0
 46
1.0
 50
0.0
 44
0.0
 45
0.0
 49
0.1
 74
     4
 75
     0
340
0
 46
1.0
 50
0.0
 44
0.0
 45
0.0
 49
-0.3
 74
     4
 75
     0
340
0
 46
1.0
 50
0.0
 44
0.0
 45
0.0
  0
LTYPE
  5
8E
330
5
100
AcDbSymbolTableRecord
100
AcDbLinetypeTableRecord
  2
NEW_LINE5
 70
     0
  3

 72
    65
 73
     4
 40
1.2
 49
0.5
 74
     4
 75
     0
340
0
 46
1.0
 50
0.0
 44
0.0
 45
0.0
 49
-0.3
 74
     4
 75
     0
340
0
 46
1.0
 50
0.0
 44
0.0
 45
0.0
 49
0.1
 74
     4
 75
     0
340
0
 46
1.0
 50
0.0
 44
0.0
 45
0.0
 49
-0.3
 74
     4
 75
     0
340
0
 46
1.0
 50
0.0
 44
0.0
 45
0.0
  0
ENDTAB
  0
TABLE
  2
LAYER
  5
2
330
0
100
AcDbSymbolTable
 70
     2
  0
LAYER
  5
10
330
2
100
AcDbSymbolTableRecord
100
AcDbLayerTableRecord
  2
0
 70
     0
 62
     7
  6
CONTINUOUS
  0
LAYER
  5
40
330
2
100
AcDbSymbolTableRecord
100
AcDbLayerTableRecord
  2
VRSTVA_1
 70
     0
 62
     7
  6
CONTINUOUS
  0
ENDTAB
  0
TABLE
  2
STYLE
  5
3
330
0
100
AcDbSymbolTable
 70
     1
  0
STYLE
  5
11
330
3
100
AcDbSymbolTableRecord
100
AcDbTextStyleTableRecord
  2
STANDARD
 70
     0
 40
0.0
 41
1.0
 50
0.0
 71
     0
 42
0.2
  3
txt
  4

  0
ENDTAB
  0
TABLE
  2
VIEW
  5
6
330
0
100
AcDbSymbolTable
 70
     0
  0
ENDTAB
  0
TABLE
  2
UCS
  5
7
330
0
100
AcDbSymbolTable
 70
     0
  0
ENDTAB
  0
TABLE
  2
APPID
  5
9
330
0
100
AcDbSymbolTable
 70
     2
  0
APPID
  5
12
330
9
100
AcDbSymbolTableRecord
100
AcDbRegAppTableRecord
  2
ACAD
 70
     0
  0
APPID
  5
3F
330
9
100
AcDbSymbolTableRecord
100
AcDbRegAppTableRecord
  2
ODA
 70
     0
  0
ENDTAB
  0
TABLE
  2
DIMSTYLE
  5
A
330
0
100
AcDbSymbolTable
 70
     1
  0
DIMSTYLE
105
27
330
A
100
AcDbSymbolTableRecord
100
AcDbDimStyleTableRecord
  2
STANDARD
 70
     0
  3

  4

  5

  6

  7

 40
1.0
 41
0.18
 42
0.0625
 43
0.38
 44
0.18
 45
0.0
 46
0.0
 47
0.0
 48
0.0
140
0.18
141
0.09
142
0.0
143
25.4
144
1.0
145
0.0
146
1.0
147
0.09
 71
     0
 72
     0
 73
     1
 74
     1
 75
     0
 76
     0
 77
     0
 78
     0
170
     0
171
     2
172
     0
173
     0
174
     0
175
     0
176
     0
177
     0
178
     0
270
     2
271
     4
272
     4
273
     2
274
     2
340
11
275
     0
280
     0
281
     0
282
     0
283
     1
284
     0
285
     0
286
     0
287
     3
288
     0
  0
ENDTAB
  0
TABLE
  2
BLOCK_RECORD
  5
1
330
0
100
AcDbSymbolTable
 70
     1
  0
BLOCK_RECORD
  5
1F
330
1
100
AcDbSymbolTableRecord
100
AcDbBlockTableRecord
  2
*MODEL_SPACE
  0
BLOCK_RECORD
  5
1B
330
1
100
AcDbSymbolTableRecord
100
AcDbBlockTableRecord
  2
*PAPER_SPACE
  0
ENDTAB
  0
ENDSEC
  0
SECTION
  2
BLOCKS
  0
BLOCK
  5
20
330
1F
100
AcDbEntity
  8
0
100
AcDbBlockBegin
  2
*MODEL_SPACE
 70
     0
 10
0.0
 20
0.0
 30
0.0
  3
*MODEL_SPACE
  1

  0
ENDBLK
  5
21
330
1F
100
AcDbEntity
  8
0
100
AcDbBlockEnd
  0
BLOCK
  5
1C
330
1B
100
AcDbEntity
 67
     1
  8
0
100
AcDbBlockBegin
  2
*PAPER_SPACE
 70
     0
 10
0.0
 20
0.0
 30
0.0
  3
*PAPER_SPACE
  1

  0
ENDBLK
  5
1D
330
1B
100
AcDbEntity
 67
     1
  8
0
100
AcDbBlockEnd
  0
ENDSEC
  0
SECTION
  2
ENTITIES
  0
SPLINE
  5
41
330
1F
100
AcDbEntity
  8
VRSTVA_1
 62
   250
100
AcDbSpline
210
0.0
220
0.0
230
1.0
 70
    11
 71
     3
 72
    40
 73
    36
 74
     0
 42
0.0000000001
 43
0.0000000001
 40
0.0
 40
0.0
 40
0.0
 40
0.0
 40
0.1
 40
0.1
 40
0.1
 40
0.1
 40
0.2
 40
0.2
 40
0.2
 40
0.2
 40
0.3
 40
0.3
 40
0.3
 40
0.3
 40
0.4
 40
0.4
 40
0.4
 40
0.4
 40
0.5
 40
0.5
 40
0.5
 40
0.5
 40
0.6
 40
0.6
 40
0.6
 40
0.6
 40
0.7
 40
0.7
 40
0.7
 40
0.7
 40
0.8
 40
0.8
 40
0.8
 40
0.8
 40
1.0
 40
1.0
 40
1.0
 40
1.0
 10
-6.3693
 20
33.5005
 30
0.0
 10
-6.3693
 20
33.5005
 30
0.0
 10
-6.6172
 20
33.5005
 30
0.0
 10
-6.6172
 20
33.5005
 30
0.0
 10
-6.6172
 20
33.5005
 30
0.0
 10
-6.6172
 20
33.5005
 30
0.0
 10
-6.6172
 20
35.0809
 30
0.0
 10
-6.6172
 20
35.0809
 30
0.0
 10
-6.6172
 20
35.0809
 30
0.0
 10
-6.677
 20
35.024
 30
0.0
 10
-6.755
 20
34.9671
 30
0.0
 10
-6.8519
 20
34.9102
 30
0.0
 10
-6.8519
 20
34.9102
 30
0.0
 10
-6.9493
 20
34.8533
 30
0.0
 10
-7.0363
 20
34.8105
 30
0.0
 10
-7.1135
 20
34.7822
 30
0.0
 10
-7.1135
 20
34.7822
 30
0.0
 10
-7.1135
 20
34.7822
 30
0.0
 10
-7.1135
 20
35.0217
 30
0.0
 10
-7.1135
 20
35.0217
 30
0.0
 10
-7.1135
 20
35.0217
 30
0.0
 10
-6.9747
 20
35.087
 30
0.0
 10
-6.8533
 20
35.1661
 30
0.0
 10
-6.7494
 20
35.2587
 30
0.0
 10
-6.7494
 20
35.2587
 30
0.0
 10
-6.6459
 20
35.3519
 30
0.0
 10
-6.5721
 20
35.4417
 30
0.0
 10
-6.5288
 20
35.5292
 30
0.0
 10
-6.5288
 20
35.5292
 30
0.0
 10
-6.5288
 20
35.5292
 30
0.0
 10
-6.3693
 20
35.5292
 30
0.0
 10
-6.3693
 20
35.5292
 30
0.0
 10
-6.3693
 20
35.5292
 30
0.0
 10
-6.3693
 20
35.5292
 30
0.0
 10
-6.3693
 20
33.5005
 30
0.0
 10
-6.3693
 20
33.5005
 30
0.0
  0
SPLINE
  5
42
330
1F
100
AcDbEntity
  8
VRSTVA_1
 62
   250
100
AcDbSpline
210
0.0
220
0.0
230
1.0
 70
    11
 71
     3
 72
    48
 73
    44
 74
     0
 42
0.0000000001
 43
0.0000000001
 40
0.0
 40
0.0
 40
0.0
 40
0.0
 40
0.0833333333333333
 40
0.0833333333333333
 40
0.0833333333333333
 40
0.0833333333333333
 40
0.1666666666666667
 40
0.1666666666666667
 40
0.1666666666666667
 40
0.1666666666666667
 40
0.25
 40
0.25
 40
0.25
 40
0.25
 40
0.3333333333333333
 40
0.3333333333333333
 40
0.3333333333333333
 40
0.3333333333333333
 40
0.4166666666666667
 40
0.4166666666666667
 40
0.4166666666666667
 40
0.4166666666666667
 40
0.5
 40
0.5
 40
0.5
 40
0.5
 40
0.5833333333333334
 40
0.5833333333333334
 40
0.5833333333333334
 40
0.5833333333333334
 40
0.6666666666666666
 40
0.6666666666666666
 40
0.6666666666666666
 40
0.6666666666666666
 40
0.75
 40
0.75
 40
0.75
 40
0.75
 40
0.8333333333333334
 40
0.8333333333333334
 40
0.8333333333333334
 40
0.8333333333333334
 40
1.0
 40
1.0
 40
1.0
 40
1.0
 10
-4.939
 20
33.5005
 30
0.0
 10
-4.939
 20
33.5005
 30
0.0
 10
-4.939
 20
33.984
 30
0.0
 10
-4.939
 20
33.984
 30
0.0
 10
-4.939
 20
33.984
 30
0.0
 10
-4.939
 20
33.984
 30
0.0
 10
-5.8153
 20
33.984
 30
0.0
 10
-5.8153
 20
33.984
 30
0.0
 10
-5.8153
 20
33.984
 30
0.0
 10
-5.8153
 20
33.984
 30
0.0
 10
-5.8153
 20
34.2117
 30
0.0
 10
-5.8153
 20
34.2117
 30
0.0
 10
-5.8153
 20
34.2117
 30
0.0
 10
-5.8153
 20
34.2117
 30
0.0
 10
-4.8933
 20
35.5207
 30
0.0
 10
-4.8933
 20
35.5207
 30
0.0
 10
-4.8933
 20
35.5207
 30
0.0
 10
-4.8933
 20
35.5207
 30
0.0
 10
-4.6906
 20
35.5207
 30
0.0
 10
-4.6906
 20
35.5207
 30
0.0
 10
-4.6906
 20
35.5207
 30
0.0
 10
-4.6906
 20
35.5207
 30
0.0
 10
-4.6906
 20
34.2117
 30
0.0
 10
-4.6906
 20
34.2117
 30
0.0
 10
-4.6906
 20
34.2117
 30
0.0
 10
-4.6906
 20
34.2117
 30
0.0
 10
-4.4178
 20
34.2117
 30
0.0
 10
-4.4178
 20
34.2117
 30
0.0
 10
-4.4178
 20
34.2117
 30
0.0
 10
-4.4178
 20
34.2117
 30
0.0
 10
-4.4178
 20
33.984
 30
0.0
 10
-4.4178
 20
33.984
 30
0.0
 10
-4.4178
 20
33.984
 30
0.0
 10
-4.4178
 20
33.984
 30
0.0
 10
-4.6906
 20
33.984
 30
0.0
 10
-4.6906
 20
33.984
 30
0.0
 10
-4.6906
 20
33.984
 30
0.0
 10
-4.6906
 20
33.984
 30
0.0
 10
-4.6906
 20
33.5005
 30
0.0
 10
-4.6906
 20
33.5005
 30
0.0
 10
-4.6906
 20
33.5005
 30
0.0
 10
-4.6906
 20
33.5005
 30
0.0
 10
-4.939
 20
33.5005
 30
0.0
 10
-4.939
 20
33.5005
 30
0.0
  0
SPLINE
  5
43
330
1F
100
AcDbEntity
  8
VRSTVA_1
 62
   250
100
AcDbSpline
210
0.0
220
0.0
230
1.0
 70
    11
 71
     3
 72
    16
 73
    12
 74
     0
 42
0.0000000001
 43
0.0000000001
 40
0.0
 40
0.0
 40
0.0
 40
0.0
 40
0.25
 40
0.25
 40
0.25
 40
0.25
 40
0.5
 40
0.5
 40
0.5
 40
0.5
 40
1.0
 40
1.0
 40
1.0
 40
1.0
 10
-4.939
 20
34.2117
 30
0.0
 10
-4.939
 20
34.2117
 30
0.0
 10
-4.939
 20
35.1223
 30
0.0
 10
-4.939
 20
35.1223
 30
0.0
 10
-4.939
 20
35.1223
 30
0.0
 10
-4.939
 20
35.1223
 30
0.0
 10
-5.5711
 20
34.2117
 30
0.0
 10
-5.5711
 20
34.2117
 30
0.0
 10
-5.5711
 20
34.2117
 30
0.0
 10
-5.5711
 20
34.2117
 30
0.0
 10
-4.939
 20
34.2117
 30
0.0
 10
-4.939
 20
34.2117
 30
0.0
  0
SPLINE
  5
44
330
1F
100
AcDbEntity
  8
VRSTVA_1
 62
   250
100
AcDbSpline
210
0.0
220
0.0
230
1.0
 70
    11
 71
     3
 72
    80
 73
    76
 74
     0
 42
0.0000000001
 43
0.0000000001
 40
0.0
 40
0.0
 40
0.0
 40
0.0
 40
0.05
 40
0.05
 40
0.05
 40
0.05
 40
0.1
 40
0.1
 40
0.1
 40
0.1
 40
0.15
 40
0.15
 40
0.15
 40
0.15
 40
0.2
 40
0.2
 40
0.2
 40
0.2
 40
0.25
 40
0.25
 40
0.25
 40
0.25
 40
0.3
 40
0.3
 40
0.3
 40
0.3
 40
0.35
 40
0.35
 40
0.35
 40
0.35
 40
0.4
 40
0.4
 40
0.4
 40
0.4
 40
0.45
 40
0.45
 40
0.45
 40
0.45
 40
0.5
 40
0.5
 40
0.5
 40
0.5
 40
0.55
 40
0.55
 40
0.55
 40
0.55
 40
0.6
 40
0.6
 40
0.6
 40
0.6
 40
0.65
 40
0.65
 40
0.65
 40
0.65
 40
0.7
 40
0.7
 40
0.7
 40
0.7
 40
0.75
 40
0.75
 40
0.75
 40
0.75
 40
0.8
 40
0.8
 40
0.8
 40
0.8
 40
0.85
 40
0.85
 40
0.85
 40
0.85
 40
0.9
 40
0.9
 40
0.9
 40
0.9
 40
1.0
 40
1.0
 40
1.0
 40
1.0
 10
-2.8774
 20
35.0259
 30
0.0
 10
-2.8774
 20
35.0259
 30
0.0
 10
-3.1238
 20
35.0066
 30
0.0
 10
-3.1238
 20
35.0066
 30
0.0
 10
-3.1238
 20
35.0066
 30
0.0
 10
-3.1459
 20
35.104
 30
0.0
 10
-3.177
 20
35.175
 30
0.0
 10
-3.2174
 20
35.2187
 30
0.0
 10
-3.2174
 20
35.2187
 30
0.0
 10
-3.2847
 20
35.2898
 30
0.0
 10
-3.3675
 20
35.3251
 30
0.0
 10
-3.4658
 20
35.3251
 30
0.0
 10
-3.4658
 20
35.3251
 30
0.0
 10
-3.5448
 20
35.3251
 30
0.0
 10
-3.6139
 20
35.3029
 30
0.0
 10
-3.6737
 20
35.2587
 30
0.0
 10
-3.6737
 20
35.2587
 30
0.0
 10
-3.7518
 20
35.2018
 30
0.0
 10
-3.8134
 20
35.1186
 30
0.0
 10
-3.8585
 20
35.0094
 30
0.0
 10
-3.8585
 20
35.0094
 30
0.0
 10
-3.9032
 20
34.9003
 30
0.0
 10
-3.9267
 20
34.7446
 30
0.0
 10
-3.9286
 20
34.5424
 30
0.0
 10
-3.9286
 20
34.5424
 30
0.0
 10
-3.8689
 20
34.6331
 30
0.0
 10
-3.796
 20
34.7009
 30
0.0
 10
-3.7094
 20
34.7451
 30
0.0
 10
-3.7094
 20
34.7451
 30
0.0
 10
-3.6234
 20
34.7888
 30
0.0
 10
-3.5326
 20
34.8109
 30
0.0
 10
-3.438
 20
34.8109
 30
0.0
 10
-3.438
 20
34.8109
 30
0.0
 10
-3.2725
 20
34.8109
 30
0.0
 10
-3.1318
 20
34.7503
 30
0.0
 10
-3.0156
 20
34.6284
 30
0.0
 10
-3.0156
 20
34.6284
 30
0.0
 10
-2.8995
 20
34.5066
 30
0.0
 10
-2.8411
 20
34.3495
 30
0.0
 10
-2.8411
 20
34.1567
 30
0.0
 10
-2.8411
 20
34.1567
 30
0.0
 10
-2.8411
 20
34.0297
 30
0.0
 10
-2.8689
 20
33.9121
 30
0.0
 10
-2.9235
 20
33.8029
 30
0.0
 10
-2.9235
 20
33.8029
 30
0.0
 10
-2.978
 20
33.6943
 30
0.0
 10
-3.0533
 20
33.6106
 30
0.0
 10
-3.1488
 20
33.5527
 30
0.0
 10
-3.1488
 20
33.5527
 30
0.0
 10
-3.2442
 20
33.4949
 30
0.0
 10
-3.3524
 20
33.4662
 30
0.0
 10
-3.4738
 20
33.4662
 30
0.0
 10
-3.4738
 20
33.4662
 30
0.0
 10
-3.6807
 20
33.4662
 30
0.0
 10
-3.8491
 20
33.5419
 30
0.0
 10
-3.9794
 20
33.6943
 30
0.0
 10
-3.9794
 20
33.6943
 30
0.0
 10
-4.1102
 20
33.8462
 30
0.0
 10
-4.1751
 20
34.0969
 30
0.0
 10
-4.1751
 20
34.4459
 30
0.0
 10
-4.1751
 20
34.4459
 30
0.0
 10
-4.1751
 20
34.8363
 30
0.0
 10
-4.1031
 20
35.12
 30
0.0
 10
-3.9587
 20
35.2973
 30
0.0
 10
-3.9587
 20
35.2973
 30
0.0
 10
-3.8331
 20
35.4516
 30
0.0
 10
-3.6638
 20
35.5292
 30
0.0
 10
-3.4503
 20
35.5292
 30
0.0
 10
-3.4503
 20
35.5292
 30
0.0
 10
-3.2917
 20
35.5292
 30
0.0
 10
-3.1615
 20
35.4845
 30
0.0
 10
-3.0599
 20
35.3951
 30
0.0
 10
-3.0599
 20
35.3951
 30
0.0
 10
-2.9583
 20
35.3062
 30
0.0
 10
-2.8976
 20
35.183
 30
0.0
 10
-2.8774
 20
35.0259
 30
0.0
  0
SPLINE
  5
45
330
1F
100
AcDbEntity
  8
VRSTVA_1
 62
   250
100
AcDbSpline
210
0.0
220
0.0
230
1.0
 70
    11
 71
     3
 72
    40
 73
    36
 74
     0
 42
0.0000000001
 43
0.0000000001
 40
0.0
 40
0.0
 40
0.0
 40
0.0
 40
0.1
 40
0.1
 40
0.1
 40
0.1
 40
0.2
 40
0.2
 40
0.2
 40
0.2
 40
0.3
 40
0.3
 40
0.3
 40
0.3
 40
0.4
 40
0.4
 40
0.4
 40
0.4
 40
0.5
 40
0.5
 40
0.5
 40
0.5
 40
0.6
 40
0.6
 40
0.6
 40
0.6
 40
0.7
 40
0.7
 40
0.7
 40
0.7
 40
0.8
 40
0.8
 40
0.8
 40
0.8
 40
1.0
 40
1.0
 40
1.0
 40
1.0
 10
-3.8901
 20
34.1553
 30
0.0
 10
-3.8901
 20
34.0696
 30
0.0
 10
-3.8717
 20
33.9878
 30
0.0
 10
-3.8355
 20
33.9097
 30
0.0
 10
-3.8355
 20
33.9097
 30
0.0
 10
-3.7993
 20
33.8316
 30
0.0
 10
-3.7485
 20
33.7724
 30
0.0
 10
-3.6836
 20
33.7315
 30
0.0
 10
-3.6836
 20
33.7315
 30
0.0
 10
-3.6182
 20
33.6905
 30
0.0
 10
-3.5495
 20
33.6698
 30
0.0
 10
-3.478
 20
33.6698
 30
0.0
 10
-3.478
 20
33.6698
 30
0.0
 10
-3.3731
 20
33.6698
 30
0.0
 10
-3.2833
 20
33.7122
 30
0.0
 10
-3.208
 20
33.7968
 30
0.0
 10
-3.208
 20
33.7968
 30
0.0
 10
-3.1328
 20
33.8815
 30
0.0
 10
-3.0951
 20
33.9963
 30
0.0
 10
-3.0951
 20
34.1411
 30
0.0
 10
-3.0951
 20
34.1411
 30
0.0
 10
-3.0951
 20
34.2808
 30
0.0
 10
-3.1323
 20
34.3909
 30
0.0
 10
-3.2066
 20
34.4713
 30
0.0
 10
-3.2066
 20
34.4713
 30
0.0
 10
-3.2809
 20
34.5518
 30
0.0
 10
-3.3745
 20
34.5918
 30
0.0
 10
-3.4874
 20
34.5918
 30
0.0
 10
-3.4874
 20
34.5918
 30
0.0
 10
-3.5998
 20
34.5918
 30
0.0
 10
-3.6949
 20
34.5518
 30
0.0
 10
-3.7729
 20
34.4713
 30
0.0
 10
-3.7729
 20
34.4713
 30
0.0
 10
-3.851
 20
34.3909
 30
0.0
 10
-3.8901
 20
34.2855
 30
0.0
 10
-3.8901
 20
34.1553
 30
0.0
  0
SPLINE
  5
46
330
1F
100
AcDbEntity
  8
VRSTVA_1
 62
   250
100
AcDbSpline
210
0.0
220
0.0
230
1.0
 70
    11
 71
     3
 72
    52
 73
    48
 74
     0
 42
0.0000000001
 43
0.0000000001
 40
0.0
 40
0.0
 40
0.0
 40
0.0
 40
0.0769230769230769
 40
0.0769230769230769
 40
0.0769230769230769
 40
0.0769230769230769
 40
0.1538461538461539
 40
0.1538461538461539
 40
0.1538461538461539
 40
0.1538461538461539
 40
0.2307692307692308
 40
0.2307692307692308
 40
0.2307692307692308
 40
0.2307692307692308
 40
0.3076923076923077
 40
0.3076923076923077
 40
0.3076923076923077
 40
0.3076923076923077
 40
0.3846153846153846
 40
0.3846153846153846
 40
0.3846153846153846
 40
0.3846153846153846
 40
0.4615384615384616
 40
0.4615384615384616
 40
0.4615384615384616
 40
0.4615384615384616
 40
0.5384615384615384
 40
0.5384615384615384
 40
0.5384615384615384
 40
0.5384615384615384
 40
0.6153846153846154
 40
0.6153846153846154
 40
0.6153846153846154
 40
0.6153846153846154
 40
0.6923076923076923
 40
0.6923076923076923
 40
0.6923076923076923
 40
0.6923076923076923
 40
0.7692307692307693
 40
0.7692307692307693
 40
0.7692307692307693
 40
0.7692307692307693
 40
0.8461538461538461
 40
0.8461538461538461
 40
0.8461538461538461
 40
0.8461538461538461
 40
1.0
 40
1.0
 40
1.0
 40
1.0
 10
-1.2706
 20
33.8589
 30
0.0
 10
-1.2706
 20
33.8589
 30
0.0
 10
-1.2706
 20
34.414
 30
0.0
 10
-1.2706
 20
34.414
 30
0.0
 10
-1.2706
 20
34.414
 30
0.0
 10
-1.2706
 20
34.414
 30
0.0
 10
-1.82
 20
34.414
 30
0.0
 10
-1.82
 20
34.414
 30
0.0
 10
-1.82
 20
34.414
 30
0.0
 10
-1.82
 20
34.414
 30
0.0
 10
-1.82
 20
34.6444
 30
0.0
 10
-1.82
 20
34.6444
 30
0.0
 10
-1.82
 20
34.6444
 30
0.0
 10
-1.82
 20
34.6444
 30
0.0
 10
-1.2706
 20
34.6444
 30
0.0
 10
-1.2706
 20
34.6444
 30
0.0
 10
-1.2706
 20
34.6444
 30
0.0
 10
-1.2706
 20
34.6444
 30
0.0
 10
-1.2706
 20
35.1943
 30
0.0
 10
-1.2706
 20
35.1943
 30
0.0
 10
-1.2706
 20
35.1943
 30
0.0
 10
-1.2706
 20
35.1943
 30
0.0
 10
-1.0359
 20
35.1943
 30
0.0
 10
-1.0359
 20
35.1943
 30
0.0
 10
-1.0359
 20
35.1943
 30
0.0
 10
-1.0359
 20
35.1943
 30
0.0
 10
-1.0359
 20
34.6444
 30
0.0
 10
-1.0359
 20
34.6444
 30
0.0
 10
-1.0359
 20
34.6444
 30
0.0
 10
-1.0359
 20
34.6444
 30
0.0
 10
-0.4865
 20
34.6444
 30
0.0
 10
-0.4865
 20
34.6444
 30
0.0
 10
-0.4865
 20
34.6444
 30
0.0
 10
-0.4865
 20
34.6444
 30
0.0
 10
-0.4865
 20
34.414
 30
0.0
 10
-0.4865
 20
34.414
 30
0.0
 10
-0.4865
 20
34.414
 30
0.0
 10
-0.4865
 20
34.414
 30
0.0
 10
-1.0359
 20
34.414
 30
0.0
 10
-1.0359
 20
34.414
 30
0.0
 10
-1.0359
 20
34.414
 30
0.0
 10
-1.0359
 20
34.414
 30
0.0
 10
-1.0359
 20
33.8589
 30
0.0
 10
-1.0359
 20
33.8589
 30
0.0
 10
-1.0359
 20
33.8589
 30
0.0
 10
-1.0359
 20
33.8589
 30
0.0
 10
-1.2706
 20
33.8589
 30
0.0
 10
-1.2706
 20
33.8589
 30
0.0
  0
SPLINE
  5
47
330
1F
100
AcDbEntity
  8
VRSTVA_1
 62
   250
100
AcDbSpline
210
0.0
220
0.0
230
1.0
 70
    11
 71
     3
 72
    20
 73
    16
 74
     0
 42
0.0000000001
 43
0.0000000001
 40
0.0
 40
0.0
 40
0.0
 40
0.0
 40
0.2
 40
0.2
 40
0.2
 40
0.2
 40
0.4
 40
0.4
 40
0.4
 40
0.4
 40
0.6
 40
0.6
 40
0.6
 40
0.6
 40
1.0
 40
1.0
 40
1.0
 40
1.0
 10
-0.4865
 20
33.5005
 30
0.0
 10
-0.4865
 20
33.5005
 30
0.0
 10
-1.82
 20
33.5005
 30
0.0
 10
-1.82
 20
33.5005
 30
0.0
 10
-1.82
 20
33.5005
 30
0.0
 10
-1.82
 20
33.5005
 30
0.0
 10
-1.82
 20
33.7319
 30
0.0
 10
-1.82
 20
33.7319
 30
0.0
 10
-1.82
 20
33.7319
 30
0.0
 10
-1.82
 20
33.7319
 30
0.0
 10
-0.4865
 20
33.7319
 30
0.0
 10
-0.4865
 20
33.7319
 30
0.0
 10
-0.4865
 20
33.7319
 30
0.0
 10
-0.4865
 20
33.7319
 30
0.0
 10
-0.4865
 20
33.5005
 30
0.0
 10
-0.4865
 20
33.5005
 30
0.0
  0
SPLINE
  5
48
330
1F
100
AcDbEntity
  8
VRSTVA_1
 62
   250
100
AcDbSpline
210
0.0
220
0.0
230
1.0
 70
    11
 71
     3
 72
    92
 73
    88
 74
     0
 42
0.0000000001
 43
0.0000000001
 40
0.0
 40
0.0
 40
0.0
 40
0.0
 40
0.0434782608695652
 40
0.0434782608695652
 40
0.0434782608695652
 40
0.0434782608695652
 40
0.0869565217391304
 40
0.0869565217391304
 40
0.0869565217391304
 40
0.0869565217391304
 40
0.1304347826086956
 40
0.1304347826086956
 40
0.1304347826086956
 40
0.1304347826086956
 40
0.1739130434782609
 40
0.1739130434782609
 40
0.1739130434782609
 40
0.1739130434782609
 40
0.2173913043478261
 40
0.2173913043478261
 40
0.2173913043478261
 40
0.2173913043478261
 40
0.2608695652173913
 40
0.2608695652173913
 40
0.2608695652173913
 40
0.2608695652173913
 40
0.3043478260869565
 40
0.3043478260869565
 40
0.3043478260869565
 40
0.3043478260869565
 40
0.3478260869565217
 40
0.3478260869565217
 40
0.3478260869565217
 40
0.3478260869565217
 40
0.391304347826087
 40
0.391304347826087
 40
0.391304347826087
 40
0.391304347826087
 40
0.4347826086956522
 40
0.4347826086956522
 40
0.4347826086956522
 40
0.4347826086956522
 40
0.4782608695652174
 40
0.4782608695652174
 40
0.4782608695652174
 40
0.4782608695652174
 40
0.5217391304347826
 40
0.5217391304347826
 40
0.5217391304347826
 40
0.5217391304347826
 40
0.5652173913043478
 40
0.5652173913043478
 40
0.5652173913043478
 40
0.5652173913043478
 40
0.6086956521739131
 40
0.6086956521739131
 40
0.6086956521739131
 40
0.6086956521739131
 40
0.6521739130434783
 40
0.6521739130434783
 40
0.6521739130434783
 40
0.6521739130434783
 40
0.6956521739130435
 40
0.6956521739130435
 40
0.6956521739130435
 40
0.6956521739130435
 40
0.7391304347826086
 40
0.7391304347826086
 40
0.7391304347826086
 40
0.7391304347826086
 40
0.782608695652174
 40
0.782608695652174
 40
0.782608695652174
 40
0.782608695652174
 40
0.8260869565217391
 40
0.8260869565217391
 40
0.8260869565217391
 40
0.8260869565217391
 40
0.8695652173913043
 40
0.8695652173913043
 40
0.8695652173913043
 40
0.8695652173913043
 40
0.9130434782608695
 40
0.9130434782608695
 40
0.9130434782608695
 40
0.9130434782608695
 40
1.0
 40
1.0
 40
1.0
 40
1.0
 10
1.0422
 20
33.739
 30
0.0
 10
1.0422
 20
33.739
 30
0.0
 10
1.0422
 20
33.5005
 30
0.0
 10
1.0422
 20
33.5005
 30
0.0
 10
1.0422
 20
33.5005
 30
0.0
 10
1.0422
 20
33.5005
 30
0.0
 10
-0.2932
 20
33.5005
 30
0.0
 10
-0.2932
 20
33.5005
 30
0.0
 10
-0.2932
 20
33.5005
 30
0.0
 10
-0.2951
 20
33.5602
 30
0.0
 10
-0.2857
 20
33.6176
 30
0.0
 10
-0.2645
 20
33.6727
 30
0.0
 10
-0.2645
 20
33.6727
 30
0.0
 10
-0.2306
 20
33.7639
 30
0.0
 10
-0.1761
 20
33.8533
 30
0.0
 10
-0.1013
 20
33.9417
 30
0.0
 10
-0.1013
 20
33.9417
 30
0.0
 10
-0.026
 20
34.0297
 30
0.0
 10
0.0822
 20
34.1317
 30
0.0
 10
0.2233
 20
34.2474
 30
0.0
 10
0.2233
 20
34.2474
 30
0.0
 10
0.4429
 20
34.4276
 30
0.0
 10
0.5916
 20
34.5701
 30
0.0
 10
0.6687
 20
34.6755
 30
0.0
 10
0.6687
 20
34.6755
 30
0.0
 10
0.7458
 20
34.7804
 30
0.0
 10
0.7844
 20
34.8801
 30
0.0
 10
0.7844
 20
34.9737
 30
0.0
 10
0.7844
 20
34.9737
 30
0.0
 10
0.7844
 20
35.072
 30
0.0
 10
0.7491
 20
35.1548
 30
0.0
 10
0.6791
 20
35.2225
 30
0.0
 10
0.6791
 20
35.2225
 30
0.0
 10
0.6085
 20
35.2898
 30
0.0
 10
0.5168
 20
35.3236
 30
0.0
 10
0.4039
 20
35.3236
 30
0.0
 10
0.4039
 20
35.3236
 30
0.0
 10
0.2844
 20
35.3236
 30
0.0
 10
0.1889
 20
35.2879
 30
0.0
 10
0.1174
 20
35.2159
 30
0.0
 10
0.1174
 20
35.2159
 30
0.0
 10
0.0455
 20
35.1444
 30
0.0
 10
0.0093
 20
35.0452
 30
0.0
 10
0.0083
 20
34.9187
 30
0.0
 10
0.0083
 20
34.9187
 30
0.0
 10
0.0083
 20
34.9187
 30
0.0
 10
-0.2466
 20
34.9445
 30
0.0
 10
-0.2466
 20
34.9445
 30
0.0
 10
-0.2466
 20
34.9445
 30
0.0
 10
-0.2292
 20
35.135
 30
0.0
 10
-0.1634
 20
35.2799
 30
0.0
 10
-0.0495
 20
35.3796
 30
0.0
 10
-0.0495
 20
35.3796
 30
0.0
 10
0.0643
 20
35.4793
 30
0.0
 10
0.2176
 20
35.5292
 30
0.0
 10
0.4095
 20
35.5292
 30
0.0
 10
0.4095
 20
35.5292
 30
0.0
 10
0.6033
 20
35.5292
 30
0.0
 10
0.7567
 20
35.4751
 30
0.0
 10
0.8696
 20
35.3679
 30
0.0
 10
0.8696
 20
35.3679
 30
0.0
 10
0.9829
 20
35.2601
 30
0.0
 10
1.0394
 20
35.127
 30
0.0
 10
1.0394
 20
34.968
 30
0.0
 10
1.0394
 20
34.968
 30
0.0
 10
1.0394
 20
34.8871
 30
0.0
 10
1.0229
 20
34.8076
 30
0.0
 10
0.9895
 20
34.7296
 30
0.0
 10
0.9895
 20
34.7296
 30
0.0
 10
0.9566
 20
34.6515
 30
0.0
 10
0.9015
 20
34.5692
 30
0.0
 10
0.8249
 20
34.4831
 30
0.0
 10
0.8249
 20
34.4831
 30
0.0
 10
0.7482
 20
34.3965
 30
0.0
 10
0.6207
 20
34.278
 30
0.0
 10
0.4425
 20
34.1275
 30
0.0
 10
0.4425
 20
34.1275
 30
0.0
 10
0.2938
 20
34.0024
 30
0.0
 10
0.1983
 20
33.9177
 30
0.0
 10
0.156
 20
33.873
 30
0.0
 10
0.156
 20
33.873
 30
0.0
 10
0.1137
 20
33.8288
 30
0.0
 10
0.0789
 20
33.7841
 30
0.0
 10
0.0511
 20
33.739
 30
0.0
 10
0.0511
 20
33.739
 30
0.0
 10
0.0511
 20
33.739
 30
0.0
 10
1.0422
 20
33.739
 30
0.0
 10
1.0422
 20
33.739
 30
0.0
  0
SPLINE
  5
49
330
1F
100
AcDbEntity
  8
VRSTVA_1
 62
   250
100
AcDbSpline
210
0.0
220
0.0
230
1.0
 70
    11
 71
     3
 72
    52
 73
    48
 74
     0
 42
0.0000000001
 43
0.0000000001
 40
0.0
 40
0.0
 40
0.0
 40
0.0
 40
0.0769230769230769
 40
0.0769230769230769
 40
0.0769230769230769
 40
0.0769230769230769
 40
0.1538461538461539
 40
0.1538461538461539
 40
0.1538461538461539
 40
0.1538461538461539
 40
0.2307692307692308
 40
0.2307692307692308
 40
0.2307692307692308
 40
0.2307692307692308
 40
0.3076923076923077
 40
0.3076923076923077
 40
0.3076923076923077
 40
0.3076923076923077
 40
0.3846153846153846
 40
0.3846153846153846
 40
0.3846153846153846
 40
0.3846153846153846
 40
0.4615384615384616
 40
0.4615384615384616
 40
0.4615384615384616
 40
0.4615384615384616
 40
0.5384615384615384
 40
0.5384615384615384
 40
0.5384615384615384
 40
0.5384615384615384
 40
0.6153846153846154
 40
0.6153846153846154
 40
0.6153846153846154
 40
0.6153846153846154
 40
0.6923076923076923
 40
0.6923076923076923
 40
0.6923076923076923
 40
0.6923076923076923
 40
0.7692307692307693
 40
0.7692307692307693
 40
0.7692307692307693
 40
0.7692307692307693
 40
0.8461538461538461
 40
0.8461538461538461
 40
0.8461538461538461
 40
0.8461538461538461
 40
1.0
 40
1.0
 40
1.0
 40
1.0
 10
1.3079
 20
34.4967
 30
0.0
 10
1.3079
 20
34.7357
 30
0.0
 10
1.3324
 20
34.9281
 30
0.0
 10
1.3818
 20
35.0734
 30
0.0
 10
1.3818
 20
35.0734
 30
0.0
 10
1.4307
 20
35.2192
 30
0.0
 10
1.5041
 20
35.3316
 30
0.0
 10
1.601
 20
35.4107
 30
0.0
 10
1.601
 20
35.4107
 30
0.0
 10
1.6979
 20
35.4897
 30
0.0
 10
1.8197
 20
35.5292
 30
0.0
 10
1.9664
 20
35.5292
 30
0.0
 10
1.9664
 20
35.5292
 30
0.0
 10
2.0751
 20
35.5292
 30
0.0
 10
2.1701
 20
35.5071
 30
0.0
 10
2.2519
 20
35.4633
 30
0.0
 10
2.2519
 20
35.4633
 30
0.0
 10
2.3338
 20
35.4201
 30
0.0
 10
2.4011
 20
35.357
 30
0.0
 10
2.4547
 20
35.2747
 30
0.0
 10
2.4547
 20
35.2747
 30
0.0
 10
2.5078
 20
35.1924
 30
0.0
 10
2.5497
 20
35.0922
 30
0.0
 10
2.5798
 20
34.9742
 30
0.0
 10
2.5798
 20
34.9742
 30
0.0
 10
2.6104
 20
34.8561
 30
0.0
 10
2.6254
 20
34.6971
 30
0.0
 10
2.6254
 20
34.4967
 30
0.0
 10
2.6254
 20
34.4967
 30
0.0
 10
2.6254
 20
34.2597
 30
0.0
 10
2.601
 20
34.0687
 30
0.0
 10
2.5525
 20
33.9229
 30
0.0
 10
2.5525
 20
33.9229
 30
0.0
 10
2.5036
 20
33.7771
 30
0.0
 10
2.4307
 20
33.6647
 30
0.0
 10
2.3338
 20
33.5852
 30
0.0
 10
2.3338
 20
33.5852
 30
0.0
 10
2.2369
 20
33.5057
 30
0.0
 10
2.1146
 20
33.4662
 30
0.0
 10
1.9664
 20
33.4662
 30
0.0
 10
1.9664
 20
33.4662
 30
0.0
 10
1.7717
 20
33.4662
 30
0.0
 10
1.6188
 20
33.5358
 30
0.0
 10
1.5078
 20
33.6755
 30
0.0
 10
1.5078
 20
33.6755
 30
0.0
 10
1.3747
 20
33.8434
 30
0.0
 10
1.3079
 20
34.1176
 30
0.0
 10
1.3079
 20
34.4967
 30
0.0
  0
SPLINE
  5
4A
330
1F
100
AcDbEntity
  8
VRSTVA_1
 62
   250
100
AcDbSpline
210
0.0
220
0.0
230
1.0
 70
    11
 71
     3
 72
    36
 73
    32
 74
     0
 42
0.0000000001
 43
0.0000000001
 40
0.0
 40
0.0
 40
0.0
 40
0.0
 40
0.1111111111111111
 40
0.1111111111111111
 40
0.1111111111111111
 40
0.1111111111111111
 40
0.2222222222222222
 40
0.2222222222222222
 40
0.2222222222222222
 40
0.2222222222222222
 40
0.3333333333333333
 40
0.3333333333333333
 40
0.3333333333333333
 40
0.3333333333333333
 40
0.4444444444444444
 40
0.4444444444444444
 40
0.4444444444444444
 40
0.4444444444444444
 40
0.5555555555555556
 40
0.5555555555555556
 40
0.5555555555555556
 40
0.5555555555555556
 40
0.6666666666666666
 40
0.6666666666666666
 40
0.6666666666666666
 40
0.6666666666666666
 40
0.7777777777777778
 40
0.7777777777777778
 40
0.7777777777777778
 40
0.7777777777777778
 40
1.0
 40
1.0
 40
1.0
 40
1.0
 10
1.5629
 20
34.4967
 30
0.0
 10
1.5629
 20
34.1651
 30
0.0
 10
1.6019
 20
33.9445
 30
0.0
 10
1.6795
 20
33.8345
 30
0.0
 10
1.6795
 20
33.8345
 30
0.0
 10
1.7571
 20
33.7249
 30
0.0
 10
1.8526
 20
33.6698
 30
0.0
 10
1.9664
 20
33.6698
 30
0.0
 10
1.9664
 20
33.6698
 30
0.0
 10
2.0807
 20
33.6698
 30
0.0
 10
2.1762
 20
33.7253
 30
0.0
 10
2.2538
 20
33.8354
 30
0.0
 10
2.2538
 20
33.8354
 30
0.0
 10
2.3314
 20
33.9455
 30
0.0
 10
2.3705
 20
34.1661
 30
0.0
 10
2.3705
 20
34.4967
 30
0.0
 10
2.3705
 20
34.4967
 30
0.0
 10
2.3705
 20
34.8293
 30
0.0
 10
2.3314
 20
35.0504
 30
0.0
 10
2.2538
 20
35.1595
 30
0.0
 10
2.2538
 20
35.1595
 30
0.0
 10
2.1762
 20
35.2691
 30
0.0
 10
2.0798
 20
35.3236
 30
0.0
 10
1.9641
 20
35.3236
 30
0.0
 10
1.9641
 20
35.3236
 30
0.0
 10
1.8498
 20
35.3236
 30
0.0
 10
1.759
 20
35.2752
 30
0.0
 10
1.6908
 20
35.1788
 30
0.0
 10
1.6908
 20
35.1788
 30
0.0
 10
1.6057
 20
35.056
 30
0.0
 10
1.5629
 20
34.8283
 30
0.0
 10
1.5629
 20
34.4967
 30
0.0
  0
SPLINE
  5
4B
330
1F
100
AcDbEntity
  8
VRSTVA_1
 62
   250
100
AcDbSpline
210
0.0
220
0.0
230
1.0
 70
    11
 71
     3
 72
    20
 73
    16
 74
     0
 42
0.0000000001
 43
0.0000000001
 40
0.0
 40
0.0
 40
0.0
 40
0.0
 40
0.2
 40
0.2
 40
0.2
 40
0.2
 40
0.4
 40
0.4
 40
0.4
 40
0.4
 40
0.6
 40
0.6
 40
0.6
 40
0.6
 40
1.0
 40
1.0
 40
1.0
 40
1.0
 10
-11.4022
 20
32.8775
 30
0.0
 10
-11.4022
 20
32.8775
 30
0.0
 10
-8.603
 20
32.4688
 30
0.0
 10
-8.603
 20
32.4688
 30
0.0
 10
-8.603
 20
32.4688
 30
0.0
 10
-8.603
 20
32.4688
 30
0.0
 10
-8.603
 20
33.371
 30
0.0
 10
-8.603
 20
33.371
 30
0.0
 10
-8.603
 20
33.371
 30
0.0
 10
-8.603
 20
33.371
 30
0.0
 10
-11.4022
 20
32.8788
 30
0.0
 10
-11.4022
 20
32.8788
 30
0.0
 10
-11.4022
 20
32.8788
 30
0.0
 10
-11.4022
 20
32.8788
 30
0.0
 10
-11.4022
 20
32.8775
 30
0.0
 10
-11.4022
 20
32.8775
 30
0.0
  0
SPLINE
  5
4C
330
1F
100
AcDbEntity
  8
VRSTVA_1
 62
   250
100
AcDbSpline
210
0.0
220
0.0
230
1.0
 70
    11
 71
     3
 72
    20
 73
    16
 74
     0
 42
0.0000000001
 43
0.0000000001
 40
0.0
 40
0.0
 40
0.0
 40
0.0
 40
0.2
 40
0.2
 40
0.2
 40
0.2
 40
0.4
 40
0.4
 40
0.4
 40
0.4
 40
0.6
 40
0.6
 40
0.6
 40
0.6
 40
1.0
 40
1.0
 40
1.0
 40
1.0
 10
8.7093
 20
32.9445
 30
0.0
 10
8.7093
 20
32.9445
 30
0.0
 10
5.9101
 20
33.3532
 30
0.0
 10
5.9101
 20
33.3532
 30
0.0
 10
5.9101
 20
33.3532
 30
0.0
 10
5.9101
 20
33.3532
 30
0.0
 10
5.9101
 20
32.451
 30
0.0
 10
5.9101
 20
32.451
 30
0.0
 10
5.9101
 20
32.451
 30
0.0
 10
5.9101
 20
32.451
 30
0.0
 10
8.7093
 20
32.9433
 30
0.0
 10
8.7093
 20
32.9433
 30
0.0
 10
8.7093
 20
32.9433
 30
0.0
 10
8.7093
 20
32.9433
 30
0.0
 10
8.7093
 20
32.9445
 30
0.0
 10
8.7093
 20
32.9445
 30
0.0
  0
SPLINE
  5
4D
330
1F
100
AcDbEntity
  8
VRSTVA_1
 62
   250
100
AcDbSpline
210
0.0
220
0.0
230
1.0
 70
    24
 71
     3
 72
     8
 73
     4
 74
     0
 42
0.0000000001
 43
0.0000000001
 40
0.0
 40
0.0
 40
0.0
 40
0.0
 40
1.0
 40
1.0
 40
1.0
 40
1.0
 10
8.0539
 20
32.8857
 30
0.0
 10
8.0539
 20
32.8857
 30
0.0
 10
-11.3814
 20
32.8857
 30
0.0
 10
-11.3814
 20
32.8857
 30
0.0
  0
SPLINE
  5
4E
330
1F
100
AcDbEntity
  8
VRSTVA_1
 62
   250
100
AcDbSpline
210
0.0
220
0.0
230
1.0
 70
    24
 71
     3
 72
     8
 73
     4
 74
     0
 42
0.0000000001
 43
0.0000000001
 40
0.0
 40
0.0
 40
0.0
 40
0.0
 40
1.0
 40
1.0
 40
1.0
 40
1.0
 10
-11.5301
 20
31.2789
 30
0.0
 10
-11.5301
 20
31.2789
 30
0.0
 10
-11.5301
 20
33.2978
 30
0.0
 10
-11.5301
 20
33.2978
 30
0.0
  0
SPLINE
  5
4F
330
1F
100
AcDbEntity
  8
VRSTVA_1
 62
   250
100
AcDbSpline
210
0.0
220
0.0
230
1.0
 70
    24
 71
     3
 72
     8
 73
     4
 74
     0
 42
0.0000000001
 43
0.0000000001
 40
0.0
 40
0.0
 40
0.0
 40
0.0
 40
1.0
 40
1.0
 40
1.0
 40
1.0
 10
8.8018
 20
31.1375
 30
0.0
 10
8.8018
 20
31.1375
 30
0.0
 10
8.8018
 20
33.4247
 30
0.0
 10
8.8018
 20
33.4247
 30
0.0
  0
SPLINE
  5
50
330
1F
100
AcDbEntity
  8
VRSTVA_1
 62
   250
100
AcDbSpline
210
0.0
220
0.0
230
1.0
 70
    11
 71
     3
 72
    92
 73
    88
 74
     0
 42
0.0000000001
 43
0.0000000001
 40
0.0
 40
0.0
 40
0.0
 40
0.0
 40
0.0434782608695652
 40
0.0434782608695652
 40
0.0434782608695652
 40
0.0434782608695652
 40
0.0869565217391304
 40
0.0869565217391304
 40
0.0869565217391304
 40
0.0869565217391304
 40
0.1304347826086956
 40
0.1304347826086956
 40
0.1304347826086956
 40
0.1304347826086956
 40
0.1739130434782609
 40
0.1739130434782609
 40
0.1739130434782609
 40
0.1739130434782609
 40
0.2173913043478261
 40
0.2173913043478261
 40
0.2173913043478261
 40
0.2173913043478261
 40
0.2608695652173913
 40
0.2608695652173913
 40
0.2608695652173913
 40
0.2608695652173913
 40
0.3043478260869565
 40
0.3043478260869565
 40
0.3043478260869565
 40
0.3043478260869565
 40
0.3478260869565217
 40
0.3478260869565217
 40
0.3478260869565217
 40
0.3478260869565217
 40
0.391304347826087
 40
0.391304347826087
 40
0.391304347826087
 40
0.391304347826087
 40
0.4347826086956522
 40
0.4347826086956522
 40
0.4347826086956522
 40
0.4347826086956522
 40
0.4782608695652174
 40
0.4782608695652174
 40
0.4782608695652174
 40
0.4782608695652174
 40
0.5217391304347826
 40
0.5217391304347826
 40
0.5217391304347826
 40
0.5217391304347826
 40
0.5652173913043478
 40
0.5652173913043478
 40
0.5652173913043478
 40
0.5652173913043478
 40
0.6086956521739131
 40
0.6086956521739131
 40
0.6086956521739131
 40
0.6086956521739131
 40
0.6521739130434783
 40
0.6521739130434783
 40
0.6521739130434783
 40
0.6521739130434783
 40
0.6956521739130435
 40
0.6956521739130435
 40
0.6956521739130435
 40
0.6956521739130435
 40
0.7391304347826086
 40
0.7391304347826086
 40
0.7391304347826086
 40
0.7391304347826086
 40
0.782608695652174
 40
0.782608695652174
 40
0.782608695652174
 40
0.782608695652174
 40
0.8260869565217391
 40
0.8260869565217391
 40
0.8260869565217391
 40
0.8260869565217391
 40
0.8695652173913043
 40
0.8695652173913043
 40
0.8695652173913043
 40
0.8695652173913043
 40
0.9130434782608695
 40
0.9130434782608695
 40
0.9130434782608695
 40
0.9130434782608695
 40
1.0
 40
1.0
 40
1.0
 40
1.0
 10
-1.7947
 20
1.6375
 30
0.0
 10
-1.7947
 20
1.6375
 30
0.0
 10
-1.7947
 20
1.399
 30
0.0
 10
-1.7947
 20
1.399
 30
0.0
 10
-1.7947
 20
1.399
 30
0.0
 10
-1.7947
 20
1.399
 30
0.0
 10
-3.1301
 20
1.399
 30
0.0
 10
-3.1301
 20
1.399
 30
0.0
 10
-3.1301
 20
1.399
 30
0.0
 10
-3.132
 20
1.4587
 30
0.0
 10
-3.1226
 20
1.5161
 30
0.0
 10
-3.1014
 20
1.5712
 30
0.0
 10
-3.1014
 20
1.5712
 30
0.0
 10
-3.0675
 20
1.6624
 30
0.0
 10
-3.013
 20
1.7518
 30
0.0
 10
-2.9382
 20
1.8402
 30
0.0
 10
-2.9382
 20
1.8402
 30
0.0
 10
-2.8629
 20
1.9282
 30
0.0
 10
-2.7547
 20
2.0302
 30
0.0
 10
-2.6136
 20
2.1459
 30
0.0
 10
-2.6136
 20
2.1459
 30
0.0
 10
-2.394
 20
2.3261
 30
0.0
 10
-2.2453
 20
2.4686
 30
0.0
 10
-2.1682
 20
2.574
 30
0.0
 10
-2.1682
 20
2.574
 30
0.0
 10
-2.0911
 20
2.6789
 30
0.0
 10
-2.0525
 20
2.7786
 30
0.0
 10
-2.0525
 20
2.8722
 30
0.0
 10
-2.0525
 20
2.8722
 30
0.0
 10
-2.0525
 20
2.9705
 30
0.0
 10
-2.0878
 20
3.0533
 30
0.0
 10
-2.1578
 20
3.121
 30
0.0
 10
-2.1578
 20
3.121
 30
0.0
 10
-2.2284
 20
3.1883
 30
0.0
 10
-2.3201
 20
3.2221
 30
0.0
 10
-2.433
 20
3.2221
 30
0.0
 10
-2.433
 20
3.2221
 30
0.0
 10
-2.5525
 20
3.2221
 30
0.0
 10
-2.648
 20
3.1864
 30
0.0
 10
-2.7195
 20
3.1144
 30
0.0
 10
-2.7195
 20
3.1144
 30
0.0
 10
-2.7914
 20
3.0429
 30
0.0
 10
-2.8276
 20
2.9437
 30
0.0
 10
-2.8286
 20
2.8172
 30
0.0
 10
-2.8286
 20
2.8172
 30
0.0
 10
-2.8286
 20
2.8172
 30
0.0
 10
-3.0835
 20
2.843
 30
0.0
 10
-3.0835
 20
2.843
 30
0.0
 10
-3.0835
 20
2.843
 30
0.0
 10
-3.0661
 20
3.0335
 30
0.0
 10
-3.0003
 20
3.1784
 30
0.0
 10
-2.8864
 20
3.2781
 30
0.0
 10
-2.8864
 20
3.2781
 30
0.0
 10
-2.7726
 20
3.3778
 30
0.0
 10
-2.6193
 20
3.4277
 30
0.0
 10
-2.4274
 20
3.4277
 30
0.0
 10
-2.4274
 20
3.4277
 30
0.0
 10
-2.2336
 20
3.4277
 30
0.0
 10
-2.0802
 20
3.3736
 30
0.0
 10
-1.9673
 20
3.2664
 30
0.0
 10
-1.9673
 20
3.2664
 30
0.0
 10
-1.854
 20
3.1586
 30
0.0
 10
-1.7975
 20
3.0255
 30
0.0
 10
-1.7975
 20
2.8665
 30
0.0
 10
-1.7975
 20
2.8665
 30
0.0
 10
-1.7975
 20
2.7856
 30
0.0
 10
-1.814
 20
2.7061
 30
0.0
 10
-1.8474
 20
2.6281
 30
0.0
 10
-1.8474
 20
2.6281
 30
0.0
 10
-1.8803
 20
2.55
 30
0.0
 10
-1.9354
 20
2.4677
 30
0.0
 10
-2.012
 20
2.3816
 30
0.0
 10
-2.012
 20
2.3816
 30
0.0
 10
-2.0887
 20
2.295
 30
0.0
 10
-2.2162
 20
2.1765
 30
0.0
 10
-2.3944
 20
2.026
 30
0.0
 10
-2.3944
 20
2.026
 30
0.0
 10
-2.5431
 20
1.9009
 30
0.0
 10
-2.6386
 20
1.8162
 30
0.0
 10
-2.6809
 20
1.7715
 30
0.0
 10
-2.6809
 20
1.7715
 30
0.0
 10
-2.7232
 20
1.7273
 30
0.0
 10
-2.758
 20
1.6826
 30
0.0
 10
-2.7858
 20
1.6375
 30
0.0
 10
-2.7858
 20
1.6375
 30
0.0
 10
-2.7858
 20
1.6375
 30
0.0
 10
-1.7947
 20
1.6375
 30
0.0
 10
-1.7947
 20
1.6375
 30
0.0
  0
SPLINE
  5
51
330
1F
100
AcDbEntity
  8
VRSTVA_1
 62
   250
100
AcDbSpline
210
0.0
220
0.0
230
1.0
 70
    11
 71
     3
 72
    92
 73
    88
 74
     0
 42
0.0000000001
 43
0.0000000001
 40
0.0
 40
0.0
 40
0.0
 40
0.0
 40
0.0434782608695652
 40
0.0434782608695652
 40
0.0434782608695652
 40
0.0434782608695652
 40
0.0869565217391304
 40
0.0869565217391304
 40
0.0869565217391304
 40
0.0869565217391304
 40
0.1304347826086956
 40
0.1304347826086956
 40
0.1304347826086956
 40
0.1304347826086956
 40
0.1739130434782609
 40
0.1739130434782609
 40
0.1739130434782609
 40
0.1739130434782609
 40
0.2173913043478261
 40
0.2173913043478261
 40
0.2173913043478261
 40
0.2173913043478261
 40
0.2608695652173913
 40
0.2608695652173913
 40
0.2608695652173913
 40
0.2608695652173913
 40
0.3043478260869565
 40
0.3043478260869565
 40
0.3043478260869565
 40
0.3043478260869565
 40
0.3478260869565217
 40
0.3478260869565217
 40
0.3478260869565217
 40
0.3478260869565217
 40
0.391304347826087
 40
0.391304347826087
 40
0.391304347826087
 40
0.391304347826087
 40
0.4347826086956522
 40
0.4347826086956522
 40
0.4347826086956522
 40
0.4347826086956522
 40
0.4782608695652174
 40
0.4782608695652174
 40
0.4782608695652174
 40
0.4782608695652174
 40
0.5217391304347826
 40
0.5217391304347826
 40
0.5217391304347826
 40
0.5217391304347826
 40
0.5652173913043478
 40
0.5652173913043478
 40
0.5652173913043478
 40
0.5652173913043478
 40
0.6086956521739131
 40
0.6086956521739131
 40
0.6086956521739131
 40
0.6086956521739131
 40
0.6521739130434783
 40
0.6521739130434783
 40
0.6521739130434783
 40
0.6521739130434783
 40
0.6956521739130435
 40
0.6956521739130435
 40
0.6956521739130435
 40
0.6956521739130435
 40
0.7391304347826086
 40
0.7391304347826086
 40
0.7391304347826086
 40
0.7391304347826086
 40
0.782608695652174
 40
0.782608695652174
 40
0.782608695652174
 40
0.782608695652174
 40
0.8260869565217391
 40
0.8260869565217391
 40
0.8260869565217391
 40
0.8260869565217391
 40
0.8695652173913043
 40
0.8695652173913043
 40
0.8695652173913043
 40
0.8695652173913043
 40
0.9130434782608695
 40
0.9130434782608695
 40
0.9130434782608695
 40
0.9130434782608695
 40
1.0
 40
1.0
 40
1.0
 40
1.0
 10
-0.2251
 20
1.6375
 30
0.0
 10
-0.2251
 20
1.6375
 30
0.0
 10
-0.2251
 20
1.399
 30
0.0
 10
-0.2251
 20
1.399
 30
0.0
 10
-0.2251
 20
1.399
 30
0.0
 10
-0.2251
 20
1.399
 30
0.0
 10
-1.5605
 20
1.399
 30
0.0
 10
-1.5605
 20
1.399
 30
0.0
 10
-1.5605
 20
1.399
 30
0.0
 10
-1.5624
 20
1.4587
 30
0.0
 10
-1.553
 20
1.5161
 30
0.0
 10
-1.5318
 20
1.5712
 30
0.0
 10
-1.5318
 20
1.5712
 30
0.0
 10
-1.4979
 20
1.6624
 30
0.0
 10
-1.4434
 20
1.7518
 30
0.0
 10
-1.3686
 20
1.8402
 30
0.0
 10
-1.3686
 20
1.8402
 30
0.0
 10
-1.2933
 20
1.9282
 30
0.0
 10
-1.1851
 20
2.0302
 30
0.0
 10
-1.044
 20
2.1459
 30
0.0
 10
-1.044
 20
2.1459
 30
0.0
 10
-0.8244
 20
2.3261
 30
0.0
 10
-0.6757
 20
2.4686
 30
0.0
 10
-0.5986
 20
2.574
 30
0.0
 10
-0.5986
 20
2.574
 30
0.0
 10
-0.5215
 20
2.6789
 30
0.0
 10
-0.4829
 20
2.7786
 30
0.0
 10
-0.4829
 20
2.8722
 30
0.0
 10
-0.4829
 20
2.8722
 30
0.0
 10
-0.4829
 20
2.9705
 30
0.0
 10
-0.5182
 20
3.0533
 30
0.0
 10
-0.5882
 20
3.121
 30
0.0
 10
-0.5882
 20
3.121
 30
0.0
 10
-0.6588
 20
3.1883
 30
0.0
 10
-0.7505
 20
3.2221
 30
0.0
 10
-0.8634
 20
3.2221
 30
0.0
 10
-0.8634
 20
3.2221
 30
0.0
 10
-0.9829
 20
3.2221
 30
0.0
 10
-1.0784
 20
3.1864
 30
0.0
 10
-1.1499
 20
3.1144
 30
0.0
 10
-1.1499
 20
3.1144
 30
0.0
 10
-1.2218
 20
3.0429
 30
0.0
 10
-1.258
 20
2.9437
 30
0.0
 10
-1.259
 20
2.8172
 30
0.0
 10
-1.259
 20
2.8172
 30
0.0
 10
-1.259
 20
2.8172
 30
0.0
 10
-1.5139
 20
2.843
 30
0.0
 10
-1.5139
 20
2.843
 30
0.0
 10
-1.5139
 20
2.843
 30
0.0
 10
-1.4965
 20
3.0335
 30
0.0
 10
-1.4307
 20
3.1784
 30
0.0
 10
-1.3168
 20
3.2781
 30
0.0
 10
-1.3168
 20
3.2781
 30
0.0
 10
-1.203
 20
3.3778
 30
0.0
 10
-1.0497
 20
3.4277
 30
0.0
 10
-0.8578
 20
3.4277
 30
0.0
 10
-0.8578
 20
3.4277
 30
0.0
 10
-0.664
 20
3.4277
 30
0.0
 10
-0.5106
 20
3.3736
 30
0.0
 10
-0.3977
 20
3.2664
 30
0.0
 10
-0.3977
 20
3.2664
 30
0.0
 10
-0.2844
 20
3.1586
 30
0.0
 10
-0.2279
 20
3.0255
 30
0.0
 10
-0.2279
 20
2.8665
 30
0.0
 10
-0.2279
 20
2.8665
 30
0.0
 10
-0.2279
 20
2.7856
 30
0.0
 10
-0.2444
 20
2.7061
 30
0.0
 10
-0.2778
 20
2.6281
 30
0.0
 10
-0.2778
 20
2.6281
 30
0.0
 10
-0.3107
 20
2.55
 30
0.0
 10
-0.3658
 20
2.4677
 30
0.0
 10
-0.4424
 20
2.3816
 30
0.0
 10
-0.4424
 20
2.3816
 30
0.0
 10
-0.5191
 20
2.295
 30
0.0
 10
-0.6466
 20
2.1765
 30
0.0
 10
-0.8248
 20
2.026
 30
0.0
 10
-0.8248
 20
2.026
 30
0.0
 10
-0.9735
 20
1.9009
 30
0.0
 10
-1.069
 20
1.8162
 30
0.0
 10
-1.1113
 20
1.7715
 30
0.0
 10
-1.1113
 20
1.7715
 30
0.0
 10
-1.1536
 20
1.7273
 30
0.0
 10
-1.1884
 20
1.6826
 30
0.0
 10
-1.2162
 20
1.6375
 30
0.0
 10
-1.2162
 20
1.6375
 30
0.0
 10
-1.2162
 20
1.6375
 30
0.0
 10
-0.2251
 20
1.6375
 30
0.0
 10
-0.2251
 20
1.6375
 30
0.0
  0
SPLINE
  5
52
330
1F
100
AcDbEntity
  8
VRSTVA_1
 62
   250
100
AcDbSpline
210
0.0
220
0.0
230
1.0
 70
    11
 71
     3
 72
    92
 73
    88
 74
     0
 42
0.0000000001
 43
0.0000000001
 40
0.0
 40
0.0
 40
0.0
 40
0.0
 40
0.0434782608695652
 40
0.0434782608695652
 40
0.0434782608695652
 40
0.0434782608695652
 40
0.0869565217391304
 40
0.0869565217391304
 40
0.0869565217391304
 40
0.0869565217391304
 40
0.1304347826086956
 40
0.1304347826086956
 40
0.1304347826086956
 40
0.1304347826086956
 40
0.1739130434782609
 40
0.1739130434782609
 40
0.1739130434782609
 40
0.1739130434782609
 40
0.2173913043478261
 40
0.2173913043478261
 40
0.2173913043478261
 40
0.2173913043478261
 40
0.2608695652173913
 40
0.2608695652173913
 40
0.2608695652173913
 40
0.2608695652173913
 40
0.3043478260869565
 40
0.3043478260869565
 40
0.3043478260869565
 40
0.3043478260869565
 40
0.3478260869565217
 40
0.3478260869565217
 40
0.3478260869565217
 40
0.3478260869565217
 40
0.391304347826087
 40
0.391304347826087
 40
0.391304347826087
 40
0.391304347826087
 40
0.4347826086956522
 40
0.4347826086956522
 40
0.4347826086956522
 40
0.4347826086956522
 40
0.4782608695652174
 40
0.4782608695652174
 40
0.4782608695652174
 40
0.4782608695652174
 40
0.5217391304347826
 40
0.5217391304347826
 40
0.5217391304347826
 40
0.5217391304347826
 40
0.5652173913043478
 40
0.5652173913043478
 40
0.5652173913043478
 40
0.5652173913043478
 40
0.6086956521739131
 40
0.6086956521739131
 40
0.6086956521739131
 40
0.6086956521739131
 40
0.6521739130434783
 40
0.6521739130434783
 40
0.6521739130434783
 40
0.6521739130434783
 40
0.6956521739130435
 40
0.6956521739130435
 40
0.6956521739130435
 40
0.6956521739130435
 40
0.7391304347826086
 40
0.7391304347826086
 40
0.7391304347826086
 40
0.7391304347826086
 40
0.782608695652174
 40
0.782608695652174
 40
0.782608695652174
 40
0.782608695652174
 40
0.8260869565217391
 40
0.8260869565217391
 40
0.8260869565217391
 40
0.8260869565217391
 40
0.8695652173913043
 40
0.8695652173913043
 40
0.8695652173913043
 40
0.8695652173913043
 40
0.9130434782608695
 40
0.9130434782608695
 40
0.9130434782608695
 40
0.9130434782608695
 40
1.0
 40
1.0
 40
1.0
 40
1.0
 10
0.0406
 20
1.9282
 30
0.0
 10
0.0406
 20
1.9282
 30
0.0
 10
0.3012
 20
1.9503
 30
0.0
 10
0.3012
 20
1.9503
 30
0.0
 10
0.3012
 20
1.9503
 30
0.0
 10
0.3205
 20
1.8233
 30
0.0
 10
0.3652
 20
1.7283
 30
0.0
 10
0.4353
 20
1.6643
 30
0.0
 10
0.4353
 20
1.6643
 30
0.0
 10
0.5058
 20
1.6003
 30
0.0
 10
0.5905
 20
1.5683
 30
0.0
 10
0.6897
 20
1.5683
 30
0.0
 10
0.6897
 20
1.5683
 30
0.0
 10
0.8092
 20
1.5683
 30
0.0
 10
0.9103
 20
1.6135
 30
0.0
 10
0.9926
 20
1.7033
 30
0.0
 10
0.9926
 20
1.7033
 30
0.0
 10
1.0754
 20
1.7936
 30
0.0
 10
1.1168
 20
1.9131
 30
0.0
 10
1.1168
 20
2.0617
 30
0.0
 10
1.1168
 20
2.0617
 30
0.0
 10
1.1168
 20
2.2033
 30
0.0
 10
1.0773
 20
2.3148
 30
0.0
 10
0.9978
 20
2.3966
 30
0.0
 10
0.9978
 20
2.3966
 30
0.0
 10
0.9183
 20
2.4785
 30
0.0
 10
0.8144
 20
2.5194
 30
0.0
 10
0.6855
 20
2.5194
 30
0.0
 10
0.6855
 20
2.5194
 30
0.0
 10
0.6055
 20
2.5194
 30
0.0
 10
0.5336
 20
2.5011
 30
0.0
 10
0.4691
 20
2.4649
 30
0.0
 10
0.4691
 20
2.4649
 30
0.0
 10
0.4047
 20
2.4286
 30
0.0
 10
0.3544
 20
2.3816
 30
0.0
 10
0.3177
 20
2.3237
 30
0.0
 10
0.3177
 20
2.3237
 30
0.0
 10
0.3177
 20
2.3237
 30
0.0
 10
0.0848
 20
2.3538
 30
0.0
 10
0.0848
 20
2.3538
 30
0.0
 10
0.0848
 20
2.3538
 30
0.0
 10
0.0848
 20
2.3538
 30
0.0
 10
0.2805
 20
3.3915
 30
0.0
 10
0.2805
 20
3.3915
 30
0.0
 10
0.2805
 20
3.3915
 30
0.0
 10
0.2805
 20
3.3915
 30
0.0
 10
1.2852
 20
3.3915
 30
0.0
 10
1.2852
 20
3.3915
 30
0.0
 10
1.2852
 20
3.3915
 30
0.0
 10
1.2852
 20
3.3915
 30
0.0
 10
1.2852
 20
3.1544
 30
0.0
 10
1.2852
 20
3.1544
 30
0.0
 10
1.2852
 20
3.1544
 30
0.0
 10
1.2852
 20
3.1544
 30
0.0
 10
0.479
 20
3.1544
 30
0.0
 10
0.479
 20
3.1544
 30
0.0
 10
0.479
 20
3.1544
 30
0.0
 10
0.479
 20
3.1544
 30
0.0
 10
0.3699
 20
2.6116
 30
0.0
 10
0.3699
 20
2.6116
 30
0.0
 10
0.3699
 20
2.6116
 30
0.0
 10
0.4912
 20
2.6963
 30
0.0
 10
0.6187
 20
2.7386
 30
0.0
 10
0.7518
 20
2.7386
 30
0.0
 10
0.7518
 20
2.7386
 30
0.0
 10
0.9282
 20
2.7386
 30
0.0
 10
1.0768
 20
2.6775
 30
0.0
 10
1.1982
 20
2.5552
 30
0.0
 10
1.1982
 20
2.5552
 30
0.0
 10
1.3195
 20
2.4329
 30
0.0
 10
1.3802
 20
2.2758
 30
0.0
 10
1.3802
 20
2.0839
 30
0.0
 10
1.3802
 20
2.0839
 30
0.0
 10
1.3802
 20
1.9009
 30
0.0
 10
1.3266
 20
1.7428
 30
0.0
 10
1.2203
 20
1.6097
 30
0.0
 10
1.2203
 20
1.6097
 30
0.0
 10
1.0905
 20
1.4465
 30
0.0
 10
0.9136
 20
1.3647
 30
0.0
 10
0.6897
 20
1.3647
 30
0.0
 10
0.6897
 20
1.3647
 30
0.0
 10
0.5058
 20
1.3647
 30
0.0
 10
0.3558
 20
1.4159
 30
0.0
 10
0.2396
 20
1.5189
 30
0.0
 10
0.2396
 20
1.5189
 30
0.0
 10
0.1234
 20
1.622
 30
0.0
 10
0.0571
 20
1.7584
 30
0.0
 10
0.0406
 20
1.9282
 30
0.0
  0
SPLINE
  5
53
330
1F
100
AcDbEntity
  8
VRSTVA_1
 62
   250
100
AcDbSpline
210
0.0
220
0.0
230
1.0
 70
    11
 71
     3
 72
    20
 73
    16
 74
     0
 42
0.0000000001
 43
0.0000000001
 40
0.0
 40
0.0
 40
0.0
 40
0.0
 40
0.2
 40
0.2
 40
0.2
 40
0.2
 40
0.4
 40
0.4
 40
0.4
 40
0.4
 40
0.6
 40
0.6
 40
0.6
 40
0.6
 40
1.0
 40
1.0
 40
1.0
 40
1.0
 10
-17.3521
 20
0.8583
 30
0.0
 10
-17.3521
 20
0.8583
 30
0.0
 10
-14.5529
 20
0.4496
 30
0.0
 10
-14.5529
 20
0.4496
 30
0.0
 10
-14.5529
 20
0.4496
 30
0.0
 10
-14.5529
 20
0.4496
 30
0.0
 10
-14.5529
 20
1.3518
 30
0.0
 10
-14.5529
 20
1.3518
 30
0.0
 10
-14.5529
 20
1.3518
 30
0.0
 10
-14.5529
 20
1.3518
 30
0.0
 10
-17.3521
 20
0.8596
 30
0.0
 10
-17.3521
 20
0.8596
 30
0.0
 10
-17.3521
 20
0.8596
 30
0.0
 10
-17.3521
 20
0.8596
 30
0.0
 10
-17.3521
 20
0.8583
 30
0.0
 10
-17.3521
 20
0.8583
 30
0.0
  0
SPLINE
  5
54
330
1F
100
AcDbEntity
  8
VRSTVA_1
 62
   250
100
AcDbSpline
210
0.0
220
0.0
230
1.0
 70
    11
 71
     3
 72
    20
 73
    16
 74
     0
 42
0.0000000001
 43
0.0000000001
 40
0.0
 40
0.0
 40
0.0
 40
0.0
 40
0.2
 40
0.2
 40
0.2
 40
0.2
 40
0.4
 40
0.4
 40
0.4
 40
0.4
 40
0.6
 40
0.6
 40
0.6
 40
0.6
 40
1.0
 40
1.0
 40
1.0
 40
1.0
 10
14.5186
 20
0.8609
 30
0.0
 10
14.5186
 20
0.8609
 30
0.0
 10
11.7194
 20
1.2696
 30
0.0
 10
11.7194
 20
1.2696
 30
0.0
 10
11.7194
 20
1.2696
 30
0.0
 10
11.7194
 20
1.2696
 30
0.0
 10
11.7194
 20
0.3674
 30
0.0
 10
11.7194
 20
0.3674
 30
0.0
 10
11.7194
 20
0.3674
 30
0.0
 10
11.7194
 20
0.3674
 30
0.0
 10
14.5186
 20
0.8597
 30
0.0
 10
14.5186
 20
0.8597
 30
0.0
 10
14.5186
 20
0.8597
 30
0.0
 10
14.5186
 20
0.8597
 30
0.0
 10
14.5186
 20
0.8609
 30
0.0
 10
14.5186
 20
0.8609
 30
0.0
  0
SPLINE
  5
55
330
1F
100
AcDbEntity
  8
VRSTVA_1
 62
   250
100
AcDbSpline
210
0.0
220
0.0
230
1.0
 70
    24
 71
     3
 72
     8
 73
     4
 74
     0
 42
0.0000000001
 43
0.0000000001
 40
0.0
 40
0.0
 40
0.0
 40
0.0
 40
1.0
 40
1.0
 40
1.0
 40
1.0
 10
13.3296
 20
0.8515
 30
0.0
 10
13.3296
 20
0.8515
 30
0.0
 10
-16.6048
 20
0.8515
 30
0.0
 10
-16.6048
 20
0.8515
 30
0.0
  0
SPLINE
  5
56
330
1F
100
AcDbEntity
  8
VRSTVA_1
 62
   250
100
AcDbSpline
210
0.0
220
0.0
230
1.0
 70
    11
 71
     3
 72
   124
 73
   120
 74
     0
 42
0.0000000001
 43
0.0000000001
 40
0.0
 40
0.0
 40
0.0
 40
0.0
 40
0.032258064516129
 40
0.032258064516129
 40
0.032258064516129
 40
0.032258064516129
 40
0.0645161290322581
 40
0.0645161290322581
 40
0.0645161290322581
 40
0.0645161290322581
 40
0.0967741935483871
 40
0.0967741935483871
 40
0.0967741935483871
 40
0.0967741935483871
 40
0.1290322580645161
 40
0.1290322580645161
 40
0.1290322580645161
 40
0.1290322580645161
 40
0.1612903225806452
 40
0.1612903225806452
 40
0.1612903225806452
 40
0.1612903225806452
 40
0.1935483870967742
 40
0.1935483870967742
 40
0.1935483870967742
 40
0.1935483870967742
 40
0.2258064516129032
 40
0.2258064516129032
 40
0.2258064516129032
 40
0.2258064516129032
 40
0.2580645161290323
 40
0.2580645161290323
 40
0.2580645161290323
 40
0.2580645161290323
 40
0.2903225806451613
 40
0.2903225806451613
 40
0.2903225806451613
 40
0.2903225806451613
 40
0.3225806451612903
 40
0.3225806451612903
 40
0.3225806451612903
 40
0.3225806451612903
 40
0.3548387096774194
 40
0.3548387096774194
 40
0.3548387096774194
 40
0.3548387096774194
 40
0.3870967741935484
 40
0.3870967741935484
 40
0.3870967741935484
 40
0.3870967741935484
 40
0.4193548387096774
 40
0.4193548387096774
 40
0.4193548387096774
 40
0.4193548387096774
 40
0.4516129032258064
 40
0.4516129032258064
 40
0.4516129032258064
 40
0.4516129032258064
 40
0.4838709677419355
 40
0.4838709677419355
 40
0.4838709677419355
 40
0.4838709677419355
 40
0.5161290322580645
 40
0.5161290322580645
 40
0.5161290322580645
 40
0.5161290322580645
 40
0.5483870967741935
 40
0.5483870967741935
 40
0.5483870967741935
 40
0.5483870967741935
 40
0.5806451612903226
 40
0.5806451612903226
 40
0.5806451612903226
 40
0.5806451612903226
 40
0.6129032258064516
 40
0.6129032258064516
 40
0.6129032258064516
 40
0.6129032258064516
 40
0.6451612903225806
 40
0.6451612903225806
 40
0.6451612903225806
 40
0.6451612903225806
 40
0.6774193548387096
 40
0.6774193548387096
 40
0.6774193548387096
 40
0.6774193548387096
 40
0.7096774193548387
 40
0.7096774193548387
 40
0.7096774193548387
 40
0.7096774193548387
 40
0.7419354838709677
 40
0.7419354838709677
 40
0.7419354838709677
 40
0.7419354838709677
 40
0.7741935483870968
 40
0.7741935483870968
 40
0.7741935483870968
 40
0.7741935483870968
 40
0.8064516129032258
 40
0.8064516129032258
 40
0.8064516129032258
 40
0.8064516129032258
 40
0.8387096774193549
 40
0.8387096774193549
 40
0.8387096774193549
 40
0.8387096774193549
 40
0.8709677419354839
 40
0.8709677419354839
 40
0.8709677419354839
 40
0.8709677419354839
 40
0.9032258064516129
 40
0.9032258064516129
 40
0.9032258064516129
 40
0.9032258064516129
 40
0.9354838709677419
 40
0.9354838709677419
 40
0.9354838709677419
 40
0.9354838709677419
 40
1.0
 40
1.0
 40
1.0
 40
1.0
 10
-4.1652
 20
-33.7665
 30
0.0
 10
-4.1652
 20
-33.7665
 30
0.0
 10
-3.9173
 20
-33.7336
 30
0.0
 10
-3.9173
 20
-33.7336
 30
0.0
 10
-3.9173
 20
-33.7336
 30
0.0
 10
-3.8886
 20
-33.8742
 30
0.0
 10
-3.8401
 20
-33.9753
 30
0.0
 10
-3.7719
 20
-34.0374
 30
0.0
 10
-3.7719
 20
-34.0374
 30
0.0
 10
-3.7033
 20
-34.0995
 30
0.0
 10
-3.62
 20
-34.1306
 30
0.0
 10
-3.5217
 20
-34.1306
 30
0.0
 10
-3.5217
 20
-34.1306
 30
0.0
 10
-3.4051
 20
-34.1306
 30
0.0
 10
-3.3063
 20
-34.0901
 30
0.0
 10
-3.2258
 20
-34.0092
 30
0.0
 10
-3.2258
 20
-34.0092
 30
0.0
 10
-3.1459
 20
-33.9283
 30
0.0
 10
-3.1054
 20
-33.8281
 30
0.0
 10
-3.1054
 20
-33.7086
 30
0.0
 10
-3.1054
 20
-33.7086
 30
0.0
 10
-3.1054
 20
-33.5948
 30
0.0
 10
-3.1426
 20
-33.5007
 30
0.0
 10
-3.2169
 20
-33.4269
 30
0.0
 10
-3.2169
 20
-33.4269
 30
0.0
 10
-3.2917
 20
-33.3531
 30
0.0
 10
-3.3862
 20
-33.3159
 30
0.0
 10
-3.501
 20
-33.3159
 30
0.0
 10
-3.501
 20
-33.3159
 30
0.0
 10
-3.548
 20
-33.3159
 30
0.0
 10
-3.6064
 20
-33.3253
 30
0.0
 10
-3.676
 20
-33.3436
 30
0.0
 10
-3.676
 20
-33.3436
 30
0.0
 10
-3.676
 20
-33.3436
 30
0.0
 10
-3.6482
 20
-33.1259
 30
0.0
 10
-3.6482
 20
-33.1259
 30
0.0
 10
-3.6482
 20
-33.1259
 30
0.0
 10
-3.6318
 20
-33.1277
 30
0.0
 10
-3.6186
 20
-33.1287
 30
0.0
 10
-3.6083
 20
-33.1287
 30
0.0
 10
-3.6083
 20
-33.1287
 30
0.0
 10
-3.5029
 20
-33.1287
 30
0.0
 10
-3.4079
 20
-33.1009
 30
0.0
 10
-3.3232
 20
-33.0459
 30
0.0
 10
-3.3232
 20
-33.0459
 30
0.0
 10
-3.2385
 20
-32.9909
 30
0.0
 10
-3.1962
 20
-32.9057
 30
0.0
 10
-3.1962
 20
-32.791
 30
0.0
 10
-3.1962
 20
-32.791
 30
0.0
 10
-3.1962
 20
-32.7002
 30
0.0
 10
-3.2273
 20
-32.6245
 30
0.0
 10
-3.2889
 20
-32.5652
 30
0.0
 10
-3.2889
 20
-32.5652
 30
0.0
 10
-3.3505
 20
-32.5055
 30
0.0
 10
-3.43
 20
-32.4753
 30
0.0
 10
-3.5274
 20
-32.4753
 30
0.0
 10
-3.5274
 20
-32.4753
 30
0.0
 10
-3.6238
 20
-32.4753
 30
0.0
 10
-3.7042
 20
-32.5059
 30
0.0
 10
-3.7682
 20
-32.5661
 30
0.0
 10
-3.7682
 20
-32.5661
 30
0.0
 10
-3.8326
 20
-32.6268
 30
0.0
 10
-3.874
 20
-32.7181
 30
0.0
 10
-3.8924
 20
-32.8394
 30
0.0
 10
-3.8924
 20
-32.8394
 30
0.0
 10
-3.8924
 20
-32.8394
 30
0.0
 10
-4.1402
 20
-32.7952
 30
0.0
 10
-4.1402
 20
-32.7952
 30
0.0
 10
-4.1402
 20
-32.7952
 30
0.0
 10
-4.1101
 20
-32.6287
 30
0.0
 10
-4.041
 20
-32.4998
 30
0.0
 10
-3.9337
 20
-32.4086
 30
0.0
 10
-3.9337
 20
-32.4086
 30
0.0
 10
-3.826
 20
-32.3173
 30
0.0
 10
-3.6924
 20
-32.2712
 30
0.0
 10
-3.5325
 20
-32.2712
 30
0.0
 10
-3.5325
 20
-32.2712
 30
0.0
 10
-3.4225
 20
-32.2712
 30
0.0
 10
-3.3209
 20
-32.2952
 30
0.0
 10
-3.2282
 20
-32.3422
 30
0.0
 10
-3.2282
 20
-32.3422
 30
0.0
 10
-3.1355
 20
-32.3897
 30
0.0
 10
-3.0645
 20
-32.4542
 30
0.0
 10
-3.0151
 20
-32.536
 30
0.0
 10
-3.0151
 20
-32.536
 30
0.0
 10
-2.9662
 20
-32.6179
 30
0.0
 10
-2.9413
 20
-32.7044
 30
0.0
 10
-2.9413
 20
-32.7966
 30
0.0
 10
-2.9413
 20
-32.7966
 30
0.0
 10
-2.9413
 20
-32.8836
 30
0.0
 10
-2.9648
 20
-32.9631
 30
0.0
 10
-3.0118
 20
-33.0351
 30
0.0
 10
-3.0118
 20
-33.0351
 30
0.0
 10
-3.0589
 20
-33.1066
 30
0.0
 10
-3.128
 20
-33.1635
 30
0.0
 10
-3.2197
 20
-33.2058
 30
0.0
 10
-3.2197
 20
-33.2058
 30
0.0
 10
-3.1003
 20
-33.2331
 30
0.0
 10
-3.0076
 20
-33.2905
 30
0.0
 10
-2.9413
 20
-33.3775
 30
0.0
 10
-2.9413
 20
-33.3775
 30
0.0
 10
-2.8754
 20
-33.4641
 30
0.0
 10
-2.8425
 20
-33.5727
 30
0.0
 10
-2.8425
 20
-33.703
 30
0.0
 10
-2.8425
 20
-33.703
 30
0.0
 10
-2.8425
 20
-33.8794
 30
0.0
 10
-2.9065
 20
-34.029
 30
0.0
 10
-3.0353
 20
-34.1517
 30
0.0
 10
-3.0353
 20
-34.1517
 30
0.0
 10
-3.1638
 20
-34.2745
 30
0.0
 10
-3.3265
 20
-34.3356
 30
0.0
 10
-3.5231
 20
-34.3356
 30
0.0
 10
-3.5231
 20
-34.3356
 30
0.0
 10
-3.7004
 20
-34.3356
 30
0.0
 10
-3.8477
 20
-34.283
 30
0.0
 10
-3.9648
 20
-34.1771
 30
0.0
 10
-3.9648
 20
-34.1771
 30
0.0
 10
-4.0819
 20
-34.0718
 30
0.0
 10
-4.1487
 20
-33.9349
 30
0.0
 10
-4.1652
 20
-33.7665
 30
0.0
  0
SPLINE
  5
57
330
1F
100
AcDbEntity
  8
VRSTVA_1
 62
   250
100
AcDbSpline
210
0.0
220
0.0
230
1.0
 70
    11
 71
     3
 72
    80
 73
    76
 74
     0
 42
0.0000000001
 43
0.0000000001
 40
0.0
 40
0.0
 40
0.0
 40
0.0
 40
0.05
 40
0.05
 40
0.05
 40
0.05
 40
0.1
 40
0.1
 40
0.1
 40
0.1
 40
0.15
 40
0.15
 40
0.15
 40
0.15
 40
0.2
 40
0.2
 40
0.2
 40
0.2
 40
0.25
 40
0.25
 40
0.25
 40
0.25
 40
0.3
 40
0.3
 40
0.3
 40
0.3
 40
0.35
 40
0.35
 40
0.35
 40
0.35
 40
0.4
 40
0.4
 40
0.4
 40
0.4
 40
0.45
 40
0.45
 40
0.45
 40
0.45
 40
0.5
 40
0.5
 40
0.5
 40
0.5
 40
0.55
 40
0.55
 40
0.55
 40
0.55
 40
0.6
 40
0.6
 40
0.6
 40
0.6
 40
0.65
 40
0.65
 40
0.65
 40
0.65
 40
0.7
 40
0.7
 40
0.7
 40
0.7
 40
0.75
 40
0.75
 40
0.75
 40
0.75
 40
0.8
 40
0.8
 40
0.8
 40
0.8
 40
0.85
 40
0.85
 40
0.85
 40
0.85
 40
0.9
 40
0.9
 40
0.9
 40
0.9
 40
1.0
 40
1.0
 40
1.0
 40
1.0
 10
-1.3101
 20
-32.7745
 30
0.0
 10
-1.3101
 20
-32.7745
 30
0.0
 10
-1.5565
 20
-32.7938
 30
0.0
 10
-1.5565
 20
-32.7938
 30
0.0
 10
-1.5565
 20
-32.7938
 30
0.0
 10
-1.5786
 20
-32.6964
 30
0.0
 10
-1.6097
 20
-32.6254
 30
0.0
 10
-1.6501
 20
-32.5817
 30
0.0
 10
-1.6501
 20
-32.5817
 30
0.0
 10
-1.7174
 20
-32.5106
 30
0.0
 10
-1.8002
 20
-32.4753
 30
0.0
 10
-1.8985
 20
-32.4753
 30
0.0
 10
-1.8985
 20
-32.4753
 30
0.0
 10
-1.9775
 20
-32.4753
 30
0.0
 10
-2.0466
 20
-32.4975
 30
0.0
 10
-2.1064
 20
-32.5417
 30
0.0
 10
-2.1064
 20
-32.5417
 30
0.0
 10
-2.1845
 20
-32.5986
 30
0.0
 10
-2.2461
 20
-32.6818
 30
0.0
 10
-2.2912
 20
-32.791
 30
0.0
 10
-2.2912
 20
-32.791
 30
0.0
 10
-2.3359
 20
-32.9001
 30
0.0
 10
-2.3594
 20
-33.0558
 30
0.0
 10
-2.3613
 20
-33.258
 30
0.0
 10
-2.3613
 20
-33.258
 30
0.0
 10
-2.3016
 20
-33.1673
 30
0.0
 10
-2.2287
 20
-33.0995
 30
0.0
 10
-2.1421
 20
-33.0553
 30
0.0
 10
-2.1421
 20
-33.0553
 30
0.0
 10
-2.0561
 20
-33.0116
 30
0.0
 10
-1.9653
 20
-32.9895
 30
0.0
 10
-1.8707
 20
-32.9895
 30
0.0
 10
-1.8707
 20
-32.9895
 30
0.0
 10
-1.7052
 20
-32.9895
 30
0.0
 10
-1.5645
 20
-33.0501
 30
0.0
 10
-1.4483
 20
-33.172
 30
0.0
 10
-1.4483
 20
-33.172
 30
0.0
 10
-1.3322
 20
-33.2938
 30
0.0
 10
-1.2738
 20
-33.4509
 30
0.0
 10
-1.2738
 20
-33.6437
 30
0.0
 10
-1.2738
 20
-33.6437
 30
0.0
 10
-1.2738
 20
-33.7707
 30
0.0
 10
-1.3016
 20
-33.8883
 30
0.0
 10
-1.3562
 20
-33.9975
 30
0.0
 10
-1.3562
 20
-33.9975
 30
0.0
 10
-1.4107
 20
-34.1061
 30
0.0
 10
-1.486
 20
-34.1898
 30
0.0
 10
-1.5815
 20
-34.2477
 30
0.0
 10
-1.5815
 20
-34.2477
 30
0.0
 10
-1.6769
 20
-34.3055
 30
0.0
 10
-1.7851
 20
-34.3342
 30
0.0
 10
-1.9065
 20
-34.3342
 30
0.0
 10
-1.9065
 20
-34.3342
 30
0.0
 10
-2.1134
 20
-34.3342
 30
0.0
 10
-2.2818
 20
-34.2585
 30
0.0
 10
-2.4121
 20
-34.1061
 30
0.0
 10
-2.4121
 20
-34.1061
 30
0.0
 10
-2.5429
 20
-33.9542
 30
0.0
 10
-2.6078
 20
-33.7035
 30
0.0
 10
-2.6078
 20
-33.3545
 30
0.0
 10
-2.6078
 20
-33.3545
 30
0.0
 10
-2.6078
 20
-32.9641
 30
0.0
 10
-2.5358
 20
-32.6804
 30
0.0
 10
-2.3914
 20
-32.5031
 30
0.0
 10
-2.3914
 20
-32.5031
 30
0.0
 10
-2.2658
 20
-32.3488
 30
0.0
 10
-2.0965
 20
-32.2712
 30
0.0
 10
-1.883
 20
-32.2712
 30
0.0
 10
-1.883
 20
-32.2712
 30
0.0
 10
-1.7244
 20
-32.2712
 30
0.0
 10
-1.5942
 20
-32.3159
 30
0.0
 10
-1.4926
 20
-32.4053
 30
0.0
 10
-1.4926
 20
-32.4053
 30
0.0
 10
-1.391
 20
-32.4942
 30
0.0
 10
-1.3303
 20
-32.6174
 30
0.0
 10
-1.3101
 20
-32.7745
 30
0.0
  0
SPLINE
  5
58
330
1F
100
AcDbEntity
  8
VRSTVA_1
 62
   250
100
AcDbSpline
210
0.0
220
0.0
230
1.0
 70
    11
 71
     3
 72
    40
 73
    36
 74
     0
 42
0.0000000001
 43
0.0000000001
 40
0.0
 40
0.0
 40
0.0
 40
0.0
 40
0.1
 40
0.1
 40
0.1
 40
0.1
 40
0.2
 40
0.2
 40
0.2
 40
0.2
 40
0.3
 40
0.3
 40
0.3
 40
0.3
 40
0.4
 40
0.4
 40
0.4
 40
0.4
 40
0.5
 40
0.5
 40
0.5
 40
0.5
 40
0.6
 40
0.6
 40
0.6
 40
0.6
 40
0.7
 40
0.7
 40
0.7
 40
0.7
 40
0.8
 40
0.8
 40
0.8
 40
0.8
 40
1.0
 40
1.0
 40
1.0
 40
1.0
 10
-2.3228
 20
-33.6451
 30
0.0
 10
-2.3228
 20
-33.7308
 30
0.0
 10
-2.3044
 20
-33.8126
 30
0.0
 10
-2.2682
 20
-33.8907
 30
0.0
 10
-2.2682
 20
-33.8907
 30
0.0
 10
-2.232
 20
-33.9688
 30
0.0
 10
-2.1812
 20
-34.028
 30
0.0
 10
-2.1163
 20
-34.0689
 30
0.0
 10
-2.1163
 20
-34.0689
 30
0.0
 10
-2.0509
 20
-34.1099
 30
0.0
 10
-1.9822
 20
-34.1306
 30
0.0
 10
-1.9107
 20
-34.1306
 30
0.0
 10
-1.9107
 20
-34.1306
 30
0.0
 10
-1.8058
 20
-34.1306
 30
0.0
 10
-1.716
 20
-34.0882
 30
0.0
 10
-1.6407
 20
-34.0036
 30
0.0
 10
-1.6407
 20
-34.0036
 30
0.0
 10
-1.5655
 20
-33.9189
 30
0.0
 10
-1.5278
 20
-33.8041
 30
0.0
 10
-1.5278
 20
-33.6593
 30
0.0
 10
-1.5278
 20
-33.6593
 30
0.0
 10
-1.5278
 20
-33.5196
 30
0.0
 10
-1.565
 20
-33.4095
 30
0.0
 10
-1.6393
 20
-33.3291
 30
0.0
 10
-1.6393
 20
-33.3291
 30
0.0
 10
-1.7136
 20
-33.2486
 30
0.0
 10
-1.8072
 20
-33.2086
 30
0.0
 10
-1.9201
 20
-33.2086
 30
0.0
 10
-1.9201
 20
-33.2086
 30
0.0
 10
-2.0325
 20
-33.2086
 30
0.0
 10
-2.1276
 20
-33.2486
 30
0.0
 10
-2.2056
 20
-33.3291
 30
0.0
 10
-2.2056
 20
-33.3291
 30
0.0
 10
-2.2837
 20
-33.4095
 30
0.0
 10
-2.3228
 20
-33.5149
 30
0.0
 10
-2.3228
 20
-33.6451
 30
0.0
  0
SPLINE
  5
59
330
1F
100
AcDbEntity
  8
VRSTVA_1
 62
   250
100
AcDbSpline
210
0.0
220
0.0
230
1.0
 70
    11
 71
     3
 72
    48
 73
    44
 74
     0
 42
0.0000000001
 43
0.0000000001
 40
0.0
 40
0.0
 40
0.0
 40
0.0
 40
0.0833333333333333
 40
0.0833333333333333
 40
0.0833333333333333
 40
0.0833333333333333
 40
0.1666666666666667
 40
0.1666666666666667
 40
0.1666666666666667
 40
0.1666666666666667
 40
0.25
 40
0.25
 40
0.25
 40
0.25
 40
0.3333333333333333
 40
0.3333333333333333
 40
0.3333333333333333
 40
0.3333333333333333
 40
0.4166666666666667
 40
0.4166666666666667
 40
0.4166666666666667
 40
0.4166666666666667
 40
0.5
 40
0.5
 40
0.5
 40
0.5
 40
0.5833333333333334
 40
0.5833333333333334
 40
0.5833333333333334
 40
0.5833333333333334
 40
0.6666666666666666
 40
0.6666666666666666
 40
0.6666666666666666
 40
0.6666666666666666
 40
0.75
 40
0.75
 40
0.75
 40
0.75
 40
0.8333333333333334
 40
0.8333333333333334
 40
0.8333333333333334
 40
0.8333333333333334
 40
1.0
 40
1.0
 40
1.0
 40
1.0
 10
-0.2325
 20
-34.2999
 30
0.0
 10
-0.2325
 20
-34.2999
 30
0.0
 10
-0.2325
 20
-33.8164
 30
0.0
 10
-0.2325
 20
-33.8164
 30
0.0
 10
-0.2325
 20
-33.8164
 30
0.0
 10
-0.2325
 20
-33.8164
 30
0.0
 10
-1.1088
 20
-33.8164
 30
0.0
 10
-1.1088
 20
-33.8164
 30
0.0
 10
-1.1088
 20
-33.8164
 30
0.0
 10
-1.1088
 20
-33.8164
 30
0.0
 10
-1.1088
 20
-33.5887
 30
0.0
 10
-1.1088
 20
-33.5887
 30
0.0
 10
-1.1088
 20
-33.5887
 30
0.0
 10
-1.1088
 20
-33.5887
 30
0.0
 10
-0.1868
 20
-32.2797
 30
0.0
 10
-0.1868
 20
-32.2797
 30
0.0
 10
-0.1868
 20
-32.2797
 30
0.0
 10
-0.1868
 20
-32.2797
 30
0.0
 10
0.0159
 20
-32.2797
 30
0.0
 10
0.0159
 20
-32.2797
 30
0.0
 10
0.0159
 20
-32.2797
 30
0.0
 10
0.0159
 20
-32.2797
 30
0.0
 10
0.0159
 20
-33.5887
 30
0.0
 10
0.0159
 20
-33.5887
 30
0.0
 10
0.0159
 20
-33.5887
 30
0.0
 10
0.0159
 20
-33.5887
 30
0.0
 10
0.2887
 20
-33.5887
 30
0.0
 10
0.2887
 20
-33.5887
 30
0.0
 10
0.2887
 20
-33.5887
 30
0.0
 10
0.2887
 20
-33.5887
 30
0.0
 10
0.2887
 20
-33.8164
 30
0.0
 10
0.2887
 20
-33.8164
 30
0.0
 10
0.2887
 20
-33.8164
 30
0.0
 10
0.2887
 20
-33.8164
 30
0.0
 10
0.0159
 20
-33.8164
 30
0.0
 10
0.0159
 20
-33.8164
 30
0.0
 10
0.0159
 20
-33.8164
 30
0.0
 10
0.0159
 20
-33.8164
 30
0.0
 10
0.0159
 20
-34.2999
 30
0.0
 10
0.0159
 20
-34.2999
 30
0.0
 10
0.0159
 20
-34.2999
 30
0.0
 10
0.0159
 20
-34.2999
 30
0.0
 10
-0.2325
 20
-34.2999
 30
0.0
 10
-0.2325
 20
-34.2999
 30
0.0
  0
SPLINE
  5
5A
330
1F
100
AcDbEntity
  8
VRSTVA_1
 62
   250
100
AcDbSpline
210
0.0
220
0.0
230
1.0
 70
    11
 71
     3
 72
    16
 73
    12
 74
     0
 42
0.0000000001
 43
0.0000000001
 40
0.0
 40
0.0
 40
0.0
 40
0.0
 40
0.25
 40
0.25
 40
0.25
 40
0.25
 40
0.5
 40
0.5
 40
0.5
 40
0.5
 40
1.0
 40
1.0
 40
1.0
 40
1.0
 10
-0.2325
 20
-33.5887
 30
0.0
 10
-0.2325
 20
-33.5887
 30
0.0
 10
-0.2325
 20
-32.6781
 30
0.0
 10
-0.2325
 20
-32.6781
 30
0.0
 10
-0.2325
 20
-32.6781
 30
0.0
 10
-0.2325
 20
-32.6781
 30
0.0
 10
-0.8646
 20
-33.5887
 30
0.0
 10
-0.8646
 20
-33.5887
 30
0.0
 10
-0.8646
 20
-33.5887
 30
0.0
 10
-0.8646
 20
-33.5887
 30
0.0
 10
-0.2325
 20
-33.5887
 30
0.0
 10
-0.2325
 20
-33.5887
 30
0.0
  0
SPLINE
  5
5B
330
1F
100
AcDbEntity
  8
VRSTVA_1
 62
   250
100
AcDbSpline
210
0.0
220
0.0
230
1.0
 70
    11
 71
     3
 72
    20
 73
    16
 74
     0
 42
0.0000000001
 43
0.0000000001
 40
0.0
 40
0.0
 40
0.0
 40
0.0
 40
0.2
 40
0.2
 40
0.2
 40
0.2
 40
0.4
 40
0.4
 40
0.4
 40
0.4
 40
0.6
 40
0.6
 40
0.6
 40
0.6
 40
1.0
 40
1.0
 40
1.0
 40
1.0
 10
-25.7107
 20
-34.9147
 30
0.0
 10
-25.7107
 20
-34.9147
 30
0.0
 10
-22.9115
 20
-35.3234
 30
0.0
 10
-22.9115
 20
-35.3234
 30
0.0
 10
-22.9115
 20
-35.3234
 30
0.0
 10
-22.9115
 20
-35.3234
 30
0.0
 10
-22.9115
 20
-34.4212
 30
0.0
 10
-22.9115
 20
-34.4212
 30
0.0
 10
-22.9115
 20
-34.4212
 30
0.0
 10
-22.9115
 20
-34.4212
 30
0.0
 10
-25.7107
 20
-34.9134
 30
0.0
 10
-25.7107
 20
-34.9134
 30
0.0
 10
-25.7107
 20
-34.9134
 30
0.0
 10
-25.7107
 20
-34.9134
 30
0.0
 10
-25.7107
 20
-34.9147
 30
0.0
 10
-25.7107
 20
-34.9147
 30
0.0
  0
SPLINE
  5
5C
330
1F
100
AcDbEntity
  8
VRSTVA_1
 62
   250
100
AcDbSpline
210
0.0
220
0.0
230
1.0
 70
    11
 71
     3
 72
    20
 73
    16
 74
     0
 42
0.0000000001
 43
0.0000000001
 40
0.0
 40
0.0
 40
0.0
 40
0.0
 40
0.2
 40
0.2
 40
0.2
 40
0.2
 40
0.4
 40
0.4
 40
0.4
 40
0.4
 40
0.6
 40
0.6
 40
0.6
 40
0.6
 40
1.0
 40
1.0
 40
1.0
 40
1.0
 10
22.8357
 20
-34.9186
 30
0.0
 10
22.8357
 20
-34.9186
 30
0.0
 10
20.0365
 20
-34.5099
 30
0.0
 10
20.0365
 20
-34.5099
 30
0.0
 10
20.0365
 20
-34.5099
 30
0.0
 10
20.0365
 20
-34.5099
 30
0.0
 10
20.0365
 20
-35.4121
 30
0.0
 10
20.0365
 20
-35.4121
 30
0.0
 10
20.0365
 20
-35.4121
 30
0.0
 10
20.0365
 20
-35.4121
 30
0.0
 10
22.8357
 20
-34.9198
 30
0.0
 10
22.8357
 20
-34.9198
 30
0.0
 10
22.8357
 20
-34.9198
 30
0.0
 10
22.8357
 20
-34.9198
 30
0.0
 10
22.8357
 20
-34.9186
 30
0.0
 10
22.8357
 20
-34.9186
 30
0.0
  0
SPLINE
  5
5D
330
1F
100
AcDbEntity
  8
VRSTVA_1
 62
   250
100
AcDbSpline
210
0.0
220
0.0
230
1.0
 70
    24
 71
     3
 72
     8
 73
     4
 74
     0
 42
0.0000000001
 43
0.0000000001
 40
0.0
 40
0.0
 40
0.0
 40
0.0
 40
1.0
 40
1.0
 40
1.0
 40
1.0
 10
21.8242
 20
-34.9147
 30
0.0
 10
21.8242
 20
-34.9147
 30
0.0
 10
-24.4352
 20
-34.9147
 30
0.0
 10
-24.4352
 20
-34.9147
 30
0.0
  0
SPLINE
  5
5E
330
1F
100
AcDbEntity
  8
VRSTVA_1
 62
   250
100
AcDbSpline
210
0.0
220
0.0
230
1.0
 70
    24
 71
     3
 72
     8
 73
     4
 74
     0
 42
0.0000000001
 43
0.0000000001
 40
0.0
 40
0.0
 40
0.0
 40
0.0
 40
1.0
 40
1.0
 40
1.0
 40
1.0
 10
-25.794
 20
-35.3652
 30
0.0
 10
-25.794
 20
-35.3652
 30
0.0
 10
-25.794
 20
-1.0791
 30
0.0
 10
-25.794
 20
-1.0791
 30
0.0
  0
SPLINE
  5
5F
330
1F
100
AcDbEntity
  8
VRSTVA_1
 62
   250
100
AcDbSpline
210
0.0
220
0.0
230
1.0
 70
    24
 71
     3
 72
     8
 73
     4
 74
     0
 42
0.0000000001
 43
0.0000000001
 40
0.0
 40
0.0
 40
0.0
 40
0.0
 40
1.0
 40
1.0
 40
1.0
 40
1.0
 10
22.9122
 20
-35.5288
 30
0.0
 10
22.9122
 20
-35.5288
 30
0.0
 10
22.9122
 20
-0.8802
 30
0.0
 10
22.9122
 20
-0.8802
 30
0.0
  0
SPLINE
  5
60
330
1F
100
AcDbEntity
  8
VRSTVA_1
 62
   250
100
AcDbSpline
210
0.0
220
0.0
230
1.0
 70
    11
 71
     3
 72
    92
 73
    88
 74
     0
 42
0.0000000001
 43
0.0000000001
 40
0.0
 40
0.0
 40
0.0
 40
0.0
 40
0.0434782608695652
 40
0.0434782608695652
 40
0.0434782608695652
 40
0.0434782608695652
 40
0.0869565217391304
 40
0.0869565217391304
 40
0.0869565217391304
 40
0.0869565217391304
 40
0.1304347826086956
 40
0.1304347826086956
 40
0.1304347826086956
 40
0.1304347826086956
 40
0.1739130434782609
 40
0.1739130434782609
 40
0.1739130434782609
 40
0.1739130434782609
 40
0.2173913043478261
 40
0.2173913043478261
 40
0.2173913043478261
 40
0.2173913043478261
 40
0.2608695652173913
 40
0.2608695652173913
 40
0.2608695652173913
 40
0.2608695652173913
 40
0.3043478260869565
 40
0.3043478260869565
 40
0.3043478260869565
 40
0.3043478260869565
 40
0.3478260869565217
 40
0.3478260869565217
 40
0.3478260869565217
 40
0.3478260869565217
 40
0.391304347826087
 40
0.391304347826087
 40
0.391304347826087
 40
0.391304347826087
 40
0.4347826086956522
 40
0.4347826086956522
 40
0.4347826086956522
 40
0.4347826086956522
 40
0.4782608695652174
 40
0.4782608695652174
 40
0.4782608695652174
 40
0.4782608695652174
 40
0.5217391304347826
 40
0.5217391304347826
 40
0.5217391304347826
 40
0.5217391304347826
 40
0.5652173913043478
 40
0.5652173913043478
 40
0.5652173913043478
 40
0.5652173913043478
 40
0.6086956521739131
 40
0.6086956521739131
 40
0.6086956521739131
 40
0.6086956521739131
 40
0.6521739130434783
 40
0.6521739130434783
 40
0.6521739130434783
 40
0.6521739130434783
 40
0.6956521739130435
 40
0.6956521739130435
 40
0.6956521739130435
 40
0.6956521739130435
 40
0.7391304347826086
 40
0.7391304347826086
 40
0.7391304347826086
 40
0.7391304347826086
 40
0.782608695652174
 40
0.782608695652174
 40
0.782608695652174
 40
0.782608695652174
 40
0.8260869565217391
 40
0.8260869565217391
 40
0.8260869565217391
 40
0.8260869565217391
 40
0.8695652173913043
 40
0.8695652173913043
 40
0.8695652173913043
 40
0.8695652173913043
 40
0.9130434782608695
 40
0.9130434782608695
 40
0.9130434782608695
 40
0.9130434782608695
 40
1.0
 40
1.0
 40
1.0
 40
1.0
 10
27.5383
 20
-1.0643
 30
0.0
 10
27.5383
 20
-1.0643
 30
0.0
 10
27.7768
 20
-1.0643
 30
0.0
 10
27.7768
 20
-1.0643
 30
0.0
 10
27.7768
 20
-1.0643
 30
0.0
 10
27.7768
 20
-1.0643
 30
0.0
 10
27.7768
 20
-2.3997
 30
0.0
 10
27.7768
 20
-2.3997
 30
0.0
 10
27.7768
 20
-2.3997
 30
0.0
 10
27.7171
 20
-2.4016
 30
0.0
 10
27.6597
 20
-2.3922
 30
0.0
 10
27.6046
 20
-2.371
 30
0.0
 10
27.6046
 20
-2.371
 30
0.0
 10
27.5134
 20
-2.3371
 30
0.0
 10
27.424
 20
-2.2826
 30
0.0
 10
27.3356
 20
-2.2078
 30
0.0
 10
27.3356
 20
-2.2078
 30
0.0
 10
27.2476
 20
-2.1325
 30
0.0
 10
27.1456
 20
-2.0243
 30
0.0
 10
27.0299
 20
-1.8832
 30
0.0
 10
27.0299
 20
-1.8832
 30
0.0
 10
26.8497
 20
-1.6636
 30
0.0
 10
26.7072
 20
-1.5149
 30
0.0
 10
26.6018
 20
-1.4378
 30
0.0
 10
26.6018
 20
-1.4378
 30
0.0
 10
26.4969
 20
-1.3607
 30
0.0
 10
26.3972
 20
-1.3221
 30
0.0
 10
26.3036
 20
-1.3221
 30
0.0
 10
26.3036
 20
-1.3221
 30
0.0
 10
26.2053
 20
-1.3221
 30
0.0
 10
26.1225
 20
-1.3574
 30
0.0
 10
26.0548
 20
-1.4274
 30
0.0
 10
26.0548
 20
-1.4274
 30
0.0
 10
25.9875
 20
-1.498
 30
0.0
 10
25.9537
 20
-1.5897
 30
0.0
 10
25.9537
 20
-1.7026
 30
0.0
 10
25.9537
 20
-1.7026
 30
0.0
 10
25.9537
 20
-1.8221
 30
0.0
 10
25.9894
 20
-1.9176
 30
0.0
 10
26.0614
 20
-1.9891
 30
0.0
 10
26.0614
 20
-1.9891
 30
0.0
 10
26.1329
 20
-2.061
 30
0.0
 10
26.2321
 20
-2.0972
 30
0.0
 10
26.3586
 20
-2.0982
 30
0.0
 10
26.3586
 20
-2.0982
 30
0.0
 10
26.3586
 20
-2.0982
 30
0.0
 10
26.3328
 20
-2.3531
 30
0.0
 10
26.3328
 20
-2.3531
 30
0.0
 10
26.3328
 20
-2.3531
 30
0.0
 10
26.1423
 20
-2.3357
 30
0.0
 10
25.9974
 20
-2.2699
 30
0.0
 10
25.8977
 20
-2.156
 30
0.0
 10
25.8977
 20
-2.156
 30
0.0
 10
25.798
 20
-2.0422
 30
0.0
 10
25.7481
 20
-1.8889
 30
0.0
 10
25.7481
 20
-1.697
 30
0.0
 10
25.7481
 20
-1.697
 30
0.0
 10
25.7481
 20
-1.5032
 30
0.0
 10
25.8022
 20
-1.3498
 30
0.0
 10
25.9094
 20
-1.2369
 30
0.0
 10
25.9094
 20
-1.2369
 30
0.0
 10
26.0172
 20
-1.1236
 30
0.0
 10
26.1503
 20
-1.0671
 30
0.0
 10
26.3093
 20
-1.0671
 30
0.0
 10
26.3093
 20
-1.0671
 30
0.0
 10
26.3902
 20
-1.0671
 30
0.0
 10
26.4697
 20
-1.0836
 30
0.0
 10
26.5477
 20
-1.117
 30
0.0
 10
26.5477
 20
-1.117
 30
0.0
 10
26.6258
 20
-1.1499
 30
0.0
 10
26.7081
 20
-1.205
 30
0.0
 10
26.7942
 20
-1.2816
 30
0.0
 10
26.7942
 20
-1.2816
 30
0.0
 10
26.8808
 20
-1.3583
 30
0.0
 10
26.9993
 20
-1.4858
 30
0.0
 10
27.1498
 20
-1.664
 30
0.0
 10
27.1498
 20
-1.664
 30
0.0
 10
27.2749
 20
-1.8127
 30
0.0
 10
27.3596
 20
-1.9082
 30
0.0
 10
27.4043
 20
-1.9505
 30
0.0
 10
27.4043
 20
-1.9505
 30
0.0
 10
27.4485
 20
-1.9928
 30
0.0
 10
27.4932
 20
-2.0276
 30
0.0
 10
27.5383
 20
-2.0554
 30
0.0
 10
27.5383
 20
-2.0554
 30
0.0
 10
27.5383
 20
-2.0554
 30
0.0
 10
27.5383
 20
-1.0643
 30
0.0
 10
27.5383
 20
-1.0643
 30
0.0
  0
SPLINE
  5
61
330
1F
100
AcDbEntity
  8
VRSTVA_1
 62
   250
100
AcDbSpline
210
0.0
220
0.0
230
1.0
 70
    11
 71
     3
 72
    92
 73
    88
 74
     0
 42
0.0000000001
 43
0.0000000001
 40
0.0
 40
0.0
 40
0.0
 40
0.0
 40
0.0434782608695652
 40
0.0434782608695652
 40
0.0434782608695652
 40
0.0434782608695652
 40
0.0869565217391304
 40
0.0869565217391304
 40
0.0869565217391304
 40
0.0869565217391304
 40
0.1304347826086956
 40
0.1304347826086956
 40
0.1304347826086956
 40
0.1304347826086956
 40
0.1739130434782609
 40
0.1739130434782609
 40
0.1739130434782609
 40
0.1739130434782609
 40
0.2173913043478261
 40
0.2173913043478261
 40
0.2173913043478261
 40
0.2173913043478261
 40
0.2608695652173913
 40
0.2608695652173913
 40
0.2608695652173913
 40
0.2608695652173913
 40
0.3043478260869565
 40
0.3043478260869565
 40
0.3043478260869565
 40
0.3043478260869565
 40
0.3478260869565217
 40
0.3478260869565217
 40
0.3478260869565217
 40
0.3478260869565217
 40
0.391304347826087
 40
0.391304347826087
 40
0.391304347826087
 40
0.391304347826087
 40
0.4347826086956522
 40
0.4347826086956522
 40
0.4347826086956522
 40
0.4347826086956522
 40
0.4782608695652174
 40
0.4782608695652174
 40
0.4782608695652174
 40
0.4782608695652174
 40
0.5217391304347826
 40
0.5217391304347826
 40
0.5217391304347826
 40
0.5217391304347826
 40
0.5652173913043478
 40
0.5652173913043478
 40
0.5652173913043478
 40
0.5652173913043478
 40
0.6086956521739131
 40
0.6086956521739131
 40
0.6086956521739131
 40
0.6086956521739131
 40
0.6521739130434783
 40
0.6521739130434783
 40
0.6521739130434783
 40
0.6521739130434783
 40
0.6956521739130435
 40
0.6956521739130435
 40
0.6956521739130435
 40
0.6956521739130435
 40
0.7391304347826086
 40
0.7391304347826086
 40
0.7391304347826086
 40
0.7391304347826086
 40
0.782608695652174
 40
0.782608695652174
 40
0.782608695652174
 40
0.782608695652174
 40
0.8260869565217391
 40
0.8260869565217391
 40
0.8260869565217391
 40
0.8260869565217391
 40
0.8695652173913043
 40
0.8695652173913043
 40
0.8695652173913043
 40
0.8695652173913043
 40
0.9130434782608695
 40
0.9130434782608695
 40
0.9130434782608695
 40
0.9130434782608695
 40
1.0
 40
1.0
 40
1.0
 40
1.0
 10
27.3097
 20
-0.7614
 30
0.0
 10
27.3097
 20
-0.7614
 30
0.0
 10
27.2876
 20
-0.5229
 30
0.0
 10
27.2876
 20
-0.5229
 30
0.0
 10
27.2876
 20
-0.5229
 30
0.0
 10
27.3996
 20
-0.5027
 30
0.0
 10
27.4809
 20
-0.4641
 30
0.0
 10
27.5317
 20
-0.4072
 30
0.0
 10
27.5317
 20
-0.4072
 30
0.0
 10
27.5821
 20
-0.3503
 30
0.0
 10
27.6075
 20
-0.2774
 30
0.0
 10
27.6075
 20
-0.188
 30
0.0
 10
27.6075
 20
-0.188
 30
0.0
 10
27.6075
 20
-0.1118
 30
0.0
 10
27.5901
 20
-0.0451
 30
0.0
 10
27.5548
 20
0.0123
 30
0.0
 10
27.5548
 20
0.0123
 30
0.0
 10
27.52
 20
0.0697
 30
0.0
 10
27.4734
 20
0.1168
 30
0.0
 10
27.4151
 20
0.1534
 30
0.0
 10
27.4151
 20
0.1534
 30
0.0
 10
27.3568
 20
0.1906
 30
0.0
 10
27.2777
 20
0.2212
 30
0.0
 10
27.179
 20
0.2461
 30
0.0
 10
27.179
 20
0.2461
 30
0.0
 10
27.0797
 20
0.2706
 30
0.0
 10
26.9786
 20
0.2833
 30
0.0
 10
26.8756
 20
0.2833
 30
0.0
 10
26.8756
 20
0.2833
 30
0.0
 10
26.8648
 20
0.2833
 30
0.0
 10
26.8478
 20
0.2828
 30
0.0
 10
26.8262
 20
0.2819
 30
0.0
 10
26.8262
 20
0.2819
 30
0.0
 10
26.9047
 20
0.232
 30
0.0
 10
26.9692
 20
0.1643
 30
0.0
 10
27.0181
 20
0.0787
 30
0.0
 10
27.0181
 20
0.0787
 30
0.0
 10
27.0675
 20
-0.0074
 30
0.0
 10
27.0919
 20
-0.1006
 30
0.0
 10
27.0919
 20
-0.2003
 30
0.0
 10
27.0919
 20
-0.2003
 30
0.0
 10
27.0919
 20
-0.3677
 30
0.0
 10
27.0313
 20
-0.5093
 30
0.0
 10
26.9099
 20
-0.625
 30
0.0
 10
26.9099
 20
-0.625
 30
0.0
 10
26.7886
 20
-0.7407
 30
0.0
 10
26.6291
 20
-0.7986
 30
0.0
 10
26.4306
 20
-0.7986
 30
0.0
 10
26.4306
 20
-0.7986
 30
0.0
 10
26.2255
 20
-0.7986
 30
0.0
 10
26.0609
 20
-0.7384
 30
0.0
 10
25.9358
 20
-0.6175
 30
0.0
 10
25.9358
 20
-0.6175
 30
0.0
 10
25.8107
 20
-0.4966
 30
0.0
 10
25.7481
 20
-0.3451
 30
0.0
 10
25.7481
 20
-0.1631
 30
0.0
 10
25.7481
 20
-0.1631
 30
0.0
 10
25.7481
 20
-0.0319
 30
0.0
 10
25.7839
 20
0.0881
 30
0.0
 10
25.8544
 20
0.1972
 30
0.0
 10
25.8544
 20
0.1972
 30
0.0
 10
25.925
 20
0.3058
 30
0.0
 10
26.0261
 20
0.3886
 30
0.0
 10
26.1569
 20
0.4451
 30
0.0
 10
26.1569
 20
0.4451
 30
0.0
 10
26.2876
 20
0.5015
 30
0.0
 10
26.4772
 20
0.5297
 30
0.0
 10
26.7255
 20
0.5297
 30
0.0
 10
26.7255
 20
0.5297
 30
0.0
 10
26.9833
 20
0.5297
 30
0.0
 10
27.1888
 20
0.502
 30
0.0
 10
27.3422
 20
0.446
 30
0.0
 10
27.3422
 20
0.446
 30
0.0
 10
27.4951
 20
0.3896
 30
0.0
 10
27.6112
 20
0.3063
 30
0.0
 10
27.6912
 20
0.1958
 30
0.0
 10
27.6912
 20
0.1958
 30
0.0
 10
27.7712
 20
0.0848
 30
0.0
 10
27.8111
 20
-0.0446
 30
0.0
 10
27.8111
 20
-0.1937
 30
0.0
 10
27.8111
 20
-0.1937
 30
0.0
 10
27.8111
 20
-0.3517
 30
0.0
 10
27.7674
 20
-0.4806
 30
0.0
 10
27.6794
 20
-0.5808
 30
0.0
 10
27.6794
 20
-0.5808
 30
0.0
 10
27.5919
 20
-0.681
 30
0.0
 10
27.4687
 20
-0.7412
 30
0.0
 10
27.3097
 20
-0.7614
 30
0.0
  0
SPLINE
  5
62
330
1F
100
AcDbEntity
  8
VRSTVA_1
 62
   250
100
AcDbSpline
210
0.0
220
0.0
230
1.0
 70
    11
 71
     3
 72
    36
 73
    32
 74
     0
 42
0.0000000001
 43
0.0000000001
 40
0.0
 40
0.0
 40
0.0
 40
0.0
 40
0.1111111111111111
 40
0.1111111111111111
 40
0.1111111111111111
 40
0.1111111111111111
 40
0.2222222222222222
 40
0.2222222222222222
 40
0.2222222222222222
 40
0.2222222222222222
 40
0.3333333333333333
 40
0.3333333333333333
 40
0.3333333333333333
 40
0.3333333333333333
 40
0.4444444444444444
 40
0.4444444444444444
 40
0.4444444444444444
 40
0.4444444444444444
 40
0.5555555555555556
 40
0.5555555555555556
 40
0.5555555555555556
 40
0.5555555555555556
 40
0.6666666666666666
 40
0.6666666666666666
 40
0.6666666666666666
 40
0.6666666666666666
 40
0.7777777777777778
 40
0.7777777777777778
 40
0.7777777777777778
 40
0.7777777777777778
 40
1.0
 40
1.0
 40
1.0
 40
1.0
 10
26.4179
 20
0.2541
 30
0.0
 10
26.2759
 20
0.2541
 30
0.0
 10
26.1625
 20
0.2165
 30
0.0
 10
26.0792
 20
0.1407
 30
0.0
 10
26.0792
 20
0.1407
 30
0.0
 10
25.9955
 20
0.0645
 30
0.0
 10
25.9537
 20
-0.0262
 30
0.0
 10
25.9537
 20
-0.133
 30
0.0
 10
25.9537
 20
-0.133
 30
0.0
 10
25.9537
 20
-0.2431
 30
0.0
 10
25.9988
 20
-0.339
 30
0.0
 10
26.0887
 20
-0.4209
 30
0.0
 10
26.0887
 20
-0.4209
 30
0.0
 10
26.179
 20
-0.5027
 30
0.0
 10
26.2956
 20
-0.5436
 30
0.0
 10
26.4386
 20
-0.5436
 30
0.0
 10
26.4386
 20
-0.5436
 30
0.0
 10
26.5675
 20
-0.5436
 30
0.0
 10
26.6719
 20
-0.5046
 30
0.0
 10
26.7523
 20
-0.427
 30
0.0
 10
26.7523
 20
-0.427
 30
0.0
 10
26.8328
 20
-0.3494
 30
0.0
 10
26.8728
 20
-0.2539
 30
0.0
 10
26.8728
 20
-0.1401
 30
0.0
 10
26.8728
 20
-0.1401
 30
0.0
 10
26.8728
 20
-0.0248
 30
0.0
 10
26.8328
 20
0.0692
 30
0.0
 10
26.7523
 20
0.1431
 30
0.0
 10
26.7523
 20
0.1431
 30
0.0
 10
26.6719
 20
0.2174
 30
0.0
 10
26.5604
 20
0.2541
 30
0.0
 10
26.4179
 20
0.2541
 30
0.0
  0
SPLINE
  5
63
330
1F
100
AcDbEntity
  8
VRSTVA_1
 62
   250
100
AcDbSpline
210
0.0
220
0.0
230
1.0
 70
    11
 71
     3
 72
    92
 73
    88
 74
     0
 42
0.0000000001
 43
0.0000000001
 40
0.0
 40
0.0
 40
0.0
 40
0.0
 40
0.0434782608695652
 40
0.0434782608695652
 40
0.0434782608695652
 40
0.0434782608695652
 40
0.0869565217391304
 40
0.0869565217391304
 40
0.0869565217391304
 40
0.0869565217391304
 40
0.1304347826086956
 40
0.1304347826086956
 40
0.1304347826086956
 40
0.1304347826086956
 40
0.1739130434782609
 40
0.1739130434782609
 40
0.1739130434782609
 40
0.1739130434782609
 40
0.2173913043478261
 40
0.2173913043478261
 40
0.2173913043478261
 40
0.2173913043478261
 40
0.2608695652173913
 40
0.2608695652173913
 40
0.2608695652173913
 40
0.2608695652173913
 40
0.3043478260869565
 40
0.3043478260869565
 40
0.3043478260869565
 40
0.3043478260869565
 40
0.3478260869565217
 40
0.3478260869565217
 40
0.3478260869565217
 40
0.3478260869565217
 40
0.391304347826087
 40
0.391304347826087
 40
0.391304347826087
 40
0.391304347826087
 40
0.4347826086956522
 40
0.4347826086956522
 40
0.4347826086956522
 40
0.4347826086956522
 40
0.4782608695652174
 40
0.4782608695652174
 40
0.4782608695652174
 40
0.4782608695652174
 40
0.5217391304347826
 40
0.5217391304347826
 40
0.5217391304347826
 40
0.5217391304347826
 40
0.5652173913043478
 40
0.5652173913043478
 40
0.5652173913043478
 40
0.5652173913043478
 40
0.6086956521739131
 40
0.6086956521739131
 40
0.6086956521739131
 40
0.6086956521739131
 40
0.6521739130434783
 40
0.6521739130434783
 40
0.6521739130434783
 40
0.6521739130434783
 40
0.6956521739130435
 40
0.6956521739130435
 40
0.6956521739130435
 40
0.6956521739130435
 40
0.7391304347826086
 40
0.7391304347826086
 40
0.7391304347826086
 40
0.7391304347826086
 40
0.782608695652174
 40
0.782608695652174
 40
0.782608695652174
 40
0.782608695652174
 40
0.8260869565217391
 40
0.8260869565217391
 40
0.8260869565217391
 40
0.8260869565217391
 40
0.8695652173913043
 40
0.8695652173913043
 40
0.8695652173913043
 40
0.8695652173913043
 40
0.9130434782608695
 40
0.9130434782608695
 40
0.9130434782608695
 40
0.9130434782608695
 40
1.0
 40
1.0
 40
1.0
 40
1.0
 10
27.2476
 20
0.771
 30
0.0
 10
27.2476
 20
0.771
 30
0.0
 10
27.2255
 20
1.0316
 30
0.0
 10
27.2255
 20
1.0316
 30
0.0
 10
27.2255
 20
1.0316
 30
0.0
 10
27.3525
 20
1.0509
 30
0.0
 10
27.4475
 20
1.0956
 30
0.0
 10
27.5115
 20
1.1657
 30
0.0
 10
27.5115
 20
1.1657
 30
0.0
 10
27.5755
 20
1.2362
 30
0.0
 10
27.6075
 20
1.3209
 30
0.0
 10
27.6075
 20
1.4201
 30
0.0
 10
27.6075
 20
1.4201
 30
0.0
 10
27.6075
 20
1.5396
 30
0.0
 10
27.5623
 20
1.6407
 30
0.0
 10
27.4725
 20
1.723
 30
0.0
 10
27.4725
 20
1.723
 30
0.0
 10
27.3822
 20
1.8058
 30
0.0
 10
27.2627
 20
1.8472
 30
0.0
 10
27.1141
 20
1.8472
 30
0.0
 10
27.1141
 20
1.8472
 30
0.0
 10
26.9725
 20
1.8472
 30
0.0
 10
26.861
 20
1.8077
 30
0.0
 10
26.7792
 20
1.7282
 30
0.0
 10
26.7792
 20
1.7282
 30
0.0
 10
26.6973
 20
1.6487
 30
0.0
 10
26.6564
 20
1.5448
 30
0.0
 10
26.6564
 20
1.4159
 30
0.0
 10
26.6564
 20
1.4159
 30
0.0
 10
26.6564
 20
1.3359
 30
0.0
 10
26.6747
 20
1.264
 30
0.0
 10
26.7109
 20
1.1995
 30
0.0
 10
26.7109
 20
1.1995
 30
0.0
 10
26.7472
 20
1.1351
 30
0.0
 10
26.7942
 20
1.0848
 30
0.0
 10
26.8521
 20
1.0481
 30
0.0
 10
26.8521
 20
1.0481
 30
0.0
 10
26.8521
 20
1.0481
 30
0.0
 10
26.822
 20
0.8152
 30
0.0
 10
26.822
 20
0.8152
 30
0.0
 10
26.822
 20
0.8152
 30
0.0
 10
26.822
 20
0.8152
 30
0.0
 10
25.7843
 20
1.0109
 30
0.0
 10
25.7843
 20
1.0109
 30
0.0
 10
25.7843
 20
1.0109
 30
0.0
 10
25.7843
 20
1.0109
 30
0.0
 10
25.7843
 20
2.0156
 30
0.0
 10
25.7843
 20
2.0156
 30
0.0
 10
25.7843
 20
2.0156
 30
0.0
 10
25.7843
 20
2.0156
 30
0.0
 10
26.0214
 20
2.0156
 30
0.0
 10
26.0214
 20
2.0156
 30
0.0
 10
26.0214
 20
2.0156
 30
0.0
 10
26.0214
 20
2.0156
 30
0.0
 10
26.0214
 20
1.2094
 30
0.0
 10
26.0214
 20
1.2094
 30
0.0
 10
26.0214
 20
1.2094
 30
0.0
 10
26.0214
 20
1.2094
 30
0.0
 10
26.5642
 20
1.1003
 30
0.0
 10
26.5642
 20
1.1003
 30
0.0
 10
26.5642
 20
1.1003
 30
0.0
 10
26.4795
 20
1.2216
 30
0.0
 10
26.4372
 20
1.3491
 30
0.0
 10
26.4372
 20
1.4822
 30
0.0
 10
26.4372
 20
1.4822
 30
0.0
 10
26.4372
 20
1.6586
 30
0.0
 10
26.4983
 20
1.8072
 30
0.0
 10
26.6206
 20
1.9286
 30
0.0
 10
26.6206
 20
1.9286
 30
0.0
 10
26.7429
 20
2.0499
 30
0.0
 10
26.9
 20
2.1106
 30
0.0
 10
27.0919
 20
2.1106
 30
0.0
 10
27.0919
 20
2.1106
 30
0.0
 10
27.2749
 20
2.1106
 30
0.0
 10
27.433
 20
2.057
 30
0.0
 10
27.5661
 20
1.9507
 30
0.0
 10
27.5661
 20
1.9507
 30
0.0
 10
27.7293
 20
1.8209
 30
0.0
 10
27.8111
 20
1.644
 30
0.0
 10
27.8111
 20
1.4201
 30
0.0
 10
27.8111
 20
1.4201
 30
0.0
 10
27.8111
 20
1.2362
 30
0.0
 10
27.7599
 20
1.0862
 30
0.0
 10
27.6569
 20
0.97
 30
0.0
 10
27.6569
 20
0.97
 30
0.0
 10
27.5538
 20
0.8538
 30
0.0
 10
27.4174
 20
0.7875
 30
0.0
 10
27.2476
 20
0.771
 30
0.0
  0
SPLINE
  5
64
330
1F
100
AcDbEntity
  8
VRSTVA_1
 62
   250
100
AcDbSpline
210
0.0
220
0.0
230
1.0
 70
    11
 71
     3
 72
    20
 73
    16
 74
     0
 42
0.0000000001
 43
0.0000000001
 40
0.0
 40
0.0
 40
0.0
 40
0.0
 40
0.2
 40
0.2
 40
0.2
 40
0.2
 40
0.4
 40
0.4
 40
0.4
 40
0.4
 40
0.6
 40
0.6
 40
0.6
 40
0.6
 40
1.0
 40
1.0
 40
1.0
 40
1.0
 10
28.278
 20
-19.6486
 30
0.0
 10
28.278
 20
-19.6486
 30
0.0
 10
28.6867
 20
-16.8494
 30
0.0
 10
28.6867
 20
-16.8494
 30
0.0
 10
28.6867
 20
-16.8494
 30
0.0
 10
28.6867
 20
-16.8494
 30
0.0
 10
27.7845
 20
-16.8494
 30
0.0
 10
27.7845
 20
-16.8494
 30
0.0
 10
27.7845
 20
-16.8494
 30
0.0
 10
27.7845
 20
-16.8494
 30
0.0
 10
28.2767
 20
-19.6486
 30
0.0
 10
28.2767
 20
-19.6486
 30
0.0
 10
28.2767
 20
-19.6486
 30
0.0
 10
28.2767
 20
-19.6486
 30
0.0
 10
28.278
 20
-19.6486
 30
0.0
 10
28.278
 20
-19.6486
 30
0.0
  0
SPLINE
  5
65
330
1F
100
AcDbEntity
  8
VRSTVA_1
 62
   250
100
AcDbSpline
210
0.0
220
0.0
230
1.0
 70
    11
 71
     3
 72
    20
 73
    16
 74
     0
 42
0.0000000001
 43
0.0000000001
 40
0.0
 40
0.0
 40
0.0
 40
0.0
 40
0.2
 40
0.2
 40
0.2
 40
0.2
 40
0.4
 40
0.4
 40
0.4
 40
0.4
 40
0.6
 40
0.6
 40
0.6
 40
0.6
 40
1.0
 40
1.0
 40
1.0
 40
1.0
 10
28.2715
 20
19.8289
 30
0.0
 10
28.2715
 20
19.8289
 30
0.0
 10
27.8628
 20
17.0297
 30
0.0
 10
27.8628
 20
17.0297
 30
0.0
 10
27.8628
 20
17.0297
 30
0.0
 10
27.8628
 20
17.0297
 30
0.0
 10
28.765
 20
17.0297
 30
0.0
 10
28.765
 20
17.0297
 30
0.0
 10
28.765
 20
17.0297
 30
0.0
 10
28.765
 20
17.0297
 30
0.0
 10
28.2727
 20
19.8289
 30
0.0
 10
28.2727
 20
19.8289
 30
0.0
 10
28.2727
 20
19.8289
 30
0.0
 10
28.2727
 20
19.8289
 30
0.0
 10
28.2715
 20
19.8289
 30
0.0
 10
28.2715
 20
19.8289
 30
0.0
  0
SPLINE
  5
66
330
1F
100
AcDbEntity
  8
VRSTVA_1
 62
   250
100
AcDbSpline
210
0.0
220
0.0
230
1.0
 70
    24
 71
     3
 72
     8
 73
     4
 74
     0
 42
0.0000000001
 43
0.0000000001
 40
0.0
 40
0.0
 40
0.0
 40
0.0
 40
1.0
 40
1.0
 40
1.0
 40
1.0
 10
28.284
 20
19.6384
 30
0.0
 10
28.284
 20
19.6384
 30
0.0
 10
28.284
 20
-19.0883
 30
0.0
 10
28.284
 20
-19.0883
 30
0.0
  0
SPLINE
  5
67
330
1F
100
AcDbEntity
  8
VRSTVA_1
 62
   250
100
AcDbSpline
210
0.0
220
0.0
230
1.0
 70
    24
 71
     3
 72
     8
 73
     4
 74
     0
 42
0.0000000001
 43
0.0000000001
 40
0.0
 40
0.0
 40
0.0
 40
0.0
 40
1.0
 40
1.0
 40
1.0
 40
1.0
 10
29.0505
 20
-19.8543
 30
0.0
 10
29.0505
 20
-19.8543
 30
0.0
 10
0.0162
 20
-19.8543
 30
0.0
 10
0.0162
 20
-19.8543
 30
0.0
  0
SPLINE
  5
68
330
1F
100
AcDbEntity
  8
VRSTVA_1
 62
   250
100
AcDbSpline
210
0.0
220
0.0
230
1.0
 70
    24
 71
     3
 72
     8
 73
     4
 74
     0
 42
0.0000000001
 43
0.0000000001
 40
0.0
 40
0.0
 40
0.0
 40
0.0
 40
1.0
 40
1.0
 40
1.0
 40
1.0
 10
28.8052
 20
19.9217
 30
0.0
 10
28.8052
 20
19.9217
 30
0.0
 10
1.34
 20
19.9217
 30
0.0
 10
1.34
 20
19.9217
 30
0.0
  0
SPLINE
  5
69
330
1F
100
AcDbEntity
  8
VRSTVA_1
 62
   250
100
AcDbSpline
210
0.0
220
0.0
230
1.0
 70
    11
 71
     3
 72
    48
 73
    44
 74
     0
 42
0.0000000001
 43
0.0000000001
 40
0.0
 40
0.0
 40
0.0
 40
0.0
 40
0.0833333333333333
 40
0.0833333333333333
 40
0.0833333333333333
 40
0.0833333333333333
 40
0.1666666666666667
 40
0.1666666666666667
 40
0.1666666666666667
 40
0.1666666666666667
 40
0.25
 40
0.25
 40
0.25
 40
0.25
 40
0.3333333333333333
 40
0.3333333333333333
 40
0.3333333333333333
 40
0.3333333333333333
 40
0.4166666666666667
 40
0.4166666666666667
 40
0.4166666666666667
 40
0.4166666666666667
 40
0.5
 40
0.5
 40
0.5
 40
0.5
 40
0.5833333333333334
 40
0.5833333333333334
 40
0.5833333333333334
 40
0.5833333333333334
 40
0.6666666666666666
 40
0.6666666666666666
 40
0.6666666666666666
 40
0.6666666666666666
 40
0.75
 40
0.75
 40
0.75
 40
0.75
 40
0.8333333333333334
 40
0.8333333333333334
 40
0.8333333333333334
 40
0.8333333333333334
 40
1.0
 40
1.0
 40
1.0
 40
1.0
 10
32.6235
 20
-5.2121
 30
0.0
 10
32.6235
 20
-5.2121
 30
0.0
 10
32.14
 20
-5.2121
 30
0.0
 10
32.14
 20
-5.2121
 30
0.0
 10
32.14
 20
-5.2121
 30
0.0
 10
32.14
 20
-5.2121
 30
0.0
 10
32.14
 20
-6.0884
 30
0.0
 10
32.14
 20
-6.0884
 30
0.0
 10
32.14
 20
-6.0884
 30
0.0
 10
32.14
 20
-6.0884
 30
0.0
 10
31.9123
 20
-6.0884
 30
0.0
 10
31.9123
 20
-6.0884
 30
0.0
 10
31.9123
 20
-6.0884
 30
0.0
 10
31.9123
 20
-6.0884
 30
0.0
 10
30.6033
 20
-5.1664
 30
0.0
 10
30.6033
 20
-5.1664
 30
0.0
 10
30.6033
 20
-5.1664
 30
0.0
 10
30.6033
 20
-5.1664
 30
0.0
 10
30.6033
 20
-4.9637
 30
0.0
 10
30.6033
 20
-4.9637
 30
0.0
 10
30.6033
 20
-4.9637
 30
0.0
 10
30.6033
 20
-4.9637
 30
0.0
 10
31.9123
 20
-4.9637
 30
0.0
 10
31.9123
 20
-4.9637
 30
0.0
 10
31.9123
 20
-4.9637
 30
0.0
 10
31.9123
 20
-4.9637
 30
0.0
 10
31.9123
 20
-4.6909
 30
0.0
 10
31.9123
 20
-4.6909
 30
0.0
 10
31.9123
 20
-4.6909
 30
0.0
 10
31.9123
 20
-4.6909
 30
0.0
 10
32.14
 20
-4.6909
 30
0.0
 10
32.14
 20
-4.6909
 30
0.0
 10
32.14
 20
-4.6909
 30
0.0
 10
32.14
 20
-4.6909
 30
0.0
 10
32.14
 20
-4.9637
 30
0.0
 10
32.14
 20
-4.9637
 30
0.0
 10
32.14
 20
-4.9637
 30
0.0
 10
32.14
 20
-4.9637
 30
0.0
 10
32.6235
 20
-4.9637
 30
0.0
 10
32.6235
 20
-4.9637
 30
0.0
 10
32.6235
 20
-4.9637
 30
0.0
 10
32.6235
 20
-4.9637
 30
0.0
 10
32.6235
 20
-5.2121
 30
0.0
 10
32.6235
 20
-5.2121
 30
0.0
  0
SPLINE
  5
6A
330
1F
100
AcDbEntity
  8
VRSTVA_1
 62
   250
100
AcDbSpline
210
0.0
220
0.0
230
1.0
 70
    11
 71
     3
 72
    16
 73
    12
 74
     0
 42
0.0000000001
 43
0.0000000001
 40
0.0
 40
0.0
 40
0.0
 40
0.0
 40
0.25
 40
0.25
 40
0.25
 40
0.25
 40
0.5
 40
0.5
 40
0.5
 40
0.5
 40
1.0
 40
1.0
 40
1.0
 40
1.0
 10
31.9123
 20
-5.2121
 30
0.0
 10
31.9123
 20
-5.2121
 30
0.0
 10
31.0017
 20
-5.2121
 30
0.0
 10
31.0017
 20
-5.2121
 30
0.0
 10
31.0017
 20
-5.2121
 30
0.0
 10
31.0017
 20
-5.2121
 30
0.0
 10
31.9123
 20
-5.8442
 30
0.0
 10
31.9123
 20
-5.8442
 30
0.0
 10
31.9123
 20
-5.8442
 30
0.0
 10
31.9123
 20
-5.8442
 30
0.0
 10
31.9123
 20
-5.2121
 30
0.0
 10
31.9123
 20
-5.2121
 30
0.0
  0
SPLINE
  5
6B
330
1F
100
AcDbEntity
  8
VRSTVA_1
 62
   250
100
AcDbSpline
210
0.0
220
0.0
230
1.0
 70
    11
 71
     3
 72
    92
 73
    88
 74
     0
 42
0.0000000001
 43
0.0000000001
 40
0.0
 40
0.0
 40
0.0
 40
0.0
 40
0.0434782608695652
 40
0.0434782608695652
 40
0.0434782608695652
 40
0.0434782608695652
 40
0.0869565217391304
 40
0.0869565217391304
 40
0.0869565217391304
 40
0.0869565217391304
 40
0.1304347826086956
 40
0.1304347826086956
 40
0.1304347826086956
 40
0.1304347826086956
 40
0.1739130434782609
 40
0.1739130434782609
 40
0.1739130434782609
 40
0.1739130434782609
 40
0.2173913043478261
 40
0.2173913043478261
 40
0.2173913043478261
 40
0.2173913043478261
 40
0.2608695652173913
 40
0.2608695652173913
 40
0.2608695652173913
 40
0.2608695652173913
 40
0.3043478260869565
 40
0.3043478260869565
 40
0.3043478260869565
 40
0.3043478260869565
 40
0.3478260869565217
 40
0.3478260869565217
 40
0.3478260869565217
 40
0.3478260869565217
 40
0.391304347826087
 40
0.391304347826087
 40
0.391304347826087
 40
0.391304347826087
 40
0.4347826086956522
 40
0.4347826086956522
 40
0.4347826086956522
 40
0.4347826086956522
 40
0.4782608695652174
 40
0.4782608695652174
 40
0.4782608695652174
 40
0.4782608695652174
 40
0.5217391304347826
 40
0.5217391304347826
 40
0.5217391304347826
 40
0.5217391304347826
 40
0.5652173913043478
 40
0.5652173913043478
 40
0.5652173913043478
 40
0.5652173913043478
 40
0.6086956521739131
 40
0.6086956521739131
 40
0.6086956521739131
 40
0.6086956521739131
 40
0.6521739130434783
 40
0.6521739130434783
 40
0.6521739130434783
 40
0.6521739130434783
 40
0.6956521739130435
 40
0.6956521739130435
 40
0.6956521739130435
 40
0.6956521739130435
 40
0.7391304347826086
 40
0.7391304347826086
 40
0.7391304347826086
 40
0.7391304347826086
 40
0.782608695652174
 40
0.782608695652174
 40
0.782608695652174
 40
0.782608695652174
 40
0.8260869565217391
 40
0.8260869565217391
 40
0.8260869565217391
 40
0.8260869565217391
 40
0.8695652173913043
 40
0.8695652173913043
 40
0.8695652173913043
 40
0.8695652173913043
 40
0.9130434782608695
 40
0.9130434782608695
 40
0.9130434782608695
 40
0.9130434782608695
 40
1.0
 40
1.0
 40
1.0
 40
1.0
 10
32.0943
 20
-4.4374
 30
0.0
 10
32.0943
 20
-4.4374
 30
0.0
 10
32.0722
 20
-4.1768
 30
0.0
 10
32.0722
 20
-4.1768
 30
0.0
 10
32.0722
 20
-4.1768
 30
0.0
 10
32.1992
 20
-4.1575
 30
0.0
 10
32.2942
 20
-4.1128
 30
0.0
 10
32.3582
 20
-4.0427
 30
0.0
 10
32.3582
 20
-4.0427
 30
0.0
 10
32.4222
 20
-3.9722
 30
0.0
 10
32.4542
 20
-3.8875
 30
0.0
 10
32.4542
 20
-3.7883
 30
0.0
 10
32.4542
 20
-3.7883
 30
0.0
 10
32.4542
 20
-3.6688
 30
0.0
 10
32.409
 20
-3.5677
 30
0.0
 10
32.3192
 20
-3.4854
 30
0.0
 10
32.3192
 20
-3.4854
 30
0.0
 10
32.2289
 20
-3.4026
 30
0.0
 10
32.1094
 20
-3.3612
 30
0.0
 10
31.9608
 20
-3.3612
 30
0.0
 10
31.9608
 20
-3.3612
 30
0.0
 10
31.8192
 20
-3.3612
 30
0.0
 10
31.7077
 20
-3.4007
 30
0.0
 10
31.6259
 20
-3.4802
 30
0.0
 10
31.6259
 20
-3.4802
 30
0.0
 10
31.544
 20
-3.5597
 30
0.0
 10
31.5031
 20
-3.6636
 30
0.0
 10
31.5031
 20
-3.7925
 30
0.0
 10
31.5031
 20
-3.7925
 30
0.0
 10
31.5031
 20
-3.8725
 30
0.0
 10
31.5214
 20
-3.9444
 30
0.0
 10
31.5576
 20
-4.0089
 30
0.0
 10
31.5576
 20
-4.0089
 30
0.0
 10
31.5939
 20
-4.0733
 30
0.0
 10
31.6409
 20
-4.1236
 30
0.0
 10
31.6988
 20
-4.1603
 30
0.0
 10
31.6988
 20
-4.1603
 30
0.0
 10
31.6988
 20
-4.1603
 30
0.0
 10
31.6687
 20
-4.3932
 30
0.0
 10
31.6687
 20
-4.3932
 30
0.0
 10
31.6687
 20
-4.3932
 30
0.0
 10
31.6687
 20
-4.3932
 30
0.0
 10
30.631
 20
-4.1975
 30
0.0
 10
30.631
 20
-4.1975
 30
0.0
 10
30.631
 20
-4.1975
 30
0.0
 10
30.631
 20
-4.1975
 30
0.0
 10
30.631
 20
-3.1928
 30
0.0
 10
30.631
 20
-3.1928
 30
0.0
 10
30.631
 20
-3.1928
 30
0.0
 10
30.631
 20
-3.1928
 30
0.0
 10
30.8681
 20
-3.1928
 30
0.0
 10
30.8681
 20
-3.1928
 30
0.0
 10
30.8681
 20
-3.1928
 30
0.0
 10
30.8681
 20
-3.1928
 30
0.0
 10
30.8681
 20
-3.999
 30
0.0
 10
30.8681
 20
-3.999
 30
0.0
 10
30.8681
 20
-3.999
 30
0.0
 10
30.8681
 20
-3.999
 30
0.0
 10
31.4109
 20
-4.1081
 30
0.0
 10
31.4109
 20
-4.1081
 30
0.0
 10
31.4109
 20
-4.1081
 30
0.0
 10
31.3262
 20
-3.9868
 30
0.0
 10
31.2839
 20
-3.8593
 30
0.0
 10
31.2839
 20
-3.7262
 30
0.0
 10
31.2839
 20
-3.7262
 30
0.0
 10
31.2839
 20
-3.5498
 30
0.0
 10
31.345
 20
-3.4012
 30
0.0
 10
31.4673
 20
-3.2798
 30
0.0
 10
31.4673
 20
-3.2798
 30
0.0
 10
31.5896
 20
-3.1585
 30
0.0
 10
31.7467
 20
-3.0978
 30
0.0
 10
31.9386
 20
-3.0978
 30
0.0
 10
31.9386
 20
-3.0978
 30
0.0
 10
32.1216
 20
-3.0978
 30
0.0
 10
32.2797
 20
-3.1514
 30
0.0
 10
32.4128
 20
-3.2577
 30
0.0
 10
32.4128
 20
-3.2577
 30
0.0
 10
32.576
 20
-3.3875
 30
0.0
 10
32.6578
 20
-3.5644
 30
0.0
 10
32.6578
 20
-3.7883
 30
0.0
 10
32.6578
 20
-3.7883
 30
0.0
 10
32.6578
 20
-3.9722
 30
0.0
 10
32.6066
 20
-4.1222
 30
0.0
 10
32.5036
 20
-4.2384
 30
0.0
 10
32.5036
 20
-4.2384
 30
0.0
 10
32.4005
 20
-4.3546
 30
0.0
 10
32.2641
 20
-4.4209
 30
0.0
 10
32.0943
 20
-4.4374
 30
0.0
  0
SPLINE
  5
6C
330
1F
100
AcDbEntity
  8
VRSTVA_1
 62
   250
100
AcDbSpline
210
0.0
220
0.0
230
1.0
 70
    11
 71
     3
 72
    52
 73
    48
 74
     0
 42
0.0000000001
 43
0.0000000001
 40
0.0
 40
0.0
 40
0.0
 40
0.0
 40
0.0769230769230769
 40
0.0769230769230769
 40
0.0769230769230769
 40
0.0769230769230769
 40
0.1538461538461539
 40
0.1538461538461539
 40
0.1538461538461539
 40
0.1538461538461539
 40
0.2307692307692308
 40
0.2307692307692308
 40
0.2307692307692308
 40
0.2307692307692308
 40
0.3076923076923077
 40
0.3076923076923077
 40
0.3076923076923077
 40
0.3076923076923077
 40
0.3846153846153846
 40
0.3846153846153846
 40
0.3846153846153846
 40
0.3846153846153846
 40
0.4615384615384616
 40
0.4615384615384616
 40
0.4615384615384616
 40
0.4615384615384616
 40
0.5384615384615384
 40
0.5384615384615384
 40
0.5384615384615384
 40
0.5384615384615384
 40
0.6153846153846154
 40
0.6153846153846154
 40
0.6153846153846154
 40
0.6153846153846154
 40
0.6923076923076923
 40
0.6923076923076923
 40
0.6923076923076923
 40
0.6923076923076923
 40
0.7692307692307693
 40
0.7692307692307693
 40
0.7692307692307693
 40
0.7692307692307693
 40
0.8461538461538461
 40
0.8461538461538461
 40
0.8461538461538461
 40
0.8461538461538461
 40
1.0
 40
1.0
 40
1.0
 40
1.0
 10
31.6273
 20
-2.8678
 30
0.0
 10
31.3883
 20
-2.8678
 30
0.0
 10
31.1959
 20
-2.8433
 30
0.0
 10
31.0506
 20
-2.7939
 30
0.0
 10
31.0506
 20
-2.7939
 30
0.0
 10
30.9048
 20
-2.745
 30
0.0
 10
30.7924
 20
-2.6716
 30
0.0
 10
30.7133
 20
-2.5747
 30
0.0
 10
30.7133
 20
-2.5747
 30
0.0
 10
30.6343
 20
-2.4778
 30
0.0
 10
30.5948
 20
-2.356
 30
0.0
 10
30.5948
 20
-2.2093
 30
0.0
 10
30.5948
 20
-2.2093
 30
0.0
 10
30.5948
 20
-2.1006
 30
0.0
 10
30.6169
 20
-2.0056
 30
0.0
 10
30.6607
 20
-1.9238
 30
0.0
 10
30.6607
 20
-1.9238
 30
0.0
 10
30.7039
 20
-1.8419
 30
0.0
 10
30.767
 20
-1.7746
 30
0.0
 10
30.8493
 20
-1.721
 30
0.0
 10
30.8493
 20
-1.721
 30
0.0
 10
30.9316
 20
-1.6679
 30
0.0
 10
31.0318
 20
-1.626
 30
0.0
 10
31.1498
 20
-1.5959
 30
0.0
 10
31.1498
 20
-1.5959
 30
0.0
 10
31.2679
 20
-1.5653
 30
0.0
 10
31.4269
 20
-1.5503
 30
0.0
 10
31.6273
 20
-1.5503
 30
0.0
 10
31.6273
 20
-1.5503
 30
0.0
 10
31.8643
 20
-1.5503
 30
0.0
 10
32.0553
 20
-1.5747
 30
0.0
 10
32.2011
 20
-1.6232
 30
0.0
 10
32.2011
 20
-1.6232
 30
0.0
 10
32.3469
 20
-1.6721
 30
0.0
 10
32.4593
 20
-1.745
 30
0.0
 10
32.5388
 20
-1.8419
 30
0.0
 10
32.5388
 20
-1.8419
 30
0.0
 10
32.6183
 20
-1.9388
 30
0.0
 10
32.6578
 20
-2.0611
 30
0.0
 10
32.6578
 20
-2.2093
 30
0.0
 10
32.6578
 20
-2.2093
 30
0.0
 10
32.6578
 20
-2.404
 30
0.0
 10
32.5882
 20
-2.5569
 30
0.0
 10
32.4485
 20
-2.6679
 30
0.0
 10
32.4485
 20
-2.6679
 30
0.0
 10
32.2806
 20
-2.801
 30
0.0
 10
32.0064
 20
-2.8678
 30
0.0
 10
31.6273
 20
-2.8678
 30
0.0
  0
SPLINE
  5
6D
330
1F
100
AcDbEntity
  8
VRSTVA_1
 62
   250
100
AcDbSpline
210
0.0
220
0.0
230
1.0
 70
    11
 71
     3
 72
    36
 73
    32
 74
     0
 42
0.0000000001
 43
0.0000000001
 40
0.0
 40
0.0
 40
0.0
 40
0.0
 40
0.1111111111111111
 40
0.1111111111111111
 40
0.1111111111111111
 40
0.1111111111111111
 40
0.2222222222222222
 40
0.2222222222222222
 40
0.2222222222222222
 40
0.2222222222222222
 40
0.3333333333333333
 40
0.3333333333333333
 40
0.3333333333333333
 40
0.3333333333333333
 40
0.4444444444444444
 40
0.4444444444444444
 40
0.4444444444444444
 40
0.4444444444444444
 40
0.5555555555555556
 40
0.5555555555555556
 40
0.5555555555555556
 40
0.5555555555555556
 40
0.6666666666666666
 40
0.6666666666666666
 40
0.6666666666666666
 40
0.6666666666666666
 40
0.7777777777777778
 40
0.7777777777777778
 40
0.7777777777777778
 40
0.7777777777777778
 40
1.0
 40
1.0
 40
1.0
 40
1.0
 10
31.6273
 20
-2.6128
 30
0.0
 10
31.9589
 20
-2.6128
 30
0.0
 10
32.1795
 20
-2.5738
 30
0.0
 10
32.2895
 20
-2.4962
 30
0.0
 10
32.2895
 20
-2.4962
 30
0.0
 10
32.3991
 20
-2.4186
 30
0.0
 10
32.4542
 20
-2.3231
 30
0.0
 10
32.4542
 20
-2.2093
 30
0.0
 10
32.4542
 20
-2.2093
 30
0.0
 10
32.4542
 20
-2.095
 30
0.0
 10
32.3987
 20
-1.9995
 30
0.0
 10
32.2886
 20
-1.9219
 30
0.0
 10
32.2886
 20
-1.9219
 30
0.0
 10
32.1785
 20
-1.8443
 30
0.0
 10
31.9579
 20
-1.8052
 30
0.0
 10
31.6273
 20
-1.8052
 30
0.0
 10
31.6273
 20
-1.8052
 30
0.0
 10
31.2947
 20
-1.8052
 30
0.0
 10
31.0736
 20
-1.8443
 30
0.0
 10
30.9645
 20
-1.9219
 30
0.0
 10
30.9645
 20
-1.9219
 30
0.0
 10
30.8549
 20
-1.9995
 30
0.0
 10
30.8004
 20
-2.0959
 30
0.0
 10
30.8004
 20
-2.2116
 30
0.0
 10
30.8004
 20
-2.2116
 30
0.0
 10
30.8004
 20
-2.3259
 30
0.0
 10
30.8488
 20
-2.4167
 30
0.0
 10
30.9452
 20
-2.4849
 30
0.0
 10
30.9452
 20
-2.4849
 30
0.0
 10
31.068
 20
-2.57
 30
0.0
 10
31.2957
 20
-2.6128
 30
0.0
 10
31.6273
 20
-2.6128
 30
0.0
  0
SPLINE
  5
6E
330
1F
100
AcDbEntity
  8
VRSTVA_1
 62
   250
100
AcDbSpline
210
0.0
220
0.0
230
1.0
 70
    11
 71
     3
 72
    52
 73
    48
 74
     0
 42
0.0000000001
 43
0.0000000001
 40
0.0
 40
0.0
 40
0.0
 40
0.0
 40
0.0769230769230769
 40
0.0769230769230769
 40
0.0769230769230769
 40
0.0769230769230769
 40
0.1538461538461539
 40
0.1538461538461539
 40
0.1538461538461539
 40
0.1538461538461539
 40
0.2307692307692308
 40
0.2307692307692308
 40
0.2307692307692308
 40
0.2307692307692308
 40
0.3076923076923077
 40
0.3076923076923077
 40
0.3076923076923077
 40
0.3076923076923077
 40
0.3846153846153846
 40
0.3846153846153846
 40
0.3846153846153846
 40
0.3846153846153846
 40
0.4615384615384616
 40
0.4615384615384616
 40
0.4615384615384616
 40
0.4615384615384616
 40
0.5384615384615384
 40
0.5384615384615384
 40
0.5384615384615384
 40
0.5384615384615384
 40
0.6153846153846154
 40
0.6153846153846154
 40
0.6153846153846154
 40
0.6153846153846154
 40
0.6923076923076923
 40
0.6923076923076923
 40
0.6923076923076923
 40
0.6923076923076923
 40
0.7692307692307693
 40
0.7692307692307693
 40
0.7692307692307693
 40
0.7692307692307693
 40
0.8461538461538461
 40
0.8461538461538461
 40
0.8461538461538461
 40
0.8461538461538461
 40
1.0
 40
1.0
 40
1.0
 40
1.0
 10
32.2651
 20
0.0259
 30
0.0
 10
32.2651
 20
0.0259
 30
0.0
 10
31.71
 20
0.0259
 30
0.0
 10
31.71
 20
0.0259
 30
0.0
 10
31.71
 20
0.0259
 30
0.0
 10
31.71
 20
0.0259
 30
0.0
 10
31.71
 20
-0.5235
 30
0.0
 10
31.71
 20
-0.5235
 30
0.0
 10
31.71
 20
-0.5235
 30
0.0
 10
31.71
 20
-0.5235
 30
0.0
 10
31.4796
 20
-0.5235
 30
0.0
 10
31.4796
 20
-0.5235
 30
0.0
 10
31.4796
 20
-0.5235
 30
0.0
 10
31.4796
 20
-0.5235
 30
0.0
 10
31.4796
 20
0.0259
 30
0.0
 10
31.4796
 20
0.0259
 30
0.0
 10
31.4796
 20
0.0259
 30
0.0
 10
31.4796
 20
0.0259
 30
0.0
 10
30.9297
 20
0.0259
 30
0.0
 10
30.9297
 20
0.0259
 30
0.0
 10
30.9297
 20
0.0259
 30
0.0
 10
30.9297
 20
0.0259
 30
0.0
 10
30.9297
 20
0.2606
 30
0.0
 10
30.9297
 20
0.2606
 30
0.0
 10
30.9297
 20
0.2606
 30
0.0
 10
30.9297
 20
0.2606
 30
0.0
 10
31.4796
 20
0.2606
 30
0.0
 10
31.4796
 20
0.2606
 30
0.0
 10
31.4796
 20
0.2606
 30
0.0
 10
31.4796
 20
0.2606
 30
0.0
 10
31.4796
 20
0.81
 30
0.0
 10
31.4796
 20
0.81
 30
0.0
 10
31.4796
 20
0.81
 30
0.0
 10
31.4796
 20
0.81
 30
0.0
 10
31.71
 20
0.81
 30
0.0
 10
31.71
 20
0.81
 30
0.0
 10
31.71
 20
0.81
 30
0.0
 10
31.71
 20
0.81
 30
0.0
 10
31.71
 20
0.2606
 30
0.0
 10
31.71
 20
0.2606
 30
0.0
 10
31.71
 20
0.2606
 30
0.0
 10
31.71
 20
0.2606
 30
0.0
 10
32.2651
 20
0.2606
 30
0.0
 10
32.2651
 20
0.2606
 30
0.0
 10
32.2651
 20
0.2606
 30
0.0
 10
32.2651
 20
0.2606
 30
0.0
 10
32.2651
 20
0.0259
 30
0.0
 10
32.2651
 20
0.0259
 30
0.0
  0
SPLINE
  5
6F
330
1F
100
AcDbEntity
  8
VRSTVA_1
 62
   250
100
AcDbSpline
210
0.0
220
0.0
230
1.0
 70
    11
 71
     3
 72
    20
 73
    16
 74
     0
 42
0.0000000001
 43
0.0000000001
 40
0.0
 40
0.0
 40
0.0
 40
0.0
 40
0.2
 40
0.2
 40
0.2
 40
0.2
 40
0.4
 40
0.4
 40
0.4
 40
0.4
 40
0.6
 40
0.6
 40
0.6
 40
0.6
 40
1.0
 40
1.0
 40
1.0
 40
1.0
 10
32.6235
 20
0.81
 30
0.0
 10
32.6235
 20
0.81
 30
0.0
 10
32.6235
 20
-0.5235
 30
0.0
 10
32.6235
 20
-0.5235
 30
0.0
 10
32.6235
 20
-0.5235
 30
0.0
 10
32.6235
 20
-0.5235
 30
0.0
 10
32.3921
 20
-0.5235
 30
0.0
 10
32.3921
 20
-0.5235
 30
0.0
 10
32.3921
 20
-0.5235
 30
0.0
 10
32.3921
 20
-0.5235
 30
0.0
 10
32.3921
 20
0.81
 30
0.0
 10
32.3921
 20
0.81
 30
0.0
 10
32.3921
 20
0.81
 30
0.0
 10
32.3921
 20
0.81
 30
0.0
 10
32.6235
 20
0.81
 30
0.0
 10
32.6235
 20
0.81
 30
0.0
  0
SPLINE
  5
70
330
1F
100
AcDbEntity
  8
VRSTVA_1
 62
   250
100
AcDbSpline
210
0.0
220
0.0
230
1.0
 70
    11
 71
     3
 72
    92
 73
    88
 74
     0
 42
0.0000000001
 43
0.0000000001
 40
0.0
 40
0.0
 40
0.0
 40
0.0
 40
0.0434782608695652
 40
0.0434782608695652
 40
0.0434782608695652
 40
0.0434782608695652
 40
0.0869565217391304
 40
0.0869565217391304
 40
0.0869565217391304
 40
0.0869565217391304
 40
0.1304347826086956
 40
0.1304347826086956
 40
0.1304347826086956
 40
0.1304347826086956
 40
0.1739130434782609
 40
0.1739130434782609
 40
0.1739130434782609
 40
0.1739130434782609
 40
0.2173913043478261
 40
0.2173913043478261
 40
0.2173913043478261
 40
0.2173913043478261
 40
0.2608695652173913
 40
0.2608695652173913
 40
0.2608695652173913
 40
0.2608695652173913
 40
0.3043478260869565
 40
0.3043478260869565
 40
0.3043478260869565
 40
0.3043478260869565
 40
0.3478260869565217
 40
0.3478260869565217
 40
0.3478260869565217
 40
0.3478260869565217
 40
0.391304347826087
 40
0.391304347826087
 40
0.391304347826087
 40
0.391304347826087
 40
0.4347826086956522
 40
0.4347826086956522
 40
0.4347826086956522
 40
0.4347826086956522
 40
0.4782608695652174
 40
0.4782608695652174
 40
0.4782608695652174
 40
0.4782608695652174
 40
0.5217391304347826
 40
0.5217391304347826
 40
0.5217391304347826
 40
0.5217391304347826
 40
0.5652173913043478
 40
0.5652173913043478
 40
0.5652173913043478
 40
0.5652173913043478
 40
0.6086956521739131
 40
0.6086956521739131
 40
0.6086956521739131
 40
0.6086956521739131
 40
0.6521739130434783
 40
0.6521739130434783
 40
0.6521739130434783
 40
0.6521739130434783
 40
0.6956521739130435
 40
0.6956521739130435
 40
0.6956521739130435
 40
0.6956521739130435
 40
0.7391304347826086
 40
0.7391304347826086
 40
0.7391304347826086
 40
0.7391304347826086
 40
0.782608695652174
 40
0.782608695652174
 40
0.782608695652174
 40
0.782608695652174
 40
0.8260869565217391
 40
0.8260869565217391
 40
0.8260869565217391
 40
0.8260869565217391
 40
0.8695652173913043
 40
0.8695652173913043
 40
0.8695652173913043
 40
0.8695652173913043
 40
0.9130434782608695
 40
0.9130434782608695
 40
0.9130434782608695
 40
0.9130434782608695
 40
1.0
 40
1.0
 40
1.0
 40
1.0
 10
32.385
 20
2.3387
 30
0.0
 10
32.385
 20
2.3387
 30
0.0
 10
32.6235
 20
2.3387
 30
0.0
 10
32.6235
 20
2.3387
 30
0.0
 10
32.6235
 20
2.3387
 30
0.0
 10
32.6235
 20
2.3387
 30
0.0
 10
32.6235
 20
1.0033
 30
0.0
 10
32.6235
 20
1.0033
 30
0.0
 10
32.6235
 20
1.0033
 30
0.0
 10
32.5638
 20
1.0014
 30
0.0
 10
32.5064
 20
1.0108
 30
0.0
 10
32.4513
 20
1.032
 30
0.0
 10
32.4513
 20
1.032
 30
0.0
 10
32.3601
 20
1.0659
 30
0.0
 10
32.2707
 20
1.1204
 30
0.0
 10
32.1823
 20
1.1952
 30
0.0
 10
32.1823
 20
1.1952
 30
0.0
 10
32.0943
 20
1.2705
 30
0.0
 10
31.9923
 20
1.3787
 30
0.0
 10
31.8766
 20
1.5198
 30
0.0
 10
31.8766
 20
1.5198
 30
0.0
 10
31.6964
 20
1.7394
 30
0.0
 10
31.5539
 20
1.8881
 30
0.0
 10
31.4485
 20
1.9652
 30
0.0
 10
31.4485
 20
1.9652
 30
0.0
 10
31.3436
 20
2.0423
 30
0.0
 10
31.2439
 20
2.0809
 30
0.0
 10
31.1503
 20
2.0809
 30
0.0
 10
31.1503
 20
2.0809
 30
0.0
 10
31.052
 20
2.0809
 30
0.0
 10
30.9692
 20
2.0456
 30
0.0
 10
30.9015
 20
1.9756
 30
0.0
 10
30.9015
 20
1.9756
 30
0.0
 10
30.8342
 20
1.905
 30
0.0
 10
30.8004
 20
1.8133
 30
0.0
 10
30.8004
 20
1.7004
 30
0.0
 10
30.8004
 20
1.7004
 30
0.0
 10
30.8004
 20
1.5809
 30
0.0
 10
30.8361
 20
1.4854
 30
0.0
 10
30.9081
 20
1.4139
 30
0.0
 10
30.9081
 20
1.4139
 30
0.0
 10
30.9796
 20
1.342
 30
0.0
 10
31.0788
 20
1.3058
 30
0.0
 10
31.2053
 20
1.3048
 30
0.0
 10
31.2053
 20
1.3048
 30
0.0
 10
31.2053
 20
1.3048
 30
0.0
 10
31.1795
 20
1.0499
 30
0.0
 10
31.1795
 20
1.0499
 30
0.0
 10
31.1795
 20
1.0499
 30
0.0
 10
30.989
 20
1.0673
 30
0.0
 10
30.8441
 20
1.1331
 30
0.0
 10
30.7444
 20
1.247
 30
0.0
 10
30.7444
 20
1.247
 30
0.0
 10
30.6447
 20
1.3608
 30
0.0
 10
30.5948
 20
1.5141
 30
0.0
 10
30.5948
 20
1.706
 30
0.0
 10
30.5948
 20
1.706
 30
0.0
 10
30.5948
 20
1.8998
 30
0.0
 10
30.6489
 20
2.0532
 30
0.0
 10
30.7561
 20
2.1661
 30
0.0
 10
30.7561
 20
2.1661
 30
0.0
 10
30.8639
 20
2.2794
 30
0.0
 10
30.997
 20
2.3359
 30
0.0
 10
31.156
 20
2.3359
 30
0.0
 10
31.156
 20
2.3359
 30
0.0
 10
31.2369
 20
2.3359
 30
0.0
 10
31.3164
 20
2.3194
 30
0.0
 10
31.3944
 20
2.286
 30
0.0
 10
31.3944
 20
2.286
 30
0.0
 10
31.4725
 20
2.2531
 30
0.0
 10
31.5548
 20
2.198
 30
0.0
 10
31.6409
 20
2.1214
 30
0.0
 10
31.6409
 20
2.1214
 30
0.0
 10
31.7275
 20
2.0447
 30
0.0
 10
31.846
 20
1.9172
 30
0.0
 10
31.9965
 20
1.739
 30
0.0
 10
31.9965
 20
1.739
 30
0.0
 10
32.1216
 20
1.5903
 30
0.0
 10
32.2063
 20
1.4948
 30
0.0
 10
32.251
 20
1.4525
 30
0.0
 10
32.251
 20
1.4525
 30
0.0
 10
32.2952
 20
1.4102
 30
0.0
 10
32.3399
 20
1.3754
 30
0.0
 10
32.385
 20
1.3476
 30
0.0
 10
32.385
 20
1.3476
 30
0.0
 10
32.385
 20
1.3476
 30
0.0
 10
32.385
 20
2.3387
 30
0.0
 10
32.385
 20
2.3387
 30
0.0
  0
SPLINE
  5
71
330
1F
100
AcDbEntity
  8
VRSTVA_1
 62
   250
100
AcDbSpline
210
0.0
220
0.0
230
1.0
 70
    11
 71
     3
 72
    52
 73
    48
 74
     0
 42
0.0000000001
 43
0.0000000001
 40
0.0
 40
0.0
 40
0.0
 40
0.0
 40
0.0769230769230769
 40
0.0769230769230769
 40
0.0769230769230769
 40
0.0769230769230769
 40
0.1538461538461539
 40
0.1538461538461539
 40
0.1538461538461539
 40
0.1538461538461539
 40
0.2307692307692308
 40
0.2307692307692308
 40
0.2307692307692308
 40
0.2307692307692308
 40
0.3076923076923077
 40
0.3076923076923077
 40
0.3076923076923077
 40
0.3076923076923077
 40
0.3846153846153846
 40
0.3846153846153846
 40
0.3846153846153846
 40
0.3846153846153846
 40
0.4615384615384616
 40
0.4615384615384616
 40
0.4615384615384616
 40
0.4615384615384616
 40
0.5384615384615384
 40
0.5384615384615384
 40
0.5384615384615384
 40
0.5384615384615384
 40
0.6153846153846154
 40
0.6153846153846154
 40
0.6153846153846154
 40
0.6153846153846154
 40
0.6923076923076923
 40
0.6923076923076923
 40
0.6923076923076923
 40
0.6923076923076923
 40
0.7692307692307693
 40
0.7692307692307693
 40
0.7692307692307693
 40
0.7692307692307693
 40
0.8461538461538461
 40
0.8461538461538461
 40
0.8461538461538461
 40
0.8461538461538461
 40
1.0
 40
1.0
 40
1.0
 40
1.0
 10
31.6273
 20
2.6044
 30
0.0
 10
31.3883
 20
2.6044
 30
0.0
 10
31.1959
 20
2.6289
 30
0.0
 10
31.0506
 20
2.6783
 30
0.0
 10
31.0506
 20
2.6783
 30
0.0
 10
30.9048
 20
2.7272
 30
0.0
 10
30.7924
 20
2.8006
 30
0.0
 10
30.7133
 20
2.8975
 30
0.0
 10
30.7133
 20
2.8975
 30
0.0
 10
30.6343
 20
2.9944
 30
0.0
 10
30.5948
 20
3.1162
 30
0.0
 10
30.5948
 20
3.2629
 30
0.0
 10
30.5948
 20
3.2629
 30
0.0
 10
30.5948
 20
3.3716
 30
0.0
 10
30.6169
 20
3.4666
 30
0.0
 10
30.6607
 20
3.5484
 30
0.0
 10
30.6607
 20
3.5484
 30
0.0
 10
30.7039
 20
3.6303
 30
0.0
 10
30.767
 20
3.6976
 30
0.0
 10
30.8493
 20
3.7512
 30
0.0
 10
30.8493
 20
3.7512
 30
0.0
 10
30.9316
 20
3.8043
 30
0.0
 10
31.0318
 20
3.8462
 30
0.0
 10
31.1498
 20
3.8763
 30
0.0
 10
31.1498
 20
3.8763
 30
0.0
 10
31.2679
 20
3.9069
 30
0.0
 10
31.4269
 20
3.9219
 30
0.0
 10
31.6273
 20
3.9219
 30
0.0
 10
31.6273
 20
3.9219
 30
0.0
 10
31.8643
 20
3.9219
 30
0.0
 10
32.0553
 20
3.8975
 30
0.0
 10
32.2011
 20
3.849
 30
0.0
 10
32.2011
 20
3.849
 30
0.0
 10
32.3469
 20
3.8001
 30
0.0
 10
32.4593
 20
3.7272
 30
0.0
 10
32.5388
 20
3.6303
 30
0.0
 10
32.5388
 20
3.6303
 30
0.0
 10
32.6183
 20
3.5334
 30
0.0
 10
32.6578
 20
3.4111
 30
0.0
 10
32.6578
 20
3.2629
 30
0.0
 10
32.6578
 20
3.2629
 30
0.0
 10
32.6578
 20
3.0682
 30
0.0
 10
32.5882
 20
2.9153
 30
0.0
 10
32.4485
 20
2.8043
 30
0.0
 10
32.4485
 20
2.8043
 30
0.0
 10
32.2806
 20
2.6712
 30
0.0
 10
32.0064
 20
2.6044
 30
0.0
 10
31.6273
 20
2.6044
 30
0.0
  0
SPLINE
  5
72
330
1F
100
AcDbEntity
  8
VRSTVA_1
 62
   250
100
AcDbSpline
210
0.0
220
0.0
230
1.0
 70
    11
 71
     3
 72
    36
 73
    32
 74
     0
 42
0.0000000001
 43
0.0000000001
 40
0.0
 40
0.0
 40
0.0
 40
0.0
 40
0.1111111111111111
 40
0.1111111111111111
 40
0.1111111111111111
 40
0.1111111111111111
 40
0.2222222222222222
 40
0.2222222222222222
 40
0.2222222222222222
 40
0.2222222222222222
 40
0.3333333333333333
 40
0.3333333333333333
 40
0.3333333333333333
 40
0.3333333333333333
 40
0.4444444444444444
 40
0.4444444444444444
 40
0.4444444444444444
 40
0.4444444444444444
 40
0.5555555555555556
 40
0.5555555555555556
 40
0.5555555555555556
 40
0.5555555555555556
 40
0.6666666666666666
 40
0.6666666666666666
 40
0.6666666666666666
 40
0.6666666666666666
 40
0.7777777777777778
 40
0.7777777777777778
 40
0.7777777777777778
 40
0.7777777777777778
 40
1.0
 40
1.0
 40
1.0
 40
1.0
 10
31.6273
 20
2.8594
 30
0.0
 10
31.9589
 20
2.8594
 30
0.0
 10
32.1795
 20
2.8984
 30
0.0
 10
32.2895
 20
2.976
 30
0.0
 10
32.2895
 20
2.976
 30
0.0
 10
32.3991
 20
3.0536
 30
0.0
 10
32.4542
 20
3.1491
 30
0.0
 10
32.4542
 20
3.2629
 30
0.0
 10
32.4542
 20
3.2629
 30
0.0
 10
32.4542
 20
3.3772
 30
0.0
 10
32.3987
 20
3.4727
 30
0.0
 10
32.2886
 20
3.5503
 30
0.0
 10
32.2886
 20
3.5503
 30
0.0
 10
32.1785
 20
3.6279
 30
0.0
 10
31.9579
 20
3.667
 30
0.0
 10
31.6273
 20
3.667
 30
0.0
 10
31.6273
 20
3.667
 30
0.0
 10
31.2947
 20
3.667
 30
0.0
 10
31.0736
 20
3.6279
 30
0.0
 10
30.9645
 20
3.5503
 30
0.0
 10
30.9645
 20
3.5503
 30
0.0
 10
30.8549
 20
3.4727
 30
0.0
 10
30.8004
 20
3.3763
 30
0.0
 10
30.8004
 20
3.2606
 30
0.0
 10
30.8004
 20
3.2606
 30
0.0
 10
30.8004
 20
3.1463
 30
0.0
 10
30.8488
 20
3.0555
 30
0.0
 10
30.9452
 20
2.9873
 30
0.0
 10
30.9452
 20
2.9873
 30
0.0
 10
31.068
 20
2.9022
 30
0.0
 10
31.2957
 20
2.8594
 30
0.0
 10
31.6273
 20
2.8594
 30
0.0
  0
SPLINE
  5
73
330
1F
100
AcDbEntity
  8
VRSTVA_1
 62
   250
100
AcDbSpline
210
0.0
220
0.0
230
1.0
 70
    11
 71
     3
 72
    20
 73
    16
 74
     0
 42
0.0000000001
 43
0.0000000001
 40
0.0
 40
0.0
 40
0.0
 40
0.0
 40
0.2
 40
0.2
 40
0.2
 40
0.2
 40
0.4
 40
0.4
 40
0.4
 40
0.4
 40
0.6
 40
0.6
 40
0.6
 40
0.6
 40
1.0
 40
1.0
 40
1.0
 40
1.0
 10
33.4021
 20
-27.0064
 30
0.0
 10
33.4021
 20
-27.0064
 30
0.0
 10
33.8108
 20
-24.2072
 30
0.0
 10
33.8108
 20
-24.2072
 30
0.0
 10
33.8108
 20
-24.2072
 30
0.0
 10
33.8108
 20
-24.2072
 30
0.0
 10
32.9086
 20
-24.2072
 30
0.0
 10
32.9086
 20
-24.2072
 30
0.0
 10
32.9086
 20
-24.2072
 30
0.0
 10
32.9086
 20
-24.2072
 30
0.0
 10
33.4008
 20
-27.0064
 30
0.0
 10
33.4008
 20
-27.0064
 30
0.0
 10
33.4008
 20
-27.0064
 30
0.0
 10
33.4008
 20
-27.0064
 30
0.0
 10
33.4021
 20
-27.0064
 30
0.0
 10
33.4021
 20
-27.0064
 30
0.0
  0
SPLINE
  5
74
330
1F
100
AcDbEntity
  8
VRSTVA_1
 62
   250
100
AcDbSpline
210
0.0
220
0.0
230
1.0
 70
    11
 71
     3
 72
    20
 73
    16
 74
     0
 42
0.0000000001
 43
0.0000000001
 40
0.0
 40
0.0
 40
0.0
 40
0.0
 40
0.2
 40
0.2
 40
0.2
 40
0.2
 40
0.4
 40
0.4
 40
0.4
 40
0.4
 40
0.6
 40
0.6
 40
0.6
 40
0.6
 40
1.0
 40
1.0
 40
1.0
 40
1.0
 10
33.3515
 20
27.4753
 30
0.0
 10
33.3515
 20
27.4753
 30
0.0
 10
32.9428
 20
24.6761
 30
0.0
 10
32.9428
 20
24.6761
 30
0.0
 10
32.9428
 20
24.6761
 30
0.0
 10
32.9428
 20
24.6761
 30
0.0
 10
33.845
 20
24.6761
 30
0.0
 10
33.845
 20
24.6761
 30
0.0
 10
33.845
 20
24.6761
 30
0.0
 10
33.845
 20
24.6761
 30
0.0
 10
33.3527
 20
27.4753
 30
0.0
 10
33.3527
 20
27.4753
 30
0.0
 10
33.3527
 20
27.4753
 30
0.0
 10
33.3527
 20
27.4753
 30
0.0
 10
33.3515
 20
27.4753
 30
0.0
 10
33.3515
 20
27.4753
 30
0.0
  0
SPLINE
  5
75
330
1F
100
AcDbEntity
  8
VRSTVA_1
 62
   250
100
AcDbSpline
210
0.0
220
0.0
230
1.0
 70
    24
 71
     3
 72
     8
 73
     4
 74
     0
 42
0.0000000001
 43
0.0000000001
 40
0.0
 40
0.0
 40
0.0
 40
0.0
 40
1.0
 40
1.0
 40
1.0
 40
1.0
 10
33.364
 20
26.745
 30
0.0
 10
33.364
 20
26.745
 30
0.0
 10
33.364
 20
-26.493
 30
0.0
 10
33.364
 20
-26.493
 30
0.0
  0
SPLINE
  5
76
330
1F
100
AcDbEntity
  8
VRSTVA_1
 62
   250
100
AcDbSpline
210
0.0
220
0.0
230
1.0
 70
    24
 71
     3
 72
     8
 73
     4
 74
     0
 42
0.0000000001
 43
0.0000000001
 40
0.0
 40
0.0
 40
0.0
 40
0.0
 40
1.0
 40
1.0
 40
1.0
 40
1.0
 10
34.1004
 20
-27.1346
 30
0.0
 10
34.1004
 20
-27.1346
 30
0.0
 10
0.0914
 20
-27.1346
 30
0.0
 10
0.0914
 20
-27.1346
 30
0.0
  0
SPLINE
  5
77
330
1F
100
AcDbEntity
  8
VRSTVA_1
 62
   250
100
AcDbSpline
210
0.0
220
0.0
230
1.0
 70
    24
 71
     3
 72
     8
 73
     4
 74
     0
 42
0.0000000001
 43
0.0000000001
 40
0.0
 40
0.0
 40
0.0
 40
0.0
 40
1.0
 40
1.0
 40
1.0
 40
1.0
 10
33.6608
 20
27.622
 30
0.0
 10
33.6608
 20
27.622
 30
0.0
 10
12.8155
 20
27.622
 30
0.0
 10
12.8155
 20
27.622
 30
0.0
  0
SPLINE
  5
78
330
1F
100
AcDbEntity
  8
VRSTVA_1
 62
   250
100
AcDbSpline
210
0.0
220
0.0
230
1.0
 70
    11
 71
     3
 72
    28
 73
    24
 74
     0
 42
0.0000000001
 43
0.0000000001
 40
0.0
 40
0.0
 40
0.0
 40
0.0
 40
0.1428571428571428
 40
0.1428571428571428
 40
0.1428571428571428
 40
0.1428571428571428
 40
0.2857142857142857
 40
0.2857142857142857
 40
0.2857142857142857
 40
0.2857142857142857
 40
0.4285714285714285
 40
0.4285714285714285
 40
0.4285714285714285
 40
0.4285714285714285
 40
0.5714285714285714
 40
0.5714285714285714
 40
0.5714285714285714
 40
0.5714285714285714
 40
0.7142857142857143
 40
0.7142857142857143
 40
0.7142857142857143
 40
0.7142857142857143
 40
1.0
 40
1.0
 40
1.0
 40
1.0
 10
-17.4681
 20
4.6133
 30
0.0
 10
-17.4681
 20
13.024
 30
0.0
 10
-10.2964
 20
19.8407
 30
0.0
 10
-1.4475
 20
19.8407
 30
0.0
 10
-1.4475
 20
19.8407
 30
0.0
 10
7.4008
 20
19.8407
 30
0.0
 10
14.5721
 20
13.0235
 30
0.0
 10
14.5721
 20
4.6127
 30
0.0
 10
14.5721
 20
4.6127
 30
0.0
 10
14.5721
 20
4.6127
 30
0.0
 10
14.5721
 20
-4.3855
 30
0.0
 10
14.5721
 20
-4.3855
 30
0.0
 10
14.5721
 20
-4.3855
 30
0.0
 10
14.5721
 20
-12.7966
 30
0.0
 10
7.4008
 20
-19.6136
 30
0.0
 10
-1.4475
 20
-19.6136
 30
0.0
 10
-1.4475
 20
-19.6136
 30
0.0
 10
-10.2964
 20
-19.6136
 30
0.0
 10
-17.4681
 20
-12.7966
 30
0.0
 10
-17.4681
 20
-4.3855
 30
0.0
 10
-17.4681
 20
-4.3855
 30
0.0
 10
-17.4681
 20
-4.3855
 30
0.0
 10
-17.4681
 20
4.6133
 30
0.0
 10
-17.4681
 20
4.6133
 30
0.0
  0
SPLINE
  5
79
330
1F
100
AcDbEntity
  8
VRSTVA_1
 62
   250
100
AcDbSpline
210
0.0
220
0.0
230
1.0
 70
    11
 71
     3
 72
    20
 73
    16
 74
     0
 42
0.0000000001
 43
0.0000000001
 40
0.0
 40
0.0
 40
0.0
 40
0.0
 40
0.2
 40
0.2
 40
0.2
 40
0.2
 40
0.4
 40
0.4
 40
0.4
 40
0.4
 40
0.6
 40
0.6
 40
0.6
 40
0.6
 40
1.0
 40
1.0
 40
1.0
 40
1.0
 10
-11.5384
 20
30.2258
 30
0.0
 10
-10.111
 20
30.2258
 30
0.0
 10
-8.9467
 20
29.0616
 30
0.0
 10
-8.9467
 20
27.634
 30
0.0
 10
-8.9467
 20
27.634
 30
0.0
 10
-8.9467
 20
26.2068
 30
0.0
 10
-10.111
 20
25.0425
 30
0.0
 10
-11.5384
 20
25.0425
 30
0.0
 10
-11.5384
 20
25.0425
 30
0.0
 10
-12.9658
 20
25.0425
 30
0.0
 10
-14.13
 20
26.2068
 30
0.0
 10
-14.13
 20
27.634
 30
0.0
 10
-14.13
 20
27.634
 30
0.0
 10
-14.13
 20
29.0616
 30
0.0
 10
-12.9658
 20
30.2258
 30
0.0
 10
-11.5384
 20
30.2258
 30
0.0
  0
SPLINE
  5
7A
330
1F
100
AcDbEntity
  8
VRSTVA_1
 62
   250
100
AcDbSpline
210
0.0
220
0.0
230
1.0
 70
    11
 71
     3
 72
    20
 73
    16
 74
     0
 42
0.0000000001
 43
0.0000000001
 40
0.0
 40
0.0
 40
0.0
 40
0.0
 40
0.2
 40
0.2
 40
0.2
 40
0.2
 40
0.4
 40
0.4
 40
0.4
 40
0.4
 40
0.6
 40
0.6
 40
0.6
 40
0.6
 40
1.0
 40
1.0
 40
1.0
 40
1.0
 10
-11.5384
 20
27.9941
 30
0.0
 10
-11.3401
 20
27.9941
 30
0.0
 10
-11.1784
 20
27.8325
 30
0.0
 10
-11.1784
 20
27.6342
 30
0.0
 10
-11.1784
 20
27.6342
 30
0.0
 10
-11.1784
 20
27.4359
 30
0.0
 10
-11.3401
 20
27.2742
 30
0.0
 10
-11.5384
 20
27.2742
 30
0.0
 10
-11.5384
 20
27.2742
 30
0.0
 10
-11.7366
 20
27.2742
 30
0.0
 10
-11.8983
 20
27.4359
 30
0.0
 10
-11.8983
 20
27.6342
 30
0.0
 10
-11.8983
 20
27.6342
 30
0.0
 10
-11.8983
 20
27.8325
 30
0.0
 10
-11.7366
 20
27.9941
 30
0.0
 10
-11.5384
 20
27.9941
 30
0.0
  0
SPLINE
  5
7B
330
1F
100
AcDbEntity
  8
VRSTVA_1
 62
   250
100
AcDbSpline
210
0.0
220
0.0
230
1.0
 70
    11
 71
     3
 72
    20
 73
    16
 74
     0
 42
0.0000000001
 43
0.0000000001
 40
0.0
 40
0.0
 40
0.0
 40
0.0
 40
0.2
 40
0.2
 40
0.2
 40
0.2
 40
0.4
 40
0.4
 40
0.4
 40
0.4
 40
0.6
 40
0.6
 40
0.6
 40
0.6
 40
1.0
 40
1.0
 40
1.0
 40
1.0
 10
-11.5384
 20
28.93
 30
0.0
 10
-10.8247
 20
28.93
 30
0.0
 10
-10.2425
 20
28.3479
 30
0.0
 10
-10.2425
 20
27.6342
 30
0.0
 10
-10.2425
 20
27.6342
 30
0.0
 10
-10.2425
 20
26.9205
 30
0.0
 10
-10.8247
 20
26.3384
 30
0.0
 10
-11.5384
 20
26.3384
 30
0.0
 10
-11.5384
 20
26.3384
 30
0.0
 10
-12.2521
 20
26.3384
 30
0.0
 10
-12.8342
 20
26.9205
 30
0.0
 10
-12.8342
 20
27.6342
 30
0.0
 10
-12.8342
 20
27.6342
 30
0.0
 10
-12.8342
 20
28.3479
 30
0.0
 10
-12.2521
 20
28.93
 30
0.0
 10
-11.5384
 20
28.93
 30
0.0
  0
SPLINE
  5
7C
330
1F
100
AcDbEntity
  8
VRSTVA_1
 62
   250
100
AcDbSpline
210
0.0
220
0.0
230
1.0
 70
    11
 71
     3
 72
    20
 73
    16
 74
     0
 42
0.0000000001
 43
0.0000000001
 40
0.0
 40
0.0
 40
0.0
 40
0.0
 40
0.2
 40
0.2
 40
0.2
 40
0.2
 40
0.4
 40
0.4
 40
0.4
 40
0.4
 40
0.6
 40
0.6
 40
0.6
 40
0.6
 40
1.0
 40
1.0
 40
1.0
 40
1.0
 10
-11.5384
 20
29.6139
 30
0.0
 10
-10.448
 20
29.6139
 30
0.0
 10
-9.5586
 20
28.7246
 30
0.0
 10
-9.5586
 20
27.634
 30
0.0
 10
-9.5586
 20
27.634
 30
0.0
 10
-9.5586
 20
26.5438
 30
0.0
 10
-10.448
 20
25.6545
 30
0.0
 10
-11.5384
 20
25.6545
 30
0.0
 10
-11.5384
 20
25.6545
 30
0.0
 10
-12.6287
 20
25.6545
 30
0.0
 10
-13.5181
 20
26.5438
 30
0.0
 10
-13.5181
 20
27.634
 30
0.0
 10
-13.5181
 20
27.634
 30
0.0
 10
-13.5181
 20
28.7246
 30
0.0
 10
-12.6287
 20
29.6139
 30
0.0
 10
-11.5384
 20
29.6139
 30
0.0
  0
SPLINE
  5
7D
330
1F
100
AcDbEntity
  8
VRSTVA_1
 62
   250
100
AcDbSpline
210
0.0
220
0.0
230
1.0
 70
    11
 71
     3
 72
    28
 73
    24
 74
     0
 42
0.0000000001
 43
0.0000000001
 40
0.0
 40
0.0
 40
0.0
 40
0.0
 40
0.1428571428571428
 40
0.1428571428571428
 40
0.1428571428571428
 40
0.1428571428571428
 40
0.2857142857142857
 40
0.2857142857142857
 40
0.2857142857142857
 40
0.2857142857142857
 40
0.4285714285714285
 40
0.4285714285714285
 40
0.4285714285714285
 40
0.4285714285714285
 40
0.5714285714285714
 40
0.5714285714285714
 40
0.5714285714285714
 40
0.5714285714285714
 40
0.7142857142857143
 40
0.7142857142857143
 40
0.7142857142857143
 40
0.7142857142857143
 40
1.0
 40
1.0
 40
1.0
 40
1.0
 10
-18.7989
 20
-7.5337
 30
0.0
 10
-18.248
 20
-7.4461
 30
0.0
 10
-17.7267
 20
-7.8225
 30
0.0
 10
-17.6389
 20
-8.3743
 30
0.0
 10
-17.6389
 20
-8.3743
 30
0.0
 10
-17.5511
 20
-8.9259
 30
0.0
 10
-17.9272
 20
-9.4445
 30
0.0
 10
-18.4798
 20
-9.5319
 30
0.0
 10
-18.4798
 20
-9.5319
 30
0.0
 10
-18.4798
 20
-9.5319
 30
0.0
 10
-21.2775
 20
-9.9745
 30
0.0
 10
-21.2775
 20
-9.9745
 30
0.0
 10
-21.2775
 20
-9.9745
 30
0.0
 10
-21.8286
 20
-10.0631
 30
0.0
 10
-22.3474
 20
-9.6864
 30
0.0
 10
-22.4343
 20
-9.1338
 30
0.0
 10
-22.4343
 20
-9.1338
 30
0.0
 10
-22.5228
 20
-8.5813
 30
0.0
 10
-22.1462
 20
-8.0638
 30
0.0
 10
-21.5935
 20
-7.9761
 30
0.0
 10
-21.5935
 20
-7.9761
 30
0.0
 10
-21.5935
 20
-7.9761
 30
0.0
 10
-18.7989
 20
-7.5337
 30
0.0
 10
-18.7989
 20
-7.5337
 30
0.0
  0
SPLINE
  5
7E
330
1F
100
AcDbEntity
  8
VRSTVA_1
 62
   250
100
AcDbSpline
210
0.0
220
0.0
230
1.0
 70
    11
 71
     3
 72
    28
 73
    24
 74
     0
 42
0.0000000001
 43
0.0000000001
 40
0.0
 40
0.0
 40
0.0
 40
0.0
 40
0.1428571428571428
 40
0.1428571428571428
 40
0.1428571428571428
 40
0.1428571428571428
 40
0.2857142857142857
 40
0.2857142857142857
 40
0.2857142857142857
 40
0.2857142857142857
 40
0.4285714285714285
 40
0.4285714285714285
 40
0.4285714285714285
 40
0.4285714285714285
 40
0.5714285714285714
 40
0.5714285714285714
 40
0.5714285714285714
 40
0.5714285714285714
 40
0.7142857142857143
 40
0.7142857142857143
 40
0.7142857142857143
 40
0.7142857142857143
 40
1.0
 40
1.0
 40
1.0
 40
1.0
 10
20.1543
 20
8.1803
 30
0.0
 10
20.7099
 20
8.2293
 30
0.0
 10
21.2037
 20
7.8175
 30
0.0
 10
21.2528
 20
7.2609
 30
0.0
 10
21.2528
 20
7.2609
 30
0.0
 10
21.3019
 20
6.7045
 30
0.0
 10
20.8906
 20
6.2134
 30
0.0
 10
20.3333
 20
6.1648
 30
0.0
 10
20.3333
 20
6.1648
 30
0.0
 10
20.3333
 20
6.1648
 30
0.0
 10
17.5115
 20
5.9184
 30
0.0
 10
17.5115
 20
5.9184
 30
0.0
 10
17.5115
 20
5.9184
 30
0.0
 10
16.9555
 20
5.8684
 30
0.0
 10
16.4642
 20
6.2804
 30
0.0
 10
16.4161
 20
6.8378
 30
0.0
 10
16.4161
 20
6.8378
 30
0.0
 10
16.3664
 20
7.395
 30
0.0
 10
16.7781
 20
7.885
 30
0.0
 10
17.3356
 20
7.934
 30
0.0
 10
17.3356
 20
7.934
 30
0.0
 10
17.3356
 20
7.934
 30
0.0
 10
20.1543
 20
8.1803
 30
0.0
 10
20.1543
 20
8.1803
 30
0.0
  0
SPLINE
  5
7F
330
1F
100
AcDbEntity
  8
VRSTVA_1
 62
   250
100
AcDbSpline
210
0.0
220
0.0
230
1.0
 70
    11
 71
     3
 72
    28
 73
    24
 74
     0
 42
0.0000000001
 43
0.0000000001
 40
0.0
 40
0.0
 40
0.0
 40
0.0
 40
0.1428571428571428
 40
0.1428571428571428
 40
0.1428571428571428
 40
0.1428571428571428
 40
0.2857142857142857
 40
0.2857142857142857
 40
0.2857142857142857
 40
0.2857142857142857
 40
0.4285714285714285
 40
0.4285714285714285
 40
0.4285714285714285
 40
0.4285714285714285
 40
0.5714285714285714
 40
0.5714285714285714
 40
0.5714285714285714
 40
0.5714285714285714
 40
0.7142857142857143
 40
0.7142857142857143
 40
0.7142857142857143
 40
0.7142857142857143
 40
1.0
 40
1.0
 40
1.0
 40
1.0
 10
-19.8053
 20
7.9832
 30
0.0
 10
-19.2495
 20
7.935
 30
0.0
 10
-18.8348
 20
7.4437
 30
0.0
 10
-18.883
 20
6.887
 30
0.0
 10
-18.883
 20
6.887
 30
0.0
 10
-18.9313
 20
6.3305
 30
0.0
 10
-19.4217
 20
5.9183
 30
0.0
 10
-19.979
 20
5.9673
 30
0.0
 10
-19.979
 20
5.9673
 30
0.0
 10
-19.979
 20
5.9673
 30
0.0
 10
-22.8007
 20
6.2146
 30
0.0
 10
-22.8007
 20
6.2146
 30
0.0
 10
-22.8007
 20
6.2146
 30
0.0
 10
-23.3569
 20
6.2619
 30
0.0
 10
-23.7691
 20
6.753
 30
0.0
 10
-23.7198
 20
7.3102
 30
0.0
 10
-23.7198
 20
7.3102
 30
0.0
 10
-23.6719
 20
7.8676
 30
0.0
 10
-23.1814
 20
8.2787
 30
0.0
 10
-22.6239
 20
8.2301
 30
0.0
 10
-22.6239
 20
8.2301
 30
0.0
 10
-22.6239
 20
8.2301
 30
0.0
 10
-19.8053
 20
7.9832
 30
0.0
 10
-19.8053
 20
7.9832
 30
0.0
  0
SPLINE
  5
80
330
1F
100
AcDbEntity
  8
VRSTVA_1
 62
   250
100
AcDbSpline
210
0.0
220
0.0
230
1.0
 70
    11
 71
     3
 72
    28
 73
    24
 74
     0
 42
0.0000000001
 43
0.0000000001
 40
0.0
 40
0.0
 40
0.0
 40
0.0
 40
0.1428571428571428
 40
0.1428571428571428
 40
0.1428571428571428
 40
0.1428571428571428
 40
0.2857142857142857
 40
0.2857142857142857
 40
0.2857142857142857
 40
0.2857142857142857
 40
0.4285714285714285
 40
0.4285714285714285
 40
0.4285714285714285
 40
0.4285714285714285
 40
0.5714285714285714
 40
0.5714285714285714
 40
0.5714285714285714
 40
0.5714285714285714
 40
0.7142857142857143
 40
0.7142857142857143
 40
0.7142857142857143
 40
0.7142857142857143
 40
1.0
 40
1.0
 40
1.0
 40
1.0
 10
18.7427
 20
-7.813
 30
0.0
 10
19.2964
 20
-7.8806
 30
0.0
 10
19.6937
 20
-8.3861
 30
0.0
 10
19.6261
 20
-8.9408
 30
0.0
 10
19.6261
 20
-8.9408
 30
0.0
 10
19.5584
 20
-9.4952
 30
0.0
 10
19.054
 20
-9.8901
 30
0.0
 10
18.4987
 20
-9.8217
 30
0.0
 10
18.4987
 20
-9.8217
 30
0.0
 10
18.4987
 20
-9.8217
 30
0.0
 10
15.6874
 20
-9.476
 30
0.0
 10
15.6874
 20
-9.476
 30
0.0
 10
15.6874
 20
-9.476
 30
0.0
 10
15.1332
 20
-9.4093
 30
0.0
 10
14.7383
 20
-8.9042
 30
0.0
 10
14.8071
 20
-8.349
 30
0.0
 10
14.8071
 20
-8.349
 30
0.0
 10
14.8743
 20
-7.7936
 30
0.0
 10
15.3789
 20
-7.3999
 30
0.0
 10
15.9344
 20
-7.4679
 30
0.0
 10
15.9344
 20
-7.4679
 30
0.0
 10
15.9344
 20
-7.4679
 30
0.0
 10
18.7427
 20
-7.813
 30
0.0
 10
18.7427
 20
-7.813
 30
0.0
  0
SPLINE
  5
81
330
1F
100
AcDbEntity
  8
VRSTVA_1
  6
NEW_LINE1
 62
   250
100
AcDbSpline
210
0.0
220
0.0
230
1.0
 70
    24
 71
     3
 72
     8
 73
     4
 74
     0
 42
0.0000000001
 43
0.0000000001
 40
0.0
 40
0.0
 40
0.0
 40
0.0
 40
1.0
 40
1.0
 40
1.0
 40
1.0
 10
-1.2802
 20
30.7259
 30
0.0
 10
-1.2802
 20
30.7259
 30
0.0
 10
-1.2802
 20
-28.1324
 30
0.0
 10
-1.2802
 20
-28.1324
 30
0.0
  0
SPLINE
  5
83
330
1F
100
AcDbEntity
  8
VRSTVA_1
  6
NEW_LINE2
 62
   250
100
AcDbSpline
210
0.0
220
0.0
230
1.0
 70
    24
 71
     3
 72
     8
 73
     4
 74
     0
 42
0.0000000001
 43
0.0000000001
 40
0.0
 40
0.0
 40
0.0
 40
0.0
 40
1.0
 40
1.0
 40
1.0
 40
1.0
 10
-11.5379
 20
30.8527
 30
0.0
 10
-11.5379
 20
30.8527
 30
0.0
 10
-11.5379
 20
23.8668
 30
0.0
 10
-11.5379
 20
23.8668
 30
0.0
  0
SPLINE
  5
85
330
1F
100
AcDbEntity
  8
VRSTVA_1
  6
NEW_LINE3
 62
   250
100
AcDbSpline
210
0.0
220
0.0
230
1.0
 70
    24
 71
     3
 72
     8
 73
     4
 74
     0
 42
0.0000000001
 43
0.0000000001
 40
0.0
 40
0.0
 40
0.0
 40
0.0
 40
1.0
 40
1.0
 40
1.0
 40
1.0
 10
-15.0399
 20
27.6071
 30
0.0
 10
-15.0399
 20
27.6071
 30
0.0
 10
-7.7676
 20
27.6071
 30
0.0
 10
-7.7676
 20
27.6071
 30
0.0
  0
SPLINE
  5
87
330
1F
100
AcDbEntity
  8
VRSTVA_1
 62
   250
100
AcDbSpline
210
0.0
220
0.0
230
1.0
 70
    11
 71
     3
 72
    20
 73
    16
 74
     0
 42
0.0000000001
 43
0.0000000001
 40
0.0
 40
0.0
 40
0.0
 40
0.0
 40
0.2
 40
0.2
 40
0.2
 40
0.2
 40
0.4
 40
0.4
 40
0.4
 40
0.4
 40
0.6
 40
0.6
 40
0.6
 40
0.6
 40
1.0
 40
1.0
 40
1.0
 40
1.0
 10
8.8415
 20
30.2258
 30
0.0
 10
10.2689
 20
30.2258
 30
0.0
 10
11.4332
 20
29.0616
 30
0.0
 10
11.4332
 20
27.634
 30
0.0
 10
11.4332
 20
27.634
 30
0.0
 10
11.4332
 20
26.2068
 30
0.0
 10
10.2689
 20
25.0425
 30
0.0
 10
8.8415
 20
25.0425
 30
0.0
 10
8.8415
 20
25.0425
 30
0.0
 10
7.4141
 20
25.0425
 30
0.0
 10
6.2499
 20
26.2068
 30
0.0
 10
6.2499
 20
27.634
 30
0.0
 10
6.2499
 20
27.634
 30
0.0
 10
6.2499
 20
29.0616
 30
0.0
 10
7.4141
 20
30.2258
 30
0.0
 10
8.8415
 20
30.2258
 30
0.0
  0
SPLINE
  5
88
330
1F
100
AcDbEntity
  8
VRSTVA_1
 62
   250
100
AcDbSpline
210
0.0
220
0.0
230
1.0
 70
    11
 71
     3
 72
    20
 73
    16
 74
     0
 42
0.0000000001
 43
0.0000000001
 40
0.0
 40
0.0
 40
0.0
 40
0.0
 40
0.2
 40
0.2
 40
0.2
 40
0.2
 40
0.4
 40
0.4
 40
0.4
 40
0.4
 40
0.6
 40
0.6
 40
0.6
 40
0.6
 40
1.0
 40
1.0
 40
1.0
 40
1.0
 10
8.8415
 20
27.9941
 30
0.0
 10
9.0398
 20
27.9941
 30
0.0
 10
9.2015
 20
27.8325
 30
0.0
 10
9.2015
 20
27.6342
 30
0.0
 10
9.2015
 20
27.6342
 30
0.0
 10
9.2015
 20
27.4359
 30
0.0
 10
9.0398
 20
27.2742
 30
0.0
 10
8.8415
 20
27.2742
 30
0.0
 10
8.8415
 20
27.2742
 30
0.0
 10
8.6433
 20
27.2742
 30
0.0
 10
8.4816
 20
27.4359
 30
0.0
 10
8.4816
 20
27.6342
 30
0.0
 10
8.4816
 20
27.6342
 30
0.0
 10
8.4816
 20
27.8325
 30
0.0
 10
8.6433
 20
27.9941
 30
0.0
 10
8.8415
 20
27.9941
 30
0.0
  0
SPLINE
  5
89
330
1F
100
AcDbEntity
  8
VRSTVA_1
 62
   250
100
AcDbSpline
210
0.0
220
0.0
230
1.0
 70
    11
 71
     3
 72
    20
 73
    16
 74
     0
 42
0.0000000001
 43
0.0000000001
 40
0.0
 40
0.0
 40
0.0
 40
0.0
 40
0.2
 40
0.2
 40
0.2
 40
0.2
 40
0.4
 40
0.4
 40
0.4
 40
0.4
 40
0.6
 40
0.6
 40
0.6
 40
0.6
 40
1.0
 40
1.0
 40
1.0
 40
1.0
 10
8.8415
 20
28.93
 30
0.0
 10
9.5552
 20
28.93
 30
0.0
 10
10.1373
 20
28.3479
 30
0.0
 10
10.1373
 20
27.6342
 30
0.0
 10
10.1373
 20
27.6342
 30
0.0
 10
10.1373
 20
26.9205
 30
0.0
 10
9.5552
 20
26.3384
 30
0.0
 10
8.8415
 20
26.3384
 30
0.0
 10
8.8415
 20
26.3384
 30
0.0
 10
8.1278
 20
26.3384
 30
0.0
 10
7.5457
 20
26.9205
 30
0.0
 10
7.5457
 20
27.6342
 30
0.0
 10
7.5457
 20
27.6342
 30
0.0
 10
7.5457
 20
28.3479
 30
0.0
 10
8.1278
 20
28.93
 30
0.0
 10
8.8415
 20
28.93
 30
0.0
  0
SPLINE
  5
8A
330
1F
100
AcDbEntity
  8
VRSTVA_1
 62
   250
100
AcDbSpline
210
0.0
220
0.0
230
1.0
 70
    11
 71
     3
 72
    20
 73
    16
 74
     0
 42
0.0000000001
 43
0.0000000001
 40
0.0
 40
0.0
 40
0.0
 40
0.0
 40
0.2
 40
0.2
 40
0.2
 40
0.2
 40
0.4
 40
0.4
 40
0.4
 40
0.4
 40
0.6
 40
0.6
 40
0.6
 40
0.6
 40
1.0
 40
1.0
 40
1.0
 40
1.0
 10
8.8415
 20
29.6139
 30
0.0
 10
9.9319
 20
29.6139
 30
0.0
 10
10.8212
 20
28.7246
 30
0.0
 10
10.8212
 20
27.634
 30
0.0
 10
10.8212
 20
27.634
 30
0.0
 10
10.8212
 20
26.5438
 30
0.0
 10
9.9319
 20
25.6545
 30
0.0
 10
8.8415
 20
25.6545
 30
0.0
 10
8.8415
 20
25.6545
 30
0.0
 10
7.7511
 20
25.6545
 30
0.0
 10
6.8618
 20
26.5438
 30
0.0
 10
6.8618
 20
27.634
 30
0.0
 10
6.8618
 20
27.634
 30
0.0
 10
6.8618
 20
28.7246
 30
0.0
 10
7.7511
 20
29.6139
 30
0.0
 10
8.8415
 20
29.6139
 30
0.0
  0
SPLINE
  5
8B
330
1F
100
AcDbEntity
  8
VRSTVA_1
  6
NEW_LINE4
 62
   250
100
AcDbSpline
210
0.0
220
0.0
230
1.0
 70
    24
 71
     3
 72
     8
 73
     4
 74
     0
 42
0.0000000001
 43
0.0000000001
 40
0.0
 40
0.0
 40
0.0
 40
0.0
 40
1.0
 40
1.0
 40
1.0
 40
1.0
 10
8.8419
 20
30.8527
 30
0.0
 10
8.8419
 20
30.8527
 30
0.0
 10
8.8419
 20
23.8668
 30
0.0
 10
8.8419
 20
23.8668
 30
0.0
  0
SPLINE
  5
8D
330
1F
100
AcDbEntity
  8
VRSTVA_1
  6
NEW_LINE5
 62
   250
100
AcDbSpline
210
0.0
220
0.0
230
1.0
 70
    24
 71
     3
 72
     8
 73
     4
 74
     0
 42
0.0000000001
 43
0.0000000001
 40
0.0
 40
0.0
 40
0.0
 40
0.0
 40
1.0
 40
1.0
 40
1.0
 40
1.0
 10
5.349
 20
27.6074
 30
0.0
 10
5.349
 20
27.6074
 30
0.0
 10
12.6213
 20
27.6074
 30
0.0
 10
12.6213
 20
27.6074
 30
0.0
  0
SPLINE
  5
8F
330
1F
100
AcDbEntity
  8
VRSTVA_1
 62
   250
100
AcDbSpline
210
0.0
220
0.0
230
1.0
 70
    24
 71
     3
 72
     8
 73
     4
 74
     0
 42
0.0000000001
 43
0.0000000001
 40
0.0
 40
0.0
 40
0.0
 40
0.0
 40
1.0
 40
1.0
 40
1.0
 40
1.0
 10
-13.3132
 20
29.7449
 30
0.0
 10
-13.3132
 20
29.7449
 30
0.0
 10
-23.2581
 20
29.7449
 30
0.0
 10
-23.2581
 20
29.7449
 30
0.0
  0
SPLINE
  5
90
330
1F
100
AcDbEntity
  8
VRSTVA_1
 62
   250
100
AcDbSpline
210
0.0
220
0.0
230
1.0
 70
     8
 71
     3
 72
    40
 73
    36
 74
     0
 42
0.0000000001
 43
0.0000000001
 40
0.0
 40
0.0
 40
0.0
 40
0.0
 40
0.1
 40
0.1
 40
0.1
 40
0.1
 40
0.2
 40
0.2
 40
0.2
 40
0.2
 40
0.3
 40
0.3
 40
0.3
 40
0.3
 40
0.4
 40
0.4
 40
0.4
 40
0.4
 40
0.5
 40
0.5
 40
0.5
 40
0.5
 40
0.6
 40
0.6
 40
0.6
 40
0.6
 40
0.7
 40
0.7
 40
0.7
 40
0.7
 40
0.8
 40
0.8
 40
0.8
 40
0.8
 40
1.0
 40
1.0
 40
1.0
 40
1.0
 10
-23.2581
 20
29.7449
 30
0.0
 10
-24.6059
 20
29.7449
 30
0.0
 10
-25.7079
 20
28.64
 30
0.0
 10
-25.7084
 20
27.2894
 30
0.0
 10
-25.7084
 20
27.2894
 30
0.0
 10
-25.7084
 20
27.2894
 30
0.0
 10
-25.715
 20
3.8063
 30
0.0
 10
-25.715
 20
3.8063
 30
0.0
 10
-25.715
 20
3.8063
 30
0.0
 10
-25.715
 20
-4.9052
 30
0.0
 10
-23.0197
 20
-12.8298
 30
0.0
 10
-18.3752
 20
-18.4228
 30
0.0
 10
-18.3752
 20
-18.4228
 30
0.0
 10
-14.012
 20
-23.6768
 30
0.0
 10
-7.9042
 20
-26.8687
 30
0.0
 10
-1.4233
 20
-26.8687
 30
0.0
 10
-1.4233
 20
-26.8687
 30
0.0
 10
4.3258
 20
-26.8687
 30
0.0
 10
9.9392
 20
-24.4523
 30
0.0
 10
14.107
 20
-20.21
 30
0.0
 10
14.107
 20
-20.21
 30
0.0
 10
19.6391
 20
-14.5794
 30
0.0
 10
22.8685
 20
-5.8292
 30
0.0
 10
22.8685
 20
3.8064
 30
0.0
 10
22.8685
 20
3.8064
 30
0.0
 10
22.8685
 20
3.8064
 30
0.0
 10
22.8778
 20
27.2894
 30
0.0
 10
22.8778
 20
27.2894
 30
0.0
 10
22.8778
 20
27.2894
 30
0.0
 10
22.8783
 20
28.6398
 30
0.0
 10
21.7749
 20
29.7449
 30
0.0
 10
20.4275
 20
29.7449
 30
0.0
 10
20.4275
 20
29.7449
 30
0.0
 10
20.4275
 20
29.7449
 30
0.0
 10
10.4125
 20
29.7449
 30
0.0
 10
10.4125
 20
29.7449
 30
0.0
  0
SPLINE
  5
91
330
1F
100
AcDbEntity
  8
VRSTVA_1
 62
   250
100
AcDbSpline
210
0.0
220
0.0
230
1.0
 70
    24
 71
     3
 72
     8
 73
     4
 74
     0
 42
0.0000000001
 43
0.0000000001
 40
0.0
 40
0.0
 40
0.0
 40
0.0
 40
1.0
 40
1.0
 40
1.0
 40
1.0
 10
7.2186
 20
29.7449
 30
0.0
 10
7.2186
 20
29.7449
 30
0.0
 10
-9.9811
 20
29.7449
 30
0.0
 10
-9.9811
 20
29.7449
 30
0.0
  0
SPLINE
  5
92
330
1F
100
AcDbEntity
  8
VRSTVA_1
 62
   250
100
AcDbSpline
210
0.0
220
0.0
230
1.0
 70
     8
 71
     3
 72
    24
 73
    20
 74
     0
 42
0.0000000001
 43
0.0000000001
 40
0.0
 40
0.0
 40
0.0
 40
0.0
 40
0.1666666666666667
 40
0.1666666666666667
 40
0.1666666666666667
 40
0.1666666666666667
 40
0.3333333333333333
 40
0.3333333333333333
 40
0.3333333333333333
 40
0.3333333333333333
 40
0.5
 40
0.5
 40
0.5
 40
0.5
 40
0.6666666666666666
 40
0.6666666666666666
 40
0.6666666666666666
 40
0.6666666666666666
 40
1.0
 40
1.0
 40
1.0
 40
1.0
 10
-25.7085
 20
22.6353
 30
0.0
 10
-25.7085
 20
23.8248
 30
0.0
 10
-24.7355
 20
24.7978
 30
0.0
 10
-23.5461
 20
24.7978
 30
0.0
 10
-23.5461
 20
24.7978
 30
0.0
 10
-23.5461
 20
24.7978
 30
0.0
 10
-17.0443
 20
24.7899
 30
0.0
 10
-17.0443
 20
24.7899
 30
0.0
 10
-17.0443
 20
24.7899
 30
0.0
 10
-16.3914
 20
24.7891
 30
0.0
 10
-15.8559
 20
25.3331
 30
0.0
 10
-15.8571
 20
25.9968
 30
0.0
 10
-15.8571
 20
25.9968
 30
0.0
 10
-15.8571
 20
25.9968
 30
0.0
 10
-15.8623
 20
28.6173
 30
0.0
 10
-15.8623
 20
28.6173
 30
0.0
 10
-15.8623
 20
28.6173
 30
0.0
 10
-15.8623
 20
29.2423
 30
0.0
 10
-15.299
 20
29.753
 30
0.0
 10
-14.674
 20
29.753
 30
0.0
  0
SPLINE
  5
93
330
1F
100
AcDbEntity
  8
VRSTVA_1
 62
   250
100
AcDbSpline
210
0.0
220
0.0
230
1.0
 70
     8
 71
     3
 72
    24
 73
    20
 74
     0
 42
0.0000000001
 43
0.0000000001
 40
0.0
 40
0.0
 40
0.0
 40
0.0
 40
0.1666666666666667
 40
0.1666666666666667
 40
0.1666666666666667
 40
0.1666666666666667
 40
0.3333333333333333
 40
0.3333333333333333
 40
0.3333333333333333
 40
0.3333333333333333
 40
0.5
 40
0.5
 40
0.5
 40
0.5
 40
0.6666666666666666
 40
0.6666666666666666
 40
0.6666666666666666
 40
0.6666666666666666
 40
1.0
 40
1.0
 40
1.0
 40
1.0
 10
22.8894
 20
22.6353
 30
0.0
 10
22.8894
 20
23.8248
 30
0.0
 10
21.9164
 20
24.7978
 30
0.0
 10
20.7269
 20
24.7978
 30
0.0
 10
20.7269
 20
24.7978
 30
0.0
 10
20.7269
 20
24.7978
 30
0.0
 10
14.2251
 20
24.7899
 30
0.0
 10
14.2251
 20
24.7899
 30
0.0
 10
14.2251
 20
24.7899
 30
0.0
 10
13.5722
 20
24.7891
 30
0.0
 10
13.0367
 20
25.3331
 30
0.0
 10
13.0378
 20
25.9968
 30
0.0
 10
13.0378
 20
25.9968
 30
0.0
 10
13.0378
 20
25.9968
 30
0.0
 10
13.043
 20
28.6173
 30
0.0
 10
13.043
 20
28.6173
 30
0.0
 10
13.043
 20
28.6173
 30
0.0
 10
13.043
 20
29.2423
 30
0.0
 10
12.4798
 20
29.753
 30
0.0
 10
11.8547
 20
29.753
 30
0.0
  0
SPLINE
  5
94
330
1F
100
AcDbEntity
  8
VRSTVA_1
 62
   250
100
AcDbSpline
210
0.0
220
0.0
230
1.0
 70
    11
 71
     3
 72
    48
 73
    44
 74
     0
 42
0.0000000001
 43
0.0000000001
 40
0.0
 40
0.0
 40
0.0
 40
0.0
 40
0.0833333333333333
 40
0.0833333333333333
 40
0.0833333333333333
 40
0.0833333333333333
 40
0.1666666666666667
 40
0.1666666666666667
 40
0.1666666666666667
 40
0.1666666666666667
 40
0.25
 40
0.25
 40
0.25
 40
0.25
 40
0.3333333333333333
 40
0.3333333333333333
 40
0.3333333333333333
 40
0.3333333333333333
 40
0.4166666666666667
 40
0.4166666666666667
 40
0.4166666666666667
 40
0.4166666666666667
 40
0.5
 40
0.5
 40
0.5
 40
0.5
 40
0.5833333333333334
 40
0.5833333333333334
 40
0.5833333333333334
 40
0.5833333333333334
 40
0.6666666666666666
 40
0.6666666666666666
 40
0.6666666666666666
 40
0.6666666666666666
 40
0.75
 40
0.75
 40
0.75
 40
0.75
 40
0.8333333333333334
 40
0.8333333333333334
 40
0.8333333333333334
 40
0.8333333333333334
 40
1.0
 40
1.0
 40
1.0
 40
1.0
 10
-32.0715
 20
1.9879
 30
0.0
 10
-32.0715
 20
1.9879
 30
0.0
 10
-32.555
 20
1.9879
 30
0.0
 10
-32.555
 20
1.9879
 30
0.0
 10
-32.555
 20
1.9879
 30
0.0
 10
-32.555
 20
1.9879
 30
0.0
 10
-32.555
 20
1.1116
 30
0.0
 10
-32.555
 20
1.1116
 30
0.0
 10
-32.555
 20
1.1116
 30
0.0
 10
-32.555
 20
1.1116
 30
0.0
 10
-32.7827
 20
1.1116
 30
0.0
 10
-32.7827
 20
1.1116
 30
0.0
 10
-32.7827
 20
1.1116
 30
0.0
 10
-32.7827
 20
1.1116
 30
0.0
 10
-34.0917
 20
2.0336
 30
0.0
 10
-34.0917
 20
2.0336
 30
0.0
 10
-34.0917
 20
2.0336
 30
0.0
 10
-34.0917
 20
2.0336
 30
0.0
 10
-34.0917
 20
2.2363
 30
0.0
 10
-34.0917
 20
2.2363
 30
0.0
 10
-34.0917
 20
2.2363
 30
0.0
 10
-34.0917
 20
2.2363
 30
0.0
 10
-32.7827
 20
2.2363
 30
0.0
 10
-32.7827
 20
2.2363
 30
0.0
 10
-32.7827
 20
2.2363
 30
0.0
 10
-32.7827
 20
2.2363
 30
0.0
 10
-32.7827
 20
2.5091
 30
0.0
 10
-32.7827
 20
2.5091
 30
0.0
 10
-32.7827
 20
2.5091
 30
0.0
 10
-32.7827
 20
2.5091
 30
0.0
 10
-32.555
 20
2.5091
 30
0.0
 10
-32.555
 20
2.5091
 30
0.0
 10
-32.555
 20
2.5091
 30
0.0
 10
-32.555
 20
2.5091
 30
0.0
 10
-32.555
 20
2.2363
 30
0.0
 10
-32.555
 20
2.2363
 30
0.0
 10
-32.555
 20
2.2363
 30
0.0
 10
-32.555
 20
2.2363
 30
0.0
 10
-32.0715
 20
2.2363
 30
0.0
 10
-32.0715
 20
2.2363
 30
0.0
 10
-32.0715
 20
2.2363
 30
0.0
 10
-32.0715
 20
2.2363
 30
0.0
 10
-32.0715
 20
1.9879
 30
0.0
 10
-32.0715
 20
1.9879
 30
0.0
  0
SPLINE
  5
95
330
1F
100
AcDbEntity
  8
VRSTVA_1
 62
   250
100
AcDbSpline
210
0.0
220
0.0
230
1.0
 70
    11
 71
     3
 72
    16
 73
    12
 74
     0
 42
0.0000000001
 43
0.0000000001
 40
0.0
 40
0.0
 40
0.0
 40
0.0
 40
0.25
 40
0.25
 40
0.25
 40
0.25
 40
0.5
 40
0.5
 40
0.5
 40
0.5
 40
1.0
 40
1.0
 40
1.0
 40
1.0
 10
-32.7827
 20
1.9879
 30
0.0
 10
-32.7827
 20
1.9879
 30
0.0
 10
-33.6933
 20
1.9879
 30
0.0
 10
-33.6933
 20
1.9879
 30
0.0
 10
-33.6933
 20
1.9879
 30
0.0
 10
-33.6933
 20
1.9879
 30
0.0
 10
-32.7827
 20
1.3558
 30
0.0
 10
-32.7827
 20
1.3558
 30
0.0
 10
-32.7827
 20
1.3558
 30
0.0
 10
-32.7827
 20
1.3558
 30
0.0
 10
-32.7827
 20
1.9879
 30
0.0
 10
-32.7827
 20
1.9879
 30
0.0
  0
SPLINE
  5
96
330
1F
100
AcDbEntity
  8
VRSTVA_1
 62
   250
100
AcDbSpline
210
0.0
220
0.0
230
1.0
 70
    11
 71
     3
 72
    80
 73
    76
 74
     0
 42
0.0000000001
 43
0.0000000001
 40
0.0
 40
0.0
 40
0.0
 40
0.0
 40
0.05
 40
0.05
 40
0.05
 40
0.05
 40
0.1
 40
0.1
 40
0.1
 40
0.1
 40
0.15
 40
0.15
 40
0.15
 40
0.15
 40
0.2
 40
0.2
 40
0.2
 40
0.2
 40
0.25
 40
0.25
 40
0.25
 40
0.25
 40
0.3
 40
0.3
 40
0.3
 40
0.3
 40
0.35
 40
0.35
 40
0.35
 40
0.35
 40
0.4
 40
0.4
 40
0.4
 40
0.4
 40
0.45
 40
0.45
 40
0.45
 40
0.45
 40
0.5
 40
0.5
 40
0.5
 40
0.5
 40
0.55
 40
0.55
 40
0.55
 40
0.55
 40
0.6
 40
0.6
 40
0.6
 40
0.6
 40
0.65
 40
0.65
 40
0.65
 40
0.65
 40
0.7
 40
0.7
 40
0.7
 40
0.7
 40
0.75
 40
0.75
 40
0.75
 40
0.75
 40
0.8
 40
0.8
 40
0.8
 40
0.8
 40
0.85
 40
0.85
 40
0.85
 40
0.85
 40
0.9
 40
0.9
 40
0.9
 40
0.9
 40
1.0
 40
1.0
 40
1.0
 40
1.0
 10
-33.5969
 20
4.0495
 30
0.0
 10
-33.5969
 20
4.0495
 30
0.0
 10
-33.5776
 20
3.8031
 30
0.0
 10
-33.5776
 20
3.8031
 30
0.0
 10
-33.5776
 20
3.8031
 30
0.0
 10
-33.675
 20
3.781
 30
0.0
 10
-33.746
 20
3.7499
 30
0.0
 10
-33.7897
 20
3.7095
 30
0.0
 10
-33.7897
 20
3.7095
 30
0.0
 10
-33.8608
 20
3.6422
 30
0.0
 10
-33.8961
 20
3.5594
 30
0.0
 10
-33.8961
 20
3.4611
 30
0.0
 10
-33.8961
 20
3.4611
 30
0.0
 10
-33.8961
 20
3.3821
 30
0.0
 10
-33.8739
 20
3.313
 30
0.0
 10
-33.8297
 20
3.2532
 30
0.0
 10
-33.8297
 20
3.2532
 30
0.0
 10
-33.7728
 20
3.1751
 30
0.0
 10
-33.6896
 20
3.1135
 30
0.0
 10
-33.5804
 20
3.0684
 30
0.0
 10
-33.5804
 20
3.0684
 30
0.0
 10
-33.4713
 20
3.0237
 30
0.0
 10
-33.3156
 20
3.0002
 30
0.0
 10
-33.1134
 20
2.9983
 30
0.0
 10
-33.1134
 20
2.9983
 30
0.0
 10
-33.2041
 20
3.058
 30
0.0
 10
-33.2719
 20
3.1309
 30
0.0
 10
-33.3161
 20
3.2175
 30
0.0
 10
-33.3161
 20
3.2175
 30
0.0
 10
-33.3598
 20
3.3035
 30
0.0
 10
-33.3819
 20
3.3943
 30
0.0
 10
-33.3819
 20
3.4889
 30
0.0
 10
-33.3819
 20
3.4889
 30
0.0
 10
-33.3819
 20
3.6544
 30
0.0
 10
-33.3213
 20
3.7951
 30
0.0
 10
-33.1994
 20
3.9113
 30
0.0
 10
-33.1994
 20
3.9113
 30
0.0
 10
-33.0776
 20
4.0274
 30
0.0
 10
-32.9205
 20
4.0858
 30
0.0
 10
-32.7277
 20
4.0858
 30
0.0
 10
-32.7277
 20
4.0858
 30
0.0
 10
-32.6007
 20
4.0858
 30
0.0
 10
-32.4831
 20
4.058
 30
0.0
 10
-32.3739
 20
4.0034
 30
0.0
 10
-32.3739
 20
4.0034
 30
0.0
 10
-32.2653
 20
3.9489
 30
0.0
 10
-32.1816
 20
3.8736
 30
0.0
 10
-32.1237
 20
3.7781
 30
0.0
 10
-32.1237
 20
3.7781
 30
0.0
 10
-32.0659
 20
3.6827
 30
0.0
 10
-32.0372
 20
3.5745
 30
0.0
 10
-32.0372
 20
3.4531
 30
0.0
 10
-32.0372
 20
3.4531
 30
0.0
 10
-32.0372
 20
3.2462
 30
0.0
 10
-32.1129
 20
3.0778
 30
0.0
 10
-32.2653
 20
2.9475
 30
0.0
 10
-32.2653
 20
2.9475
 30
0.0
 10
-32.4172
 20
2.8167
 30
0.0
 10
-32.6679
 20
2.7518
 30
0.0
 10
-33.0169
 20
2.7518
 30
0.0
 10
-33.0169
 20
2.7518
 30
0.0
 10
-33.4073
 20
2.7518
 30
0.0
 10
-33.691
 20
2.8238
 30
0.0
 10
-33.8683
 20
2.9682
 30
0.0
 10
-33.8683
 20
2.9682
 30
0.0
 10
-34.0226
 20
3.0938
 30
0.0
 10
-34.1002
 20
3.2631
 30
0.0
 10
-34.1002
 20
3.4766
 30
0.0
 10
-34.1002
 20
3.4766
 30
0.0
 10
-34.1002
 20
3.6352
 30
0.0
 10
-34.0555
 20
3.7654
 30
0.0
 10
-33.9661
 20
3.867
 30
0.0
 10
-33.9661
 20
3.867
 30
0.0
 10
-33.8772
 20
3.9686
 30
0.0
 10
-33.754
 20
4.0293
 30
0.0
 10
-33.5969
 20
4.0495
 30
0.0
  0
SPLINE
  5
97
330
1F
100
AcDbEntity
  8
VRSTVA_1
 62
   250
100
AcDbSpline
210
0.0
220
0.0
230
1.0
 70
    11
 71
     3
 72
    40
 73
    36
 74
     0
 42
0.0000000001
 43
0.0000000001
 40
0.0
 40
0.0
 40
0.0
 40
0.0
 40
0.1
 40
0.1
 40
0.1
 40
0.1
 40
0.2
 40
0.2
 40
0.2
 40
0.2
 40
0.3
 40
0.3
 40
0.3
 40
0.3
 40
0.4
 40
0.4
 40
0.4
 40
0.4
 40
0.5
 40
0.5
 40
0.5
 40
0.5
 40
0.6
 40
0.6
 40
0.6
 40
0.6
 40
0.7
 40
0.7
 40
0.7
 40
0.7
 40
0.8
 40
0.8
 40
0.8
 40
0.8
 40
1.0
 40
1.0
 40
1.0
 40
1.0
 10
-32.7263
 20
3.0368
 30
0.0
 10
-32.6406
 20
3.0368
 30
0.0
 10
-32.5588
 20
3.0552
 30
0.0
 10
-32.4807
 20
3.0914
 30
0.0
 10
-32.4807
 20
3.0914
 30
0.0
 10
-32.4026
 20
3.1276
 30
0.0
 10
-32.3434
 20
3.1784
 30
0.0
 10
-32.3025
 20
3.2433
 30
0.0
 10
-32.3025
 20
3.2433
 30
0.0
 10
-32.2615
 20
3.3087
 30
0.0
 10
-32.2408
 20
3.3774
 30
0.0
 10
-32.2408
 20
3.4489
 30
0.0
 10
-32.2408
 20
3.4489
 30
0.0
 10
-32.2408
 20
3.5538
 30
0.0
 10
-32.2832
 20
3.6436
 30
0.0
 10
-32.3678
 20
3.7189
 30
0.0
 10
-32.3678
 20
3.7189
 30
0.0
 10
-32.4525
 20
3.7941
 30
0.0
 10
-32.5673
 20
3.8318
 30
0.0
 10
-32.7121
 20
3.8318
 30
0.0
 10
-32.7121
 20
3.8318
 30
0.0
 10
-32.8518
 20
3.8318
 30
0.0
 10
-32.9619
 20
3.7946
 30
0.0
 10
-33.0423
 20
3.7203
 30
0.0
 10
-33.0423
 20
3.7203
 30
0.0
 10
-33.1228
 20
3.646
 30
0.0
 10
-33.1628
 20
3.5524
 30
0.0
 10
-33.1628
 20
3.4395
 30
0.0
 10
-33.1628
 20
3.4395
 30
0.0
 10
-33.1628
 20
3.3271
 30
0.0
 10
-33.1228
 20
3.232
 30
0.0
 10
-33.0423
 20
3.154
 30
0.0
 10
-33.0423
 20
3.154
 30
0.0
 10
-32.9619
 20
3.0759
 30
0.0
 10
-32.8565
 20
3.0368
 30
0.0
 10
-32.7263
 20
3.0368
 30
0.0
  0
SPLINE
  5
98
330
1F
100
AcDbEntity
  8
VRSTVA_1
 62
   250
100
AcDbSpline
210
0.0
220
0.0
230
1.0
 70
    11
 71
     3
 72
    52
 73
    48
 74
     0
 42
0.0000000001
 43
0.0000000001
 40
0.0
 40
0.0
 40
0.0
 40
0.0
 40
0.0769230769230769
 40
0.0769230769230769
 40
0.0769230769230769
 40
0.0769230769230769
 40
0.1538461538461539
 40
0.1538461538461539
 40
0.1538461538461539
 40
0.1538461538461539
 40
0.2307692307692308
 40
0.2307692307692308
 40
0.2307692307692308
 40
0.2307692307692308
 40
0.3076923076923077
 40
0.3076923076923077
 40
0.3076923076923077
 40
0.3076923076923077
 40
0.3846153846153846
 40
0.3846153846153846
 40
0.3846153846153846
 40
0.3846153846153846
 40
0.4615384615384616
 40
0.4615384615384616
 40
0.4615384615384616
 40
0.4615384615384616
 40
0.5384615384615384
 40
0.5384615384615384
 40
0.5384615384615384
 40
0.5384615384615384
 40
0.6153846153846154
 40
0.6153846153846154
 40
0.6153846153846154
 40
0.6153846153846154
 40
0.6923076923076923
 40
0.6923076923076923
 40
0.6923076923076923
 40
0.6923076923076923
 40
0.7692307692307693
 40
0.7692307692307693
 40
0.7692307692307693
 40
0.7692307692307693
 40
0.8461538461538461
 40
0.8461538461538461
 40
0.8461538461538461
 40
0.8461538461538461
 40
1.0
 40
1.0
 40
1.0
 40
1.0
 10
-33.0677
 20
4.3322
 30
0.0
 10
-33.3067
 20
4.3322
 30
0.0
 10
-33.4991
 20
4.3567
 30
0.0
 10
-33.6444
 20
4.4061
 30
0.0
 10
-33.6444
 20
4.4061
 30
0.0
 10
-33.7902
 20
4.455
 30
0.0
 10
-33.9026
 20
4.5284
 30
0.0
 10
-33.9817
 20
4.6253
 30
0.0
 10
-33.9817
 20
4.6253
 30
0.0
 10
-34.0607
 20
4.7222
 30
0.0
 10
-34.1002
 20
4.844
 30
0.0
 10
-34.1002
 20
4.9907
 30
0.0
 10
-34.1002
 20
4.9907
 30
0.0
 10
-34.1002
 20
5.0994
 30
0.0
 10
-34.0781
 20
5.1944
 30
0.0
 10
-34.0343
 20
5.2762
 30
0.0
 10
-34.0343
 20
5.2762
 30
0.0
 10
-33.9911
 20
5.3581
 30
0.0
 10
-33.928
 20
5.4254
 30
0.0
 10
-33.8457
 20
5.479
 30
0.0
 10
-33.8457
 20
5.479
 30
0.0
 10
-33.7634
 20
5.5321
 30
0.0
 10
-33.6632
 20
5.574
 30
0.0
 10
-33.5452
 20
5.6041
 30
0.0
 10
-33.5452
 20
5.6041
 30
0.0
 10
-33.4271
 20
5.6347
 30
0.0
 10
-33.2681
 20
5.6497
 30
0.0
 10
-33.0677
 20
5.6497
 30
0.0
 10
-33.0677
 20
5.6497
 30
0.0
 10
-32.8307
 20
5.6497
 30
0.0
 10
-32.6397
 20
5.6253
 30
0.0
 10
-32.4939
 20
5.5768
 30
0.0
 10
-32.4939
 20
5.5768
 30
0.0
 10
-32.3481
 20
5.5279
 30
0.0
 10
-32.2357
 20
5.455
 30
0.0
 10
-32.1562
 20
5.3581
 30
0.0
 10
-32.1562
 20
5.3581
 30
0.0
 10
-32.0767
 20
5.2612
 30
0.0
 10
-32.0372
 20
5.1389
 30
0.0
 10
-32.0372
 20
4.9907
 30
0.0
 10
-32.0372
 20
4.9907
 30
0.0
 10
-32.0372
 20
4.796
 30
0.0
 10
-32.1068
 20
4.6431
 30
0.0
 10
-32.2465
 20
4.5321
 30
0.0
 10
-32.2465
 20
4.5321
 30
0.0
 10
-32.4144
 20
4.399
 30
0.0
 10
-32.6886
 20
4.3322
 30
0.0
 10
-33.0677
 20
4.3322
 30
0.0
  0
SPLINE
  5
99
330
1F
100
AcDbEntity
  8
VRSTVA_1
 62
   250
100
AcDbSpline
210
0.0
220
0.0
230
1.0
 70
    11
 71
     3
 72
    36
 73
    32
 74
     0
 42
0.0000000001
 43
0.0000000001
 40
0.0
 40
0.0
 40
0.0
 40
0.0
 40
0.1111111111111111
 40
0.1111111111111111
 40
0.1111111111111111
 40
0.1111111111111111
 40
0.2222222222222222
 40
0.2222222222222222
 40
0.2222222222222222
 40
0.2222222222222222
 40
0.3333333333333333
 40
0.3333333333333333
 40
0.3333333333333333
 40
0.3333333333333333
 40
0.4444444444444444
 40
0.4444444444444444
 40
0.4444444444444444
 40
0.4444444444444444
 40
0.5555555555555556
 40
0.5555555555555556
 40
0.5555555555555556
 40
0.5555555555555556
 40
0.6666666666666666
 40
0.6666666666666666
 40
0.6666666666666666
 40
0.6666666666666666
 40
0.7777777777777778
 40
0.7777777777777778
 40
0.7777777777777778
 40
0.7777777777777778
 40
1.0
 40
1.0
 40
1.0
 40
1.0
 10
-33.0677
 20
4.5872
 30
0.0
 10
-32.7361
 20
4.5872
 30
0.0
 10
-32.5155
 20
4.6262
 30
0.0
 10
-32.4055
 20
4.7038
 30
0.0
 10
-32.4055
 20
4.7038
 30
0.0
 10
-32.2959
 20
4.7814
 30
0.0
 10
-32.2408
 20
4.8769
 30
0.0
 10
-32.2408
 20
4.9907
 30
0.0
 10
-32.2408
 20
4.9907
 30
0.0
 10
-32.2408
 20
5.105
 30
0.0
 10
-32.2963
 20
5.2005
 30
0.0
 10
-32.4064
 20
5.2781
 30
0.0
 10
-32.4064
 20
5.2781
 30
0.0
 10
-32.5165
 20
5.3557
 30
0.0
 10
-32.7371
 20
5.3948
 30
0.0
 10
-33.0677
 20
5.3948
 30
0.0
 10
-33.0677
 20
5.3948
 30
0.0
 10
-33.4003
 20
5.3948
 30
0.0
 10
-33.6214
 20
5.3557
 30
0.0
 10
-33.7305
 20
5.2781
 30
0.0
 10
-33.7305
 20
5.2781
 30
0.0
 10
-33.8401
 20
5.2005
 30
0.0
 10
-33.8946
 20
5.1041
 30
0.0
 10
-33.8946
 20
4.9884
 30
0.0
 10
-33.8946
 20
4.9884
 30
0.0
 10
-33.8946
 20
4.8741
 30
0.0
 10
-33.8462
 20
4.7833
 30
0.0
 10
-33.7498
 20
4.7151
 30
0.0
 10
-33.7498
 20
4.7151
 30
0.0
 10
-33.627
 20
4.63
 30
0.0
 10
-33.3993
 20
4.5872
 30
0.0
 10
-33.0677
 20
4.5872
 30
0.0
  0
SPLINE
  5
9A
330
1F
100
AcDbEntity
  8
VRSTVA_1
 62
   250
100
AcDbSpline
210
0.0
220
0.0
230
1.0
 70
    11
 71
     3
 72
    20
 73
    16
 74
     0
 42
0.0000000001
 43
0.0000000001
 40
0.0
 40
0.0
 40
0.0
 40
0.0
 40
0.2
 40
0.2
 40
0.2
 40
0.2
 40
0.4
 40
0.4
 40
0.4
 40
0.4
 40
0.6
 40
0.6
 40
0.6
 40
0.6
 40
1.0
 40
1.0
 40
1.0
 40
1.0
 10
-31.3679
 20
-27.0064
 30
0.0
 10
-31.3679
 20
-27.0064
 30
0.0
 10
-30.9592
 20
-24.2072
 30
0.0
 10
-30.9592
 20
-24.2072
 30
0.0
 10
-30.9592
 20
-24.2072
 30
0.0
 10
-30.9592
 20
-24.2072
 30
0.0
 10
-31.8614
 20
-24.2072
 30
0.0
 10
-31.8614
 20
-24.2072
 30
0.0
 10
-31.8614
 20
-24.2072
 30
0.0
 10
-31.8614
 20
-24.2072
 30
0.0
 10
-31.3692
 20
-27.0064
 30
0.0
 10
-31.3692
 20
-27.0064
 30
0.0
 10
-31.3692
 20
-27.0064
 30
0.0
 10
-31.3692
 20
-27.0064
 30
0.0
 10
-31.3679
 20
-27.0064
 30
0.0
 10
-31.3679
 20
-27.0064
 30
0.0
  0
SPLINE
  5
9B
330
1F
100
AcDbEntity
  8
VRSTVA_1
 62
   250
100
AcDbSpline
210
0.0
220
0.0
230
1.0
 70
    11
 71
     3
 72
    20
 73
    16
 74
     0
 42
0.0000000001
 43
0.0000000001
 40
0.0
 40
0.0
 40
0.0
 40
0.0
 40
0.2
 40
0.2
 40
0.2
 40
0.2
 40
0.4
 40
0.4
 40
0.4
 40
0.4
 40
0.6
 40
0.6
 40
0.6
 40
0.6
 40
1.0
 40
1.0
 40
1.0
 40
1.0
 10
-31.399
 20
29.6983
 30
0.0
 10
-31.399
 20
29.6983
 30
0.0
 10
-31.8077
 20
26.8991
 30
0.0
 10
-31.8077
 20
26.8991
 30
0.0
 10
-31.8077
 20
26.8991
 30
0.0
 10
-31.8077
 20
26.8991
 30
0.0
 10
-30.9055
 20
26.8991
 30
0.0
 10
-30.9055
 20
26.8991
 30
0.0
 10
-30.9055
 20
26.8991
 30
0.0
 10
-30.9055
 20
26.8991
 30
0.0
 10
-31.3978
 20
29.6983
 30
0.0
 10
-31.3978
 20
29.6983
 30
0.0
 10
-31.3978
 20
29.6983
 30
0.0
 10
-31.3978
 20
29.6983
 30
0.0
 10
-31.399
 20
29.6983
 30
0.0
 10
-31.399
 20
29.6983
 30
0.0
  0
SPLINE
  5
9C
330
1F
100
AcDbEntity
  8
VRSTVA_1
 62
   250
100
AcDbSpline
210
0.0
220
0.0
230
1.0
 70
    24
 71
     3
 72
     8
 73
     4
 74
     0
 42
0.0000000001
 43
0.0000000001
 40
0.0
 40
0.0
 40
0.0
 40
0.0
 40
1.0
 40
1.0
 40
1.0
 40
1.0
 10
-31.406
 20
29.3652
 30
0.0
 10
-31.406
 20
29.3652
 30
0.0
 10
-31.406
 20
-26.4931
 30
0.0
 10
-31.406
 20
-26.4931
 30
0.0
  0
SPLINE
  5
9D
330
1F
100
AcDbEntity
  8
VRSTVA_1
 62
   250
100
AcDbSpline
210
0.0
220
0.0
230
1.0
 70
    24
 71
     3
 72
     8
 73
     4
 74
     0
 42
0.0000000001
 43
0.0000000001
 40
0.0
 40
0.0
 40
0.0
 40
0.0
 40
1.0
 40
1.0
 40
1.0
 40
1.0
 10
-7.8096
 20
-27.1346
 30
0.0
 10
-7.8096
 20
-27.1346
 30
0.0
 10
-32.2217
 20
-27.1346
 30
0.0
 10
-32.2217
 20
-27.1346
 30
0.0
  0
SPLINE
  5
9E
330
1F
100
AcDbEntity
  8
VRSTVA_1
 62
   250
100
AcDbSpline
210
0.0
220
0.0
230
1.0
 70
    24
 71
     3
 72
     8
 73
     4
 74
     0
 42
0.0000000001
 43
0.0000000001
 40
0.0
 40
0.0
 40
0.0
 40
0.0
 40
1.0
 40
1.0
 40
1.0
 40
1.0
 10
-24.8924
 20
29.7488
 30
0.0
 10
-24.8924
 20
29.7488
 30
0.0
 10
-32.0192
 20
29.7488
 30
0.0
 10
-32.0192
 20
29.7488
 30
0.0
  0
ENDSEC
  0
SECTION
  2
OBJECTS
  0
DICTIONARY
  5
C
330
0
100
AcDbDictionary
  3
ACAD_GROUP
350
D
  3
ACAD_LAYOUT
350
1A
  3
ACAD_MATERIAL
350
3B
  3
ACAD_MLEADERSTYLE
350
C1
  3
ACAD_MLINESTYLE
350
17
  3
ACAD_PLOTSETTINGS
350
19
  3
ACAD_VISUALSTYLE
350
2A
  3
ACDBHEADERROUNDTRIPXREC
350
9F
  3
ACDBVARIABLEDICTIONARY
350
BF
  0
DICTIONARY
  5
D
102
{ACAD_REACTORS
330
C
102
}
330
C
100
AcDbDictionary
  0
DICTIONARY
  5
1A
102
{ACAD_REACTORS
330
C
102
}
330
C
100
AcDbDictionary
  0
DICTIONARY
  5
3B
102
{ACAD_REACTORS
330
C
102
}
330
C
100
AcDbDictionary
  3
BYBLOCK
350
3D
  3
BYLAYER
350
3C
  3
GLOBAL
350
3E
  0
DICTIONARY
  5
C1
102
{ACAD_REACTORS
330
C
102
}
330
C
100
AcDbDictionary
  0
DICTIONARY
  5
17
102
{ACAD_REACTORS
330
C
102
}
330
C
100
AcDbDictionary
  3
STANDARD
350
18
  0
DICTIONARY
  5
19
102
{ACAD_REACTORS
330
C
102
}
330
C
100
AcDbDictionary
  0
DICTIONARY
  5
2A
102
{ACAD_REACTORS
330
C
102
}
330
C
100
AcDbDictionary
  3
2DWIREFRAME
350
2F
  3
3D_HIDDEN
350
31
  3
3DWIREFRAME
350
30
  3
BASIC
350
32
  3
BRIGHTEN
350
36
  3
COLORCHANGE
350
3A
  3
CONCEPTUAL
350
34
  3
DIM
350
35
  3
FACEPATTERN
350
39
  3
FLAT
350
2B
  3
FLATWITHEDGES
350
2C
  3
GOURAUD
350
2D
  3
GOURAUDWITHEDGES
350
2E
  3
LINEPATTERN
350
38
  3
REALISTIC
350
33
  3
THICKEN
350
37
  0
DICTIONARY
  5
9F
102
{ACAD_REACTORS
330
C
102
}
330
C
100
AcDbDictionary
  3
CEPSNTYPE
350
A8
  3
DIMSTYLEDATA
350
BE
  3
FINGERPRINTGUID
350
A9
  3
HYPERLINKBASE
350
A2
  3
INSUNITS
350
A7
  3
LAYOUTDICT
350
A4
  3
LWETCUNION
350
A6
  3
PLOTSETDICT
350
A5
  3
PSVPSCALE
350
AB
  3
PUCSBASE
350
AE
  3
PUCSORGBACK
350
B4
  3
PUCSORGBOTTOM
350
B0
  3
PUCSORGFRONT
350
B3
  3
PUCSORGLEFT
350
B1
  3
PUCSORGRIGHT
350
B2
  3
PUCSORGTOP
350
AF
  3
PUCSORTHOREF
350
AC
  3
PUCSORTHOVIEW
350
AD
  3
STYLESHEET
350
A3
  3
TSTACKALIGN
350
A0
  3
TSTACKSIZE
350
A1
  3
UCSBASE
350
B7
  3
UCSORGBACK
350
BD
  3
UCSORGBOTTOM
350
B9
  3
UCSORGFRONT
350
BC
  3
UCSORGLEFT
350
BA
  3
UCSORGRIGHT
350
BB
  3
UCSORGTOP
350
B8
  3
UCSORTHOREF
350
B5
  3
UCSORTHOVIEW
350
B6
  3
VERSIONGUID
350
AA
  0
DICTIONARY
  5
BF
102
{ACAD_REACTORS
330
C
102
}
330
C
100
AcDbDictionary
  3
DIMASSOC
350
C2
  3
HIDETEXT
350
C3
  0
MATERIAL
  5
3D
102
{ACAD_REACTORS
330
3B
102
}
102
{ACAD_XDICTIONARY
360
C6
102
}
330
3B
100
AcDbMaterial
  1
ByBlock
  0
MATERIAL
  5
3C
102
{ACAD_REACTORS
330
3B
102
}
102
{ACAD_XDICTIONARY
360
C4
102
}
330
3B
100
AcDbMaterial
  1
ByLayer
  0
MATERIAL
  5
3E
102
{ACAD_REACTORS
330
3B
102
}
102
{ACAD_XDICTIONARY
360
C8
102
}
330
3B
100
AcDbMaterial
  1
Global
  0
MLINESTYLE
  5
18
102
{ACAD_REACTORS
330
17
102
}
330
17
100
AcDbMlineStyle
  2
Standard
 70
     0
  3

 62
   256
 51
90.0
 52
90.0
 71
     2
 49
0.5
 62
   256
  6
BYLAYER
 49
-0.5
 62
   256
  6
BYLAYER
  0
ACAD_PROXY_OBJECT
  5
2F
102
{ACAD_REACTORS
330
2A
102
}
330
2A
100
AcDbProxyObject
 90
      499
 91
      501
 93
      436
310
42CC9915DA5C99599C985B595049028333333333333E3BF0000000000000FB0107901411070040501600405405064090741402480A0340
1001
ACAD
1000
AcDbSavedByObjectVersion
1070
     0
  0
ACAD_PROXY_OBJECT
  5
31
102
{ACAD_REACTORS
330
2A
102
}
330
2A
100
AcDbProxyObject
 90
      499
 91
      501
 93
      500
310
424CD108121A5919195B90640502408333333333333E3BF0000000000000FB01079024090700405020000000000001110200405405064090740C02480A0340
1001
ACAD
1000
AcDbSavedByObjectVersion
1070
     0
  0
ACAD_PROXY_OBJECT
  5
30
102
{ACAD_REACTORS
330
2A
102
}
330
2A
100
AcDbProxyObject
 90
      499
 91
      501
 93
      436
310
42CCD915DA5C99599C985B595059028333333333333E3BF0000000000000FB0107901411070040501600405405064090741402480A0340
1001
ACAD
1000
AcDbSavedByObjectVersion
1070
     0
  0
ACAD_PROXY_OBJECT
  5
32
102
{ACAD_REACTORS
330
2A
102
}
330
2A
100
AcDbProxyObject
 90
      499
 91
      501
 93
      388
310
4150985CDA58D07406404333333333333E3BF0000000000000FB0107A41107004050150841D405064090741402480A0350
1001
ACAD
1000
AcDbSavedByObjectVersion
1070
     0
  0
ACAD_PROXY_OBJECT
  5
36
102
{ACAD_REACTORS
330
2A
102
}
330
2A
100
AcDbProxyObject
 90
      499
 91
      501
 93
      428
310
42109C9A59DA1D195B90C409028333333333333E3BF0000000000000FB010790141107004050150841D405064090741402480A029950
1001
ACAD
1000
AcDbSavedByObjectVersion
1070
     0
  0
ACAD_PROXY_OBJECT
  5
3A
102
{ACAD_REACTORS
330
2A
102
}
330
2A
100
AcDbProxyObject
 90
      499
 91
      501
 93
      452
310
42D0DBDB1BDC90DA185B99D95104090240C333333333333E3BF0000000000000FB0108901411070040501508421405064090741402480A0350
1001
ACAD
1000
AcDbSavedByObjectVersion
1070
     0
  0
ACAD_PROXY_OBJECT
  5
34
102
{ACAD_REACTORS
330
2A
102
}
330
2A
100
AcDbProxyObject
 90
      499
 91
      501
 93
      500
310
4290DBDB98D95C1D1D585B10940D028333333333333E3BF0000000000000FB0107902409070040501000000000000111010841D405064090740C02480A0340
1001
ACAD
1000
AcDbSavedByObjectVersion
1070
     0
  0
ACAD_PROXY_OBJECT
  5
35
102
{ACAD_REACTORS
330
2A
102
}
330
2A
100
AcDbProxyObject
 90
      499
 91
      501
 93
      412
310
40D11A5B50B409028333333333333E3BF0000000000000FB010790141107004050150841D405064090741402480A02677FFFFFD0
1001
ACAD
1000
AcDbSavedByObjectVersion
1070
     0
  0
ACAD_PROXY_OBJECT
  5
39
102
{ACAD_REACTORS
330
2A
102
}
330
2A
100
AcDbProxyObject
 90
      499
 91
      501
 93
      444
310
42D19858D95C185D1D195C9B90F409028333333333333E3BF0000000000000FB010790141107004050150841D405064090741402480A0350
1001
ACAD
1000
AcDbSavedByObjectVersion
1070
     0
  0
ACAD_PROXY_OBJECT
  5
2B
102
{ACAD_REACTORS
330
2A
102
}
330
2A
100
AcDbProxyObject
 90
      499
 91
      501
 93
      388
310
41119B185D240901404333333333333E3BF0000000000000F9010740A41107004050150841D405064090741402480A1B50
1001
ACAD
1000
AcDbSavedByObjectVersion
1070
     0
  0
ACAD_PROXY_OBJECT
  5
2C
102
{ACAD_REACTORS
330
2A
102
}
330
2A
100
AcDbProxyObject
 90
      499
 91
      501
 93
      476
310
43519B185D15DA5D1A115919D95CD0140901404333333333333E3BF0000000000000F9010740901411070040501600405405064090741402480A1B50
1001
ACAD
1000
AcDbSavedByObjectVersion
1070
     0
  0
ACAD_PROXY_OBJECT
  5
2D
102
{ACAD_REACTORS
330
2A
102
}
330
2A
100
AcDbProxyObject
 90
      499
 91
      501
 93
      412
310
41D1DBDD5C985D5910240902404333333333333E3BF0000000000000F9010740A411070040501641D405064090741402480A1B50
1001
ACAD
1000
AcDbSavedByObjectVersion
1070
     0
  0
ACAD_PROXY_OBJECT
  5
2E
102
{ACAD_REACTORS
330
2A
102
}
330
2A
100
AcDbProxyObject
 90
      499
 91
      501
 93
      500
310
4411DBDD5C985D5915DA5D1A115919D95CD0340902404333333333333E3BF0000000000000F9010740901411070040501600405405064090741402480A1B50
1001
ACAD
1000
AcDbSavedByObjectVersion
1070
     0
  0
ACAD_PROXY_OBJECT
  5
38
102
{ACAD_REACTORS
330
2A
102
}
330
2A
100
AcDbProxyObject
 90
      499
 91
      501
 93
      444
310
42D31A5B995C185D1D195C9B90E409028333333333333E3BF0000000000000FB010790141107004050750841D405064090741402483A0350
1001
ACAD
1000
AcDbSavedByObjectVersion
1070
     0
  0
ACAD_PROXY_OBJECT
  5
33
102
{ACAD_REACTORS
330
2A
102
}
330
2A
100
AcDbProxyObject
 90
      499
 91
      501
 93
      420
310
425499585B1A5CDD1A58D08409028333333333333E3BF0000000000000FB01079019070040501508421405064090741402480A1B40
1001
ACAD
1000
AcDbSavedByObjectVersion
1070
     0
  0
ACAD_PROXY_OBJECT
  5
37
102
{ACAD_REACTORS
330
2A
102
}
330
2A
100
AcDbProxyObject
 90
      499
 91
      501
 93
      412
310
41D51A1A58DAD95B90D409028333333333333E3BF0000000000000FB010790141107004050150C41D405064090741402480A0350
1001
ACAD
1000
AcDbSavedByObjectVersion
1070
     0
  0
XRECORD
  5
A8
102
{ACAD_REACTORS
330
9F
102
}
330
9F
100
AcDbXrecord
 90
        0
  0
XRECORD
  5
BE
102
{ACAD_REACTORS
330
9F
102
}
330
9F
100
AcDbXrecord
1000
DSTYLE
1002
{
1070
   340
340
11
1002
}
  0
XRECORD
  5
A9
102
{ACAD_REACTORS
330
9F
102
}
330
9F
100
AcDbXrecord
  1
{8C41DDAE-75FB-4E05-9D2D-58847492CF76}
  0
XRECORD
  5
A2
102
{ACAD_REACTORS
330
9F
102
}
330
9F
100
AcDbXrecord
  1

  0
XRECORD
  5
A7
102
{ACAD_REACTORS
330
9F
102
}
330
9F
100
AcDbXrecord
 90
        4
  0
XRECORD
  5
A4
102
{ACAD_REACTORS
330
9F
102
}
330
9F
100
AcDbXrecord
340
1A
  0
XRECORD
  5
A6
102
{ACAD_REACTORS
330
9F
102
}
330
9F
100
AcDbXrecord
 90
    10781
  0
XRECORD
  5
A5
102
{ACAD_REACTORS
330
9F
102
}
330
9F
100
AcDbXrecord
340
19
  0
XRECORD
  5
AB
102
{ACAD_REACTORS
330
9F
102
}
330
9F
100
AcDbXrecord
 40
0.0
  0
XRECORD
  5
AE
102
{ACAD_REACTORS
330
9F
102
}
330
9F
100
AcDbXrecord
340
0
  0
XRECORD
  5
B4
102
{ACAD_REACTORS
330
9F
102
}
330
9F
100
AcDbXrecord
 10
0.0
 20
0.0
 30
0.0
  0
XRECORD
  5
B0
102
{ACAD_REACTORS
330
9F
102
}
330
9F
100
AcDbXrecord
 10
0.0
 20
0.0
 30
0.0
  0
XRECORD
  5
B3
102
{ACAD_REACTORS
330
9F
102
}
330
9F
100
AcDbXrecord
 10
0.0
 20
0.0
 30
0.0
  0
XRECORD
  5
B1
102
{ACAD_REACTORS
330
9F
102
}
330
9F
100
AcDbXrecord
 10
0.0
 20
0.0
 30
0.0
  0
XRECORD
  5
B2
102
{ACAD_REACTORS
330
9F
102
}
330
9F
100
AcDbXrecord
 10
0.0
 20
0.0
 30
0.0
  0
XRECORD
  5
AF
102
{ACAD_REACTORS
330
9F
102
}
330
9F
100
AcDbXrecord
 10
0.0
 20
0.0
 30
0.0
  0
XRECORD
  5
AC
102
{ACAD_REACTORS
330
9F
102
}
330
9F
100
AcDbXrecord
340
0
  0
XRECORD
  5
AD
102
{ACAD_REACTORS
330
9F
102
}
330
9F
100
AcDbXrecord
 70
     0
  0
XRECORD
  5
A3
102
{ACAD_REACTORS
330
9F
102
}
330
9F
100
AcDbXrecord
  1

  0
XRECORD
  5
A0
102
{ACAD_REACTORS
330
9F
102
}
330
9F
100
AcDbXrecord
 90
        1
  0
XRECORD
  5
A1
102
{ACAD_REACTORS
330
9F
102
}
330
9F
100
AcDbXrecord
 90
       70
  0
XRECORD
  5
B7
102
{ACAD_REACTORS
330
9F
102
}
330
9F
100
AcDbXrecord
340
0
  0
XRECORD
  5
BD
102
{ACAD_REACTORS
330
9F
102
}
330
9F
100
AcDbXrecord
 10
0.0
 20
0.0
 30
0.0
  0
XRECORD
  5
B9
102
{ACAD_REACTORS
330
9F
102
}
330
9F
100
AcDbXrecord
 10
0.0
 20
0.0
 30
0.0
  0
XRECORD
  5
BC
102
{ACAD_REACTORS
330
9F
102
}
330
9F
100
AcDbXrecord
 10
0.0
 20
0.0
 30
0.0
  0
XRECORD
  5
BA
102
{ACAD_REACTORS
330
9F
102
}
330
9F
100
AcDbXrecord
 10
0.0
 20
0.0
 30
0.0
  0
XRECORD
  5
BB
102
{ACAD_REACTORS
330
9F
102
}
330
9F
100
AcDbXrecord
 10
0.0
 20
0.0
 30
0.0
  0
XRECORD
  5
B8
102
{ACAD_REACTORS
330
9F
102
}
330
9F
100
AcDbXrecord
 10
0.0
 20
0.0
 30
0.0
  0
XRECORD
  5
B5
102
{ACAD_REACTORS
330
9F
102
}
330
9F
100
AcDbXrecord
340
0
  0
XRECORD
  5
B6
102
{ACAD_REACTORS
330
9F
102
}
330
9F
100
AcDbXrecord
 70
     0
  0
XRECORD
  5
AA
102
{ACAD_REACTORS
330
9F
102
}
330
9F
100
AcDbXrecord
  1
{FAEB1C32-E019-11D5-929B-00C0DF256EC4}
  0
DICTIONARYVAR
  5
C2
102
{ACAD_REACTORS
330
BF
102
}
330
BF
100
DictionaryVariables
280
     0
  1
2
  0
DICTIONARYVAR
  5
C3
102
{ACAD_REACTORS
330
BF
102
}
330
BF
100
DictionaryVariables
280
     0
  1
1
  0
DICTIONARY
  5
C6
330
3D
100
AcDbDictionary
280
     1
  3
ACAD_XREC_ROUNDTRIP
360
C7
  0
DICTIONARY
  5
C4
330
3C
100
AcDbDictionary
280
     1
  3
ACAD_XREC_ROUNDTRIP
360
C5
  0
DICTIONARY
  5
C8
330
3E
100
AcDbDictionary
280
     1
  3
ACAD_XREC_ROUNDTRIP
360
C9
  0
XRECORD
  5
C7
102
{ACAD_REACTORS
330
C6
102
}
330
C6
100
AcDbXrecord
102
MATERIAL
148
0.0
149
0.0
149
0.0
 93
        0
 94
      127
282
     0
 72
     1
 77
     1
171
     1
175
     1
179
     1
273
     0
  0
XRECORD
  5
C5
102
{ACAD_REACTORS
330
C4
102
}
330
C4
100
AcDbXrecord
102
MATERIAL
148
0.0
149
0.0
149
0.0
 93
        0
 94
      127
282
     0
 72
     1
 77
     1
171
     1
175
     1
179
     1
273
     0
  0
XRECORD
  5
C9
102
{ACAD_REACTORS
330
C8
102
}
330
C8
100
AcDbXrecord
102
MATERIAL
148
0.0
149
0.0
149
0.0
 93
        0
 94
      127
282
     0
 72
     1
 77
     1
171
     1
175
     1
179
     1
273
     0
  0
ENDSEC
  0
EOF
