  0
SECTION
  2
HEADER
  9
$ACADVER
  1
AC1014
  9
$ACADMAINTVER
 70
     9
  9
$DWGCODEPAGE
  3
ANSI_1250
  9
$INSBASE
 10
0.0
 20
0.0
 30
0.0
  9
$EXTMIN
 10
-31.8162
 20
-18.3578
 30
0.0
  9
$EXTMAX
 10
31.5639
 20
18.4038
 30
0.0
  9
$LIMMIN
 10
0.0
 20
0.0
  9
$LIMMAX
 10
12.0
 20
9.0
  9
$ORTHOMODE
 70
     0
  9
$REGENMODE
 70
     1
  9
$FILLMODE
 70
     1
  9
$QTEXTMODE
 70
     0
  9
$MIRRTEXT
 70
     1
  9
$DRAGMODE
 70
     2
  9
$LTSCALE
 40
1.0
  9
$OSMODE
 70
    37
  9
$ATTMODE
 70
     1
  9
$TEXTSIZE
 40
0.2
  9
$TRACEWID
 40
0.05
  9
$TEXTSTYLE
  7
STANDARD
  9
$CLAYER
  8
0
  9
$CELTYPE
  6
BYLAYER
  9
$CECOLOR
 62
   256
  9
$CELTSCALE
 40
1.0
  9
$DELOBJ
 70
     1
  9
$DISPSILH
 70
     0
  9
$DIMSCALE
 40
1.0
  9
$DIMASZ
 40
0.18
  9
$DIMEXO
 40
0.0625
  9
$DIMDLI
 40
0.38
  9
$DIMRND
 40
0.0
  9
$DIMDLE
 40
0.0
  9
$DIMEXE
 40
0.18
  9
$DIMTP
 40
0.0
  9
$DIMTM
 40
0.0
  9
$DIMTXT
 40
0.18
  9
$DIMCEN
 40
0.09
  9
$DIMTSZ
 40
0.0
  9
$DIMTOL
 70
     0
  9
$DIMLIM
 70
     0
  9
$DIMTIH
 70
     1
  9
$DIMTOH
 70
     1
  9
$DIMSE1
 70
     0
  9
$DIMSE2
 70
     0
  9
$DIMTAD
 70
     0
  9
$DIMZIN
 70
     0
  9
$DIMBLK
  1

  9
$DIMASO
 70
     1
  9
$DIMSHO
 70
     1
  9
$DIMPOST
  1

  9
$DIMAPOST
  1

  9
$DIMALT
 70
     0
  9
$DIMALTD
 70
     2
  9
$DIMALTF
 40
25.4
  9
$DIMLFAC
 40
1.0
  9
$DIMTOFL
 70
     0
  9
$DIMTVP
 40
0.0
  9
$DIMTIX
 70
     0
  9
$DIMSOXD
 70
     0
  9
$DIMSAH
 70
     0
  9
$DIMBLK1
  1

  9
$DIMBLK2
  1

  9
$DIMSTYLE
  2
STANDARD
  9
$DIMCLRD
 70
     0
  9
$DIMCLRE
 70
     0
  9
$DIMCLRT
 70
     0
  9
$DIMTFAC
 40
1.0
  9
$DIMGAP
 40
0.09
  9
$DIMJUST
 70
     0
  9
$DIMSD1
 70
     0
  9
$DIMSD2
 70
     0
  9
$DIMTOLJ
 70
     1
  9
$DIMTZIN
 70
     0
  9
$DIMALTZ
 70
     0
  9
$DIMALTTZ
 70
     0
  9
$DIMFIT
 70
     3
  9
$DIMUPT
 70
     0
  9
$DIMUNIT
 70
     2
  9
$DIMDEC
 70
     4
  9
$DIMTDEC
 70
     4
  9
$DIMALTU
 70
     2
  9
$DIMALTTD
 70
     2
  9
$DIMTXSTY
  7
STANDARD
  9
$DIMAUNIT
 70
     0
  9
$LUNITS
 70
     2
  9
$LUPREC
 70
     4
  9
$SKETCHINC
 40
0.1
  9
$FILLETRAD
 40
0.5
  9
$AUNITS
 70
     0
  9
$AUPREC
 70
     0
  9
$MENU
  1
.
  9
$ELEVATION
 40
0.0
  9
$PELEVATION
 40
0.0
  9
$THICKNESS
 40
0.0
  9
$LIMCHECK
 70
     0
  9
$CHAMFERA
 40
0.5
  9
$CHAMFERB
 40
0.5
  9
$CHAMFERC
 40
1.0
  9
$CHAMFERD
 40
0.0
  9
$SKPOLY
 70
     0
  9
$TDCREATE
 40
2456269.419312014
  9
$TDUPDATE
 40
2456269.419312025
  9
$TDINDWG
 40
0.0000000116
  9
$TDUSRTIMER
 40
0.0000000116
  9
$USRTIMER
 70
     1
  9
$ANGBASE
 50
0.0
  9
$ANGDIR
 70
     0
  9
$PDMODE
 70
     0
  9
$PDSIZE
 40
0.0
  9
$PLINEWID
 40
0.0
  9
$COORDS
 70
     1
  9
$SPLFRAME
 70
     0
  9
$SPLINETYPE
 70
     6
  9
$SPLINESEGS
 70
     8
  9
$ATTDIA
 70
     0
  9
$ATTREQ
 70
     1
  9
$HANDLING
 70
     1
  9
$HANDSEED
  5
B3
  9
$SURFTAB1
 70
     6
  9
$SURFTAB2
 70
     6
  9
$SURFTYPE
 70
     6
  9
$SURFU
 70
     6
  9
$SURFV
 70
     6
  9
$UCSNAME
  2

  9
$UCSORG
 10
0.0
 20
0.0
 30
0.0
  9
$UCSXDIR
 10
1.0
 20
0.0
 30
0.0
  9
$UCSYDIR
 10
0.0
 20
1.0
 30
0.0
  9
$PUCSNAME
  2

  9
$PUCSORG
 10
0.0
 20
0.0
 30
0.0
  9
$PUCSXDIR
 10
1.0
 20
0.0
 30
0.0
  9
$PUCSYDIR
 10
0.0
 20
1.0
 30
0.0
  9
$USERI1
 70
     0
  9
$USERI2
 70
     0
  9
$USERI3
 70
     0
  9
$USERI4
 70
     0
  9
$USERI5
 70
     0
  9
$USERR1
 40
0.0
  9
$USERR2
 40
0.0
  9
$USERR3
 40
0.0
  9
$USERR4
 40
0.0
  9
$USERR5
 40
0.0
  9
$WORLDVIEW
 70
     1
  9
$SHADEDGE
 70
     3
  9
$SHADEDIF
 70
    70
  9
$TILEMODE
 70
     1
  9
$MAXACTVP
 70
    64
  9
$PINSBASE
 10
0.0
 20
0.0
 30
0.0
  9
$PLIMCHECK
 70
     0
  9
$PEXTMIN
 10
1.000000000000000E+20
 20
1.000000000000000E+20
 30
1.000000000000000E+20
  9
$PEXTMAX
 10
-1.000000000000000E+20
 20
-1.000000000000000E+20
 30
-1.000000000000000E+20
  9
$PLIMMIN
 10
0.0
 20
0.0
  9
$PLIMMAX
 10
12.0
 20
9.0
  9
$UNITMODE
 70
     0
  9
$VISRETAIN
 70
     1
  9
$PLINEGEN
 70
     0
  9
$PSLTSCALE
 70
     1
  9
$TREEDEPTH
 70
  3020
  9
$PICKSTYLE
 70
     1
  9
$CMLSTYLE
  2
STANDARD
  9
$CMLJUST
 70
     0
  9
$CMLSCALE
 40
1.0
  9
$PROXYGRAPHICS
 70
     1
  9
$MEASUREMENT
 70
     0
  0
ENDSEC
  0
SECTION
  2
CLASSES
  0
CLASS
  1
ACDBDICTIONARYWDFLT
  2
AcDbDictionaryWithDefault
  3
ObjectDBX Classes
 90
        0
280
     0
281
     0
  0
CLASS
  1
VISUALSTYLE
  2
AcDbVisualStyle
  3
ObjectDBX Classes
 90
     4095
280
     0
281
     0
  0
CLASS
  1
MATERIAL
  2
AcDbMaterial
  3
ObjectDBX Classes
 90
     1153
280
     0
281
     0
  0
CLASS
  1
DICTIONARYVAR
  2
AcDbDictionaryVar
  3
ObjectDBX Classes
 90
        0
280
     0
281
     0
  0
CLASS
  1
XRECORD
  2
AcDbXrecord
  3
AutoCAD 2000
 90
        0
280
     0
281
     0
  0
CLASS
  1
LWPOLYLINE
  2
AcDbPolyline
  3
AutoCAD 2000
 90
        0
280
     0
281
     1
  0
CLASS
  1
HATCH
  2
AcDbHatch
  3
AutoCAD 2000
 90
        0
280
     0
281
     1
  0
CLASS
  1
ACDBPLACEHOLDER
  2
AcDbPlaceHolder
  3
ObjectDBX Classes
 90
        0
280
     0
281
     0
  0
CLASS
  1
LAYOUT
  2
AcDbLayout
  3
ObjectDBX Classes
 90
        0
280
     0
281
     0
  0
ENDSEC
  0
SECTION
  2
TABLES
  0
TABLE
  2
VPORT
  5
8
330
0
100
AcDbSymbolTable
 70
     1
  0
VPORT
  5
29
330
8
100
AcDbSymbolTableRecord
100
AcDbViewportTableRecord
  2
*ACTIVE
 70
     0
 10
0.0
 20
0.0
 11
1.0
 21
1.0
 12
10.42990654205607
 22
4.5
 13
0.0
 23
0.0
 14
0.5
 24
0.5
 15
0.5
 25
0.5
 16
0.0
 26
0.0
 36
1.0
 17
0.0
 27
0.0
 37
0.0
 40
9.0
 41
1.972972972850329
 42
50.0
 43
0.0
 44
0.0
 50
0.0
 51
0.0
 71
     0
 72
   100
 73
     1
 74
     3
 75
     0
 76
     0
 77
     0
 78
     0
  0
ENDTAB
  0
TABLE
  2
LTYPE
  5
5
330
0
100
AcDbSymbolTable
 70
     7
  0
LTYPE
  5
14
330
5
100
AcDbSymbolTableRecord
100
AcDbLinetypeTableRecord
  2
BYBLOCK
 70
     0
  3

 72
    65
 73
     0
 40
0.0
  0
LTYPE
  5
15
330
5
100
AcDbSymbolTableRecord
100
AcDbLinetypeTableRecord
  2
BYLAYER
 70
     0
  3

 72
    65
 73
     0
 40
0.0
  0
LTYPE
  5
16
330
5
100
AcDbSymbolTableRecord
100
AcDbLinetypeTableRecord
  2
CONTINUOUS
 70
     0
  3
Solid line
 72
    65
 73
     0
 40
0.0
  0
LTYPE
  5
53
330
5
100
AcDbSymbolTableRecord
100
AcDbLinetypeTableRecord
  2
NEW_LINE1
 70
     0
  3

 72
    65
 73
     4
 40
1.2
 49
0.5
 74
     4
 75
     0
340
0
 46
1.0
 50
0.0
 44
0.0
 45
0.0
 49
-0.3
 74
     4
 75
     0
340
0
 46
1.0
 50
0.0
 44
0.0
 45
0.0
 49
0.1
 74
     4
 75
     0
340
0
 46
1.0
 50
0.0
 44
0.0
 45
0.0
 49
-0.3
 74
     4
 75
     0
340
0
 46
1.0
 50
0.0
 44
0.0
 45
0.0
  0
LTYPE
  5
55
330
5
100
AcDbSymbolTableRecord
100
AcDbLinetypeTableRecord
  2
NEW_LINE2
 70
     0
  3

 72
    65
 73
     4
 40
1.2
 49
0.5
 74
     4
 75
     0
340
0
 46
1.0
 50
0.0
 44
0.0
 45
0.0
 49
-0.3
 74
     4
 75
     0
340
0
 46
1.0
 50
0.0
 44
0.0
 45
0.0
 49
0.1
 74
     4
 75
     0
340
0
 46
1.0
 50
0.0
 44
0.0
 45
0.0
 49
-0.3
 74
     4
 75
     0
340
0
 46
1.0
 50
0.0
 44
0.0
 45
0.0
  0
LTYPE
  5
78
330
5
100
AcDbSymbolTableRecord
100
AcDbLinetypeTableRecord
  2
NEW_LINE3
 70
     0
  3

 72
    65
 73
     4
 40
1.2
 49
0.5
 74
     4
 75
     0
340
0
 46
1.0
 50
0.0
 44
0.0
 45
0.0
 49
-0.3
 74
     4
 75
     0
340
0
 46
1.0
 50
0.0
 44
0.0
 45
0.0
 49
0.1
 74
     4
 75
     0
340
0
 46
1.0
 50
0.0
 44
0.0
 45
0.0
 49
-0.3
 74
     4
 75
     0
340
0
 46
1.0
 50
0.0
 44
0.0
 45
0.0
  0
LTYPE
  5
7A
330
5
100
AcDbSymbolTableRecord
100
AcDbLinetypeTableRecord
  2
NEW_LINE4
 70
     0
  3

 72
    65
 73
     4
 40
1.2
 49
0.5
 74
     4
 75
     0
340
0
 46
1.0
 50
0.0
 44
0.0
 45
0.0
 49
-0.3
 74
     4
 75
     0
340
0
 46
1.0
 50
0.0
 44
0.0
 45
0.0
 49
0.1
 74
     4
 75
     0
340
0
 46
1.0
 50
0.0
 44
0.0
 45
0.0
 49
-0.3
 74
     4
 75
     0
340
0
 46
1.0
 50
0.0
 44
0.0
 45
0.0
  0
LTYPE
  5
7C
330
5
100
AcDbSymbolTableRecord
100
AcDbLinetypeTableRecord
  2
NEW_LINE5
 70
     0
  3

 72
    65
 73
     4
 40
1.2
 49
0.5
 74
     4
 75
     0
340
0
 46
1.0
 50
0.0
 44
0.0
 45
0.0
 49
-0.3
 74
     4
 75
     0
340
0
 46
1.0
 50
0.0
 44
0.0
 45
0.0
 49
0.1
 74
     4
 75
     0
340
0
 46
1.0
 50
0.0
 44
0.0
 45
0.0
 49
-0.3
 74
     4
 75
     0
340
0
 46
1.0
 50
0.0
 44
0.0
 45
0.0
  0
LTYPE
  5
85
330
5
100
AcDbSymbolTableRecord
100
AcDbLinetypeTableRecord
  2
NEW_LINE6
 70
     0
  3

 72
    65
 73
     4
 40
1.2
 49
0.5
 74
     4
 75
     0
340
0
 46
1.0
 50
0.0
 44
0.0
 45
0.0
 49
-0.3
 74
     4
 75
     0
340
0
 46
1.0
 50
0.0
 44
0.0
 45
0.0
 49
0.1
 74
     4
 75
     0
340
0
 46
1.0
 50
0.0
 44
0.0
 45
0.0
 49
-0.3
 74
     4
 75
     0
340
0
 46
1.0
 50
0.0
 44
0.0
 45
0.0
  0
ENDTAB
  0
TABLE
  2
LAYER
  5
2
330
0
100
AcDbSymbolTable
 70
     2
  0
LAYER
  5
10
330
2
100
AcDbSymbolTableRecord
100
AcDbLayerTableRecord
  2
0
 70
     0
 62
     7
  6
CONTINUOUS
  0
LAYER
  5
40
330
2
100
AcDbSymbolTableRecord
100
AcDbLayerTableRecord
  2
VRSTVA_1
 70
     0
 62
     7
  6
CONTINUOUS
  0
ENDTAB
  0
TABLE
  2
STYLE
  5
3
330
0
100
AcDbSymbolTable
 70
     1
  0
STYLE
  5
11
330
3
100
AcDbSymbolTableRecord
100
AcDbTextStyleTableRecord
  2
STANDARD
 70
     0
 40
0.0
 41
1.0
 50
0.0
 71
     0
 42
0.2
  3
txt
  4

  0
ENDTAB
  0
TABLE
  2
VIEW
  5
6
330
0
100
AcDbSymbolTable
 70
     0
  0
ENDTAB
  0
TABLE
  2
UCS
  5
7
330
0
100
AcDbSymbolTable
 70
     0
  0
ENDTAB
  0
TABLE
  2
APPID
  5
9
330
0
100
AcDbSymbolTable
 70
     2
  0
APPID
  5
12
330
9
100
AcDbSymbolTableRecord
100
AcDbRegAppTableRecord
  2
ACAD
 70
     0
  0
APPID
  5
3F
330
9
100
AcDbSymbolTableRecord
100
AcDbRegAppTableRecord
  2
ODA
 70
     0
  0
ENDTAB
  0
TABLE
  2
DIMSTYLE
  5
A
330
0
100
AcDbSymbolTable
 70
     1
  0
DIMSTYLE
105
27
330
A
100
AcDbSymbolTableRecord
100
AcDbDimStyleTableRecord
  2
STANDARD
 70
     0
  3

  4

  5

  6

  7

 40
1.0
 41
0.18
 42
0.0625
 43
0.38
 44
0.18
 45
0.0
 46
0.0
 47
0.0
 48
0.0
140
0.18
141
0.09
142
0.0
143
25.4
144
1.0
145
0.0
146
1.0
147
0.09
 71
     0
 72
     0
 73
     1
 74
     1
 75
     0
 76
     0
 77
     0
 78
     0
170
     0
171
     2
172
     0
173
     0
174
     0
175
     0
176
     0
177
     0
178
     0
270
     2
271
     4
272
     4
273
     2
274
     2
340
11
275
     0
280
     0
281
     0
282
     0
283
     1
284
     0
285
     0
286
     0
287
     3
288
     0
  0
ENDTAB
  0
TABLE
  2
BLOCK_RECORD
  5
1
330
0
100
AcDbSymbolTable
 70
     1
  0
BLOCK_RECORD
  5
1F
330
1
100
AcDbSymbolTableRecord
100
AcDbBlockTableRecord
  2
*MODEL_SPACE
  0
BLOCK_RECORD
  5
1B
330
1
100
AcDbSymbolTableRecord
100
AcDbBlockTableRecord
  2
*PAPER_SPACE
  0
ENDTAB
  0
ENDSEC
  0
SECTION
  2
BLOCKS
  0
BLOCK
  5
20
330
1F
100
AcDbEntity
  8
0
100
AcDbBlockBegin
  2
*MODEL_SPACE
 70
     0
 10
0.0
 20
0.0
 30
0.0
  3
*MODEL_SPACE
  1

  0
ENDBLK
  5
21
330
1F
100
AcDbEntity
  8
0
100
AcDbBlockEnd
  0
BLOCK
  5
1C
330
1B
100
AcDbEntity
 67
     1
  8
0
100
AcDbBlockBegin
  2
*PAPER_SPACE
 70
     0
 10
0.0
 20
0.0
 30
0.0
  3
*PAPER_SPACE
  1

  0
ENDBLK
  5
1D
330
1B
100
AcDbEntity
 67
     1
  8
0
100
AcDbBlockEnd
  0
ENDSEC
  0
SECTION
  2
ENTITIES
  0
SPLINE
  5
41
330
1F
100
AcDbEntity
  8
VRSTVA_1
 62
   250
100
AcDbSpline
210
0.0
220
0.0
230
1.0
 70
    24
 71
     3
 72
     8
 73
     4
 74
     0
 42
0.0000000001
 43
0.0000000001
 40
0.0
 40
0.0
 40
0.0
 40
0.0
 40
1.0
 40
1.0
 40
1.0
 40
1.0
 10
-16.5572
 20
-7.2968
 30
0.0
 10
-16.5572
 20
-7.2968
 30
0.0
 10
-20.3417
 20
-3.5124
 30
0.0
 10
-20.3417
 20
-3.5124
 30
0.0
  0
SPLINE
  5
42
330
1F
100
AcDbEntity
  8
VRSTVA_1
 62
   250
100
AcDbSpline
210
0.0
220
0.0
230
1.0
 70
    24
 71
     3
 72
     8
 73
     4
 74
     0
 42
0.0000000001
 43
0.0000000001
 40
0.0
 40
0.0
 40
0.0
 40
0.0
 40
1.0
 40
1.0
 40
1.0
 40
1.0
 10
-6.4319
 20
-11.491
 30
0.0
 10
-6.4319
 20
-11.491
 30
0.0
 10
-6.4319
 20
2.9661
 30
0.0
 10
-6.4319
 20
2.9661
 30
0.0
  0
SPLINE
  5
43
330
1F
100
AcDbEntity
  8
VRSTVA_1
 62
   250
100
AcDbSpline
210
0.0
220
0.0
230
1.0
 70
    24
 71
     3
 72
     8
 73
     4
 74
     0
 42
0.0000000001
 43
0.0000000001
 40
0.0
 40
0.0
 40
0.0
 40
0.0
 40
1.0
 40
1.0
 40
1.0
 40
1.0
 10
-16.5572
 20
-7.2969
 30
0.0
 10
-16.5572
 20
-7.2969
 30
0.0
 10
-6.4319
 20
2.8284
 30
0.0
 10
-6.4319
 20
2.8284
 30
0.0
  0
SPLINE
  5
44
330
1F
100
AcDbEntity
  8
VRSTVA_1
 62
   250
100
AcDbSpline
210
0.0
220
0.0
230
1.0
 70
    24
 71
     3
 72
     8
 73
     4
 74
     0
 42
0.0000000001
 43
0.0000000001
 40
0.0
 40
0.0
 40
0.0
 40
0.0
 40
1.0
 40
1.0
 40
1.0
 40
1.0
 10
12.7259
 20
-13.2809
 30
0.0
 10
12.7259
 20
-13.2809
 30
0.0
 10
30.8757
 20
-13.2809
 30
0.0
 10
30.8757
 20
-13.2809
 30
0.0
  0
SPLINE
  5
45
330
1F
100
AcDbEntity
  8
VRSTVA_1
 62
   250
100
AcDbSpline
210
0.0
220
0.0
230
1.0
 70
    24
 71
     3
 72
     8
 73
     4
 74
     0
 42
0.0000000001
 43
0.0000000001
 40
0.0
 40
0.0
 40
0.0
 40
0.0
 40
1.0
 40
1.0
 40
1.0
 40
1.0
 10
12.0815
 20
-11.491
 30
0.0
 10
12.0815
 20
-11.491
 30
0.0
 10
-6.4319
 20
-11.491
 30
0.0
 10
-6.4319
 20
-11.491
 30
0.0
  0
SPLINE
  5
46
330
1F
100
AcDbEntity
  8
VRSTVA_1
 62
   250
100
AcDbSpline
210
0.0
220
0.0
230
1.0
 70
    24
 71
     3
 72
     8
 73
     4
 74
     0
 42
0.0000000001
 43
0.0000000001
 40
0.0
 40
0.0
 40
0.0
 40
0.0
 40
1.0
 40
1.0
 40
1.0
 40
1.0
 10
-6.4319
 20
2.8283
 30
0.0
 10
-6.4319
 20
2.8283
 30
0.0
 10
-10.22
 20
6.6164
 30
0.0
 10
-10.22
 20
6.6164
 30
0.0
  0
SPLINE
  5
47
330
1F
100
AcDbEntity
  8
VRSTVA_1
 62
   250
100
AcDbSpline
210
0.0
220
0.0
230
1.0
 70
    24
 71
     3
 72
     8
 73
     4
 74
     0
 42
0.0000000001
 43
0.0000000001
 40
0.0
 40
0.0
 40
0.0
 40
0.0
 40
1.0
 40
1.0
 40
1.0
 40
1.0
 10
12.0815
 20
2.8284
 30
0.0
 10
12.0815
 20
2.8284
 30
0.0
 10
-6.4935
 20
2.8284
 30
0.0
 10
-6.4935
 20
2.8284
 30
0.0
  0
SPLINE
  5
48
330
1F
100
AcDbEntity
  8
VRSTVA_1
 62
   250
100
AcDbSpline
210
0.0
220
0.0
230
1.0
 70
    24
 71
     3
 72
     8
 73
     4
 74
     0
 42
0.0000000001
 43
0.0000000001
 40
0.0
 40
0.0
 40
0.0
 40
0.0
 40
1.0
 40
1.0
 40
1.0
 40
1.0
 10
12.0815
 20
5.0121
 30
0.0
 10
12.0815
 20
5.0121
 30
0.0
 10
12.0815
 20
-13.6747
 30
0.0
 10
12.0815
 20
-13.6747
 30
0.0
  0
SPLINE
  5
49
330
1F
100
AcDbEntity
  8
VRSTVA_1
 62
   250
100
AcDbSpline
210
0.0
220
0.0
230
1.0
 70
    24
 71
     3
 72
     8
 73
     4
 74
     0
 42
0.0000000001
 43
0.0000000001
 40
0.0
 40
0.0
 40
0.0
 40
0.0
 40
1.0
 40
1.0
 40
1.0
 40
1.0
 10
12.7259
 20
4.6183
 30
0.0
 10
12.7259
 20
4.6183
 30
0.0
 10
30.8757
 20
4.6183
 30
0.0
 10
30.8757
 20
4.6183
 30
0.0
  0
SPLINE
  5
4A
330
1F
100
AcDbEntity
  8
VRSTVA_1
 62
   250
100
AcDbSpline
210
0.0
220
0.0
230
1.0
 70
    24
 71
     3
 72
     8
 73
     4
 74
     0
 42
0.0000000001
 43
0.0000000001
 40
0.0
 40
0.0
 40
0.0
 40
0.0
 40
1.0
 40
1.0
 40
1.0
 40
1.0
 10
12.7259
 20
5.0121
 30
0.0
 10
12.7259
 20
5.0121
 30
0.0
 10
12.7259
 20
-13.6747
 30
0.0
 10
12.7259
 20
-13.6747
 30
0.0
  0
SPLINE
  5
4B
330
1F
100
AcDbEntity
  8
VRSTVA_1
 62
   250
100
AcDbSpline
210
0.0
220
0.0
230
1.0
 70
    24
 71
     3
 72
     8
 73
     4
 74
     0
 42
0.0000000001
 43
0.0000000001
 40
0.0
 40
0.0
 40
0.0
 40
0.0
 40
1.0
 40
1.0
 40
1.0
 40
1.0
 10
30.8757
 20
4.6183
 30
0.0
 10
30.8757
 20
4.6183
 30
0.0
 10
31.4127
 20
4.0813
 30
0.0
 10
31.4127
 20
4.0813
 30
0.0
  0
SPLINE
  5
4C
330
1F
100
AcDbEntity
  8
VRSTVA_1
 62
   250
100
AcDbSpline
210
0.0
220
0.0
230
1.0
 70
    24
 71
     3
 72
     8
 73
     4
 74
     0
 42
0.0000000001
 43
0.0000000001
 40
0.0
 40
0.0
 40
0.0
 40
0.0
 40
1.0
 40
1.0
 40
1.0
 40
1.0
 10
30.8757
 20
4.6183
 30
0.0
 10
30.8757
 20
4.6183
 30
0.0
 10
30.8757
 20
-13.2809
 30
0.0
 10
30.8757
 20
-13.2809
 30
0.0
  0
SPLINE
  5
4D
330
1F
100
AcDbEntity
  8
VRSTVA_1
 62
   250
100
AcDbSpline
210
0.0
220
0.0
230
1.0
 70
    24
 71
     3
 72
     8
 73
     4
 74
     0
 42
0.0000000001
 43
0.0000000001
 40
0.0
 40
0.0
 40
0.0
 40
0.0
 40
1.0
 40
1.0
 40
1.0
 40
1.0
 10
31.4127
 20
4.0813
 30
0.0
 10
31.4127
 20
4.0813
 30
0.0
 10
31.4127
 20
-12.7439
 30
0.0
 10
31.4127
 20
-12.7439
 30
0.0
  0
SPLINE
  5
4E
330
1F
100
AcDbEntity
  8
VRSTVA_1
 62
   250
100
AcDbSpline
210
0.0
220
0.0
230
1.0
 70
    24
 71
     3
 72
     8
 73
     4
 74
     0
 42
0.0000000001
 43
0.0000000001
 40
0.0
 40
0.0
 40
0.0
 40
0.0
 40
1.0
 40
1.0
 40
1.0
 40
1.0
 10
30.8757
 20
-13.2809
 30
0.0
 10
30.8757
 20
-13.2809
 30
0.0
 10
31.4127
 20
-12.7439
 30
0.0
 10
31.4127
 20
-12.7439
 30
0.0
  0
SPLINE
  5
4F
330
1F
100
AcDbEntity
  8
VRSTVA_1
 62
   250
100
AcDbSpline
210
0.0
220
0.0
230
1.0
 70
     8
 71
     3
 72
    12
 73
     8
 74
     0
 42
0.0000000001
 43
0.0000000001
 40
0.0
 40
0.0
 40
0.0
 40
0.0
 40
0.3333333333333333
 40
0.3333333333333333
 40
0.3333333333333333
 40
0.3333333333333333
 40
1.0
 40
1.0
 40
1.0
 40
1.0
 10
12.7259
 20
5.0121
 30
0.0
 10
12.7259
 20
5.1901
 30
0.0
 10
12.5816
 20
5.3343
 30
0.0
 10
12.4037
 20
5.3343
 30
0.0
 10
12.4037
 20
5.3343
 30
0.0
 10
12.2258
 20
5.3343
 30
0.0
 10
12.0815
 20
5.1901
 30
0.0
 10
12.0815
 20
5.0121
 30
0.0
  0
SPLINE
  5
50
330
1F
100
AcDbEntity
  8
VRSTVA_1
 62
   250
100
AcDbSpline
210
0.0
220
0.0
230
1.0
 70
     8
 71
     3
 72
    12
 73
     8
 74
     0
 42
0.0000000001
 43
0.0000000001
 40
0.0
 40
0.0
 40
0.0
 40
0.0
 40
0.3333333333333333
 40
0.3333333333333333
 40
0.3333333333333333
 40
0.3333333333333333
 40
1.0
 40
1.0
 40
1.0
 40
1.0
 10
12.0815
 20
-13.6747
 30
0.0
 10
12.0815
 20
-13.8526
 30
0.0
 10
12.2258
 20
-13.9969
 30
0.0
 10
12.4037
 20
-13.9969
 30
0.0
 10
12.4037
 20
-13.9969
 30
0.0
 10
12.5816
 20
-13.9969
 30
0.0
 10
12.7259
 20
-13.8526
 30
0.0
 10
12.7259
 20
-13.6747
 30
0.0
  0
SPLINE
  5
51
330
1F
100
AcDbEntity
  8
VRSTVA_1
 62
   250
100
AcDbSpline
210
0.0
220
0.0
230
1.0
 70
     8
 71
     3
 72
     8
 73
     4
 74
     0
 42
0.0000000001
 43
0.0000000001
 40
0.0
 40
0.0
 40
0.0
 40
0.0
 40
1.0
 40
1.0
 40
1.0
 40
1.0
 10
-16.5572
 20
-7.2969
 30
0.0
 10
-13.8718
 20
-9.9823
 30
0.0
 10
-10.2296
 20
-11.491
 30
0.0
 10
-6.4319
 20
-11.491
 30
0.0
  0
SPLINE
  5
52
330
1F
100
AcDbEntity
  8
VRSTVA_1
  6
NEW_LINE1
 62
   250
100
AcDbSpline
210
0.0
220
0.0
230
1.0
 70
    24
 71
     3
 72
     8
 73
     4
 74
     0
 42
0.0000000001
 43
0.0000000001
 40
0.0
 40
0.0
 40
0.0
 40
0.0
 40
1.0
 40
1.0
 40
1.0
 40
1.0
 10
-21.7058
 20
7.9771
 30
0.0
 10
-21.7058
 20
7.9771
 30
0.0
 10
-9.1955
 20
-4.5332
 30
0.0
 10
-9.1955
 20
-4.5332
 30
0.0
  0
SPLINE
  5
54
330
1F
100
AcDbEntity
  8
VRSTVA_1
  6
NEW_LINE2
 62
   250
100
AcDbSpline
210
0.0
220
0.0
230
1.0
 70
    24
 71
     3
 72
     8
 73
     4
 74
     0
 42
0.0000000001
 43
0.0000000001
 40
0.0
 40
0.0
 40
0.0
 40
0.0
 40
1.0
 40
1.0
 40
1.0
 40
1.0
 10
-9.7783
 20
-4.3313
 30
0.0
 10
-9.7783
 20
-4.3313
 30
0.0
 10
31.7707
 20
-4.3313
 30
0.0
 10
31.7707
 20
-4.3313
 30
0.0
  0
SPLINE
  5
56
330
1F
100
AcDbEntity
  8
VRSTVA_1
 62
   250
100
AcDbSpline
210
0.0
220
0.0
230
1.0
 70
     8
 71
     3
 72
    16
 73
    12
 74
     0
 42
0.0000000001
 43
0.0000000001
 40
0.0
 40
0.0
 40
0.0
 40
0.0
 40
0.25
 40
0.25
 40
0.25
 40
0.25
 40
0.5
 40
0.5
 40
0.5
 40
0.5
 40
1.0
 40
1.0
 40
1.0
 40
1.0
 10
-23.1735
 20
-4.12
 30
0.0
 10
-23.1735
 20
-4.12
 30
0.0
 10
-25.9296
 20
-1.322
 30
0.0
 10
-25.9296
 20
-1.322
 30
0.0
 10
-25.9296
 20
-1.322
 30
0.0
 10
-25.9296
 20
-1.322
 30
0.0
 10
-12.6368
 20
11.9708
 30
0.0
 10
-12.6368
 20
11.9708
 30
0.0
 10
-12.6368
 20
11.9708
 30
0.0
 10
-12.6368
 20
11.9708
 30
0.0
 10
-9.839
 20
9.2501
 30
0.0
 10
-9.839
 20
9.2501
 30
0.0
  0
SPLINE
  5
57
330
1F
100
AcDbEntity
  8
VRSTVA_1
 62
   250
100
AcDbSpline
210
0.0
220
0.0
230
1.0
 70
     8
 71
     3
 72
    96
 73
    92
 74
     0
 42
0.0000000001
 43
0.0000000001
 40
0.0
 40
0.0
 40
0.0
 40
0.0
 40
0.0416666666666667
 40
0.0416666666666667
 40
0.0416666666666667
 40
0.0416666666666667
 40
0.0833333333333333
 40
0.0833333333333333
 40
0.0833333333333333
 40
0.0833333333333333
 40
0.125
 40
0.125
 40
0.125
 40
0.125
 40
0.1666666666666667
 40
0.1666666666666667
 40
0.1666666666666667
 40
0.1666666666666667
 40
0.2083333333333333
 40
0.2083333333333333
 40
0.2083333333333333
 40
0.2083333333333333
 40
0.25
 40
0.25
 40
0.25
 40
0.25
 40
0.2916666666666667
 40
0.2916666666666667
 40
0.2916666666666667
 40
0.2916666666666667
 40
0.3333333333333333
 40
0.3333333333333333
 40
0.3333333333333333
 40
0.3333333333333333
 40
0.375
 40
0.375
 40
0.375
 40
0.375
 40
0.4166666666666667
 40
0.4166666666666667
 40
0.4166666666666667
 40
0.4166666666666667
 40
0.4583333333333333
 40
0.4583333333333333
 40
0.4583333333333333
 40
0.4583333333333333
 40
0.5
 40
0.5
 40
0.5
 40
0.5
 40
0.5416666666666666
 40
0.5416666666666666
 40
0.5416666666666666
 40
0.5416666666666666
 40
0.5833333333333334
 40
0.5833333333333334
 40
0.5833333333333334
 40
0.5833333333333334
 40
0.625
 40
0.625
 40
0.625
 40
0.625
 40
0.6666666666666666
 40
0.6666666666666666
 40
0.6666666666666666
 40
0.6666666666666666
 40
0.7083333333333334
 40
0.7083333333333334
 40
0.7083333333333334
 40
0.7083333333333334
 40
0.75
 40
0.75
 40
0.75
 40
0.75
 40
0.7916666666666666
 40
0.7916666666666666
 40
0.7916666666666666
 40
0.7916666666666666
 40
0.8333333333333334
 40
0.8333333333333334
 40
0.8333333333333334
 40
0.8333333333333334
 40
0.875
 40
0.875
 40
0.875
 40
0.875
 40
0.9166666666666666
 40
0.9166666666666666
 40
0.9166666666666666
 40
0.9166666666666666
 40
1.0
 40
1.0
 40
1.0
 40
1.0
 10
-25.2326
 20
-1.9177
 30
0.0
 10
-25.2326
 20
-1.9177
 30
0.0
 10
-23.6825
 20
-0.4032
 30
0.0
 10
-23.6825
 20
-0.4032
 30
0.0
 10
-23.6825
 20
-0.4032
 30
0.0
 10
-23.6825
 20
-0.4032
 30
0.0
 10
-22.0889
 20
-1.9968
 30
0.0
 10
-22.0889
 20
-1.9968
 30
0.0
 10
-22.0889
 20
-1.9968
 30
0.0
 10
-22.0889
 20
-1.9968
 30
0.0
 10
-21.8721
 20
-2.1383
 30
0.0
 10
-21.8721
 20
-2.1383
 30
0.0
 10
-21.8721
 20
-2.1383
 30
0.0
 10
-21.8721
 20
-2.1383
 30
0.0
 10
-21.6541
 20
-2.2423
 30
0.0
 10
-21.6541
 20
-2.2423
 30
0.0
 10
-21.6541
 20
-2.2423
 30
0.0
 10
-21.6541
 20
-2.2423
 30
0.0
 10
-21.3028
 20
-2.1774
 30
0.0
 10
-21.3028
 20
-2.1774
 30
0.0
 10
-21.3028
 20
-2.1774
 30
0.0
 10
-21.3028
 20
-2.1774
 30
0.0
 10
-21.0367
 20
-1.8757
 30
0.0
 10
-21.0367
 20
-1.8757
 30
0.0
 10
-21.0367
 20
-1.8757
 30
0.0
 10
-21.0367
 20
-1.8757
 30
0.0
 10
-21.0308
 20
-1.6546
 30
0.0
 10
-21.0308
 20
-1.6546
 30
0.0
 10
-21.0308
 20
-1.6546
 30
0.0
 10
-21.0308
 20
-1.6546
 30
0.0
 10
-21.188
 20
-1.3467
 30
0.0
 10
-21.188
 20
-1.3467
 30
0.0
 10
-21.188
 20
-1.3467
 30
0.0
 10
-21.188
 20
-1.3467
 30
0.0
 10
-22.907
 20
0.3723
 30
0.0
 10
-22.907
 20
0.3723
 30
0.0
 10
-22.907
 20
0.3723
 30
0.0
 10
-22.907
 20
0.3723
 30
0.0
 10
-19.1042
 20
4.1751
 30
0.0
 10
-19.1042
 20
4.1751
 30
0.0
 10
-19.1042
 20
4.1751
 30
0.0
 10
-19.1042
 20
4.1751
 30
0.0
 10
-17.484
 20
2.5583
 30
0.0
 10
-17.484
 20
2.5583
 30
0.0
 10
-17.484
 20
2.5583
 30
0.0
 10
-17.2316
 20
2.3059
 30
0.0
 10
-16.8106
 20
2.3179
 30
0.0
 10
-16.5439
 20
2.5847
 30
0.0
 10
-16.5439
 20
2.5847
 30
0.0
 10
-16.2767
 20
2.8519
 30
0.0
 10
-16.2647
 20
3.2729
 30
0.0
 10
-16.5171
 20
3.5252
 30
0.0
 10
-16.5171
 20
3.5252
 30
0.0
 10
-16.5171
 20
3.5252
 30
0.0
 10
-18.1394
 20
5.14
 30
0.0
 10
-18.1394
 20
5.14
 30
0.0
 10
-18.1394
 20
5.14
 30
0.0
 10
-18.1394
 20
5.14
 30
0.0
 10
-14.2608
 20
9.0186
 30
0.0
 10
-14.2608
 20
9.0186
 30
0.0
 10
-14.2608
 20
9.0186
 30
0.0
 10
-14.2608
 20
9.0186
 30
0.0
 10
-12.561
 20
7.2803
 30
0.0
 10
-12.561
 20
7.2803
 30
0.0
 10
-12.561
 20
7.2803
 30
0.0
 10
-12.561
 20
7.2803
 30
0.0
 10
-12.2328
 20
7.179
 30
0.0
 10
-12.2328
 20
7.179
 30
0.0
 10
-12.2328
 20
7.179
 30
0.0
 10
-12.2328
 20
7.179
 30
0.0
 10
-11.9181
 20
7.2429
 30
0.0
 10
-11.9181
 20
7.2429
 30
0.0
 10
-11.9181
 20
7.2429
 30
0.0
 10
-11.9181
 20
7.2429
 30
0.0
 10
-11.6911
 20
7.4699
 30
0.0
 10
-11.6911
 20
7.4699
 30
0.0
 10
-11.6911
 20
7.4699
 30
0.0
 10
-11.6911
 20
7.4699
 30
0.0
 10
-11.7554
 20
7.7996
 30
0.0
 10
-11.7554
 20
7.7996
 30
0.0
 10
-11.7554
 20
7.7996
 30
0.0
 10
-11.7554
 20
7.7996
 30
0.0
 10
-11.9503
 20
8.0699
 30
0.0
 10
-11.9503
 20
8.0699
 30
0.0
 10
-11.9503
 20
8.0699
 30
0.0
 10
-11.9503
 20
8.0699
 30
0.0
 10
-13.5977
 20
9.7173
 30
0.0
 10
-13.5977
 20
9.7173
 30
0.0
 10
-13.5977
 20
9.7173
 30
0.0
 10
-13.5977
 20
9.7173
 30
0.0
 10
-12.0288
 20
11.2506
 30
0.0
 10
-12.0288
 20
11.2506
 30
0.0
  0
SPLINE
  5
58
330
1F
100
AcDbEntity
  8
VRSTVA_1
 62
   250
100
AcDbSpline
210
0.0
220
0.0
230
1.0
 70
     8
 71
     3
 72
    32
 73
    28
 74
     0
 42
0.0000000001
 43
0.0000000001
 40
0.0
 40
0.0
 40
0.0
 40
0.0
 40
0.125
 40
0.125
 40
0.125
 40
0.125
 40
0.25
 40
0.25
 40
0.25
 40
0.25
 40
0.375
 40
0.375
 40
0.375
 40
0.375
 40
0.5
 40
0.5
 40
0.5
 40
0.5
 40
0.625
 40
0.625
 40
0.625
 40
0.625
 40
0.75
 40
0.75
 40
0.75
 40
0.75
 40
1.0
 40
1.0
 40
1.0
 40
1.0
 10
-25.1587
 20
-1.752
 30
0.0
 10
-25.1587
 20
-1.752
 30
0.0
 10
-22.3848
 20
-4.6256
 30
0.0
 10
-22.3848
 20
-4.6256
 30
0.0
 10
-22.3848
 20
-4.6256
 30
0.0
 10
-22.1325
 20
-4.8779
 30
0.0
 10
-21.7115
 20
-4.8659
 30
0.0
 10
-21.4443
 20
-4.5988
 30
0.0
 10
-21.4443
 20
-4.5988
 30
0.0
 10
-21.4443
 20
-4.5988
 30
0.0
 10
-9.4114
 20
7.4389
 30
0.0
 10
-9.4114
 20
7.4389
 30
0.0
 10
-9.4114
 20
7.4389
 30
0.0
 10
-9.4114
 20
7.4389
 30
0.0
 10
-9.1627
 20
7.8418
 30
0.0
 10
-9.1627
 20
7.8418
 30
0.0
 10
-9.1627
 20
7.8418
 30
0.0
 10
-9.1627
 20
7.8418
 30
0.0
 10
-9.2513
 20
8.216
 30
0.0
 10
-9.2513
 20
8.216
 30
0.0
 10
-9.2513
 20
8.216
 30
0.0
 10
-9.2513
 20
8.216
 30
0.0
 10
-9.5375
 20
8.6244
 30
0.0
 10
-9.5375
 20
8.6244
 30
0.0
 10
-9.5375
 20
8.6244
 30
0.0
 10
-9.5375
 20
8.6244
 30
0.0
 10
-12.161
 20
11.2069
 30
0.0
 10
-12.161
 20
11.2069
 30
0.0
  0
SPLINE
  5
59
330
1F
100
AcDbEntity
  8
VRSTVA_1
 62
   250
100
AcDbSpline
210
0.0
220
0.0
230
1.0
 70
    11
 71
     3
 72
    84
 73
    80
 74
     0
 42
0.0000000001
 43
0.0000000001
 40
0.0
 40
0.0
 40
0.0
 40
0.0
 40
0.0476190476190476
 40
0.0476190476190476
 40
0.0476190476190476
 40
0.0476190476190476
 40
0.0952380952380952
 40
0.0952380952380952
 40
0.0952380952380952
 40
0.0952380952380952
 40
0.1428571428571428
 40
0.1428571428571428
 40
0.1428571428571428
 40
0.1428571428571428
 40
0.1904761904761905
 40
0.1904761904761905
 40
0.1904761904761905
 40
0.1904761904761905
 40
0.2380952380952381
 40
0.2380952380952381
 40
0.2380952380952381
 40
0.2380952380952381
 40
0.2857142857142857
 40
0.2857142857142857
 40
0.2857142857142857
 40
0.2857142857142857
 40
0.3333333333333333
 40
0.3333333333333333
 40
0.3333333333333333
 40
0.3333333333333333
 40
0.3809523809523809
 40
0.3809523809523809
 40
0.3809523809523809
 40
0.3809523809523809
 40
0.4285714285714285
 40
0.4285714285714285
 40
0.4285714285714285
 40
0.4285714285714285
 40
0.4761904761904762
 40
0.4761904761904762
 40
0.4761904761904762
 40
0.4761904761904762
 40
0.5238095238095238
 40
0.5238095238095238
 40
0.5238095238095238
 40
0.5238095238095238
 40
0.5714285714285714
 40
0.5714285714285714
 40
0.5714285714285714
 40
0.5714285714285714
 40
0.6190476190476191
 40
0.6190476190476191
 40
0.6190476190476191
 40
0.6190476190476191
 40
0.6666666666666666
 40
0.6666666666666666
 40
0.6666666666666666
 40
0.6666666666666666
 40
0.7142857142857143
 40
0.7142857142857143
 40
0.7142857142857143
 40
0.7142857142857143
 40
0.7619047619047619
 40
0.7619047619047619
 40
0.7619047619047619
 40
0.7619047619047619
 40
0.8095238095238095
 40
0.8095238095238095
 40
0.8095238095238095
 40
0.8095238095238095
 40
0.8571428571428571
 40
0.8571428571428571
 40
0.8571428571428571
 40
0.8571428571428571
 40
0.9047619047619048
 40
0.9047619047619048
 40
0.9047619047619048
 40
0.9047619047619048
 40
1.0
 40
1.0
 40
1.0
 40
1.0
 10
0.3228
 20
8.3123
 30
0.0
 10
0.3228
 20
8.3123
 30
0.0
 10
0.0636
 20
8.5437
 30
0.0
 10
0.0636
 20
8.5437
 30
0.0
 10
0.0636
 20
8.5437
 30
0.0
 10
0.0636
 20
8.5437
 30
0.0
 10
0.1793
 20
8.6802
 30
0.0
 10
0.1793
 20
8.6802
 30
0.0
 10
0.1793
 20
8.6802
 30
0.0
 10
0.1793
 20
8.6802
 30
0.0
 10
0.4521
 20
8.4379
 30
0.0
 10
0.4521
 20
8.4379
 30
0.0
 10
0.4521
 20
8.4379
 30
0.0
 10
0.5697
 20
8.5169
 30
0.0
 10
0.6728
 20
8.5701
 30
0.0
 10
0.7607
 20
8.5978
 30
0.0
 10
0.7607
 20
8.5978
 30
0.0
 10
0.8764
 20
8.6345
 30
0.0
 10
1.0063
 20
8.6529
 30
0.0
 10
1.1492
 20
8.6529
 30
0.0
 10
1.1492
 20
8.6529
 30
0.0
 10
1.3562
 20
8.6529
 30
0.0
 10
1.5406
 20
8.611
 30
0.0
 10
1.7019
 20
8.5273
 30
0.0
 10
1.7019
 20
8.5273
 30
0.0
 10
1.8637
 20
8.4436
 30
0.0
 10
1.986
 20
8.3264
 30
0.0
 10
2.0688
 20
8.1754
 30
0.0
 10
2.0688
 20
8.1754
 30
0.0
 10
2.1512
 20
8.024
 30
0.0
 10
2.1925
 20
7.8636
 30
0.0
 10
2.1925
 20
7.6938
 30
0.0
 10
2.1925
 20
7.6938
 30
0.0
 10
2.1925
 20
7.5668
 30
0.0
 10
2.1747
 20
7.452
 30
0.0
 10
2.1389
 20
7.349
 30
0.0
 10
2.1389
 20
7.349
 30
0.0
 10
2.1112
 20
7.27
 30
0.0
 10
2.0585
 20
7.1778
 30
0.0
 10
1.9804
 20
7.0719
 30
0.0
 10
1.9804
 20
7.0719
 30
0.0
 10
1.9804
 20
7.0719
 30
0.0
 10
2.2396
 20
6.8405
 30
0.0
 10
2.2396
 20
6.8405
 30
0.0
 10
2.2396
 20
6.8405
 30
0.0
 10
2.2396
 20
6.8405
 30
0.0
 10
2.1239
 20
6.7041
 30
0.0
 10
2.1239
 20
6.7041
 30
0.0
 10
2.1239
 20
6.7041
 30
0.0
 10
2.1239
 20
6.7041
 30
0.0
 10
1.8525
 20
6.9468
 30
0.0
 10
1.8525
 20
6.9468
 30
0.0
 10
1.8525
 20
6.9468
 30
0.0
 10
1.7156
 20
6.8565
 30
0.0
 10
1.5984
 20
6.7963
 30
0.0
 10
1.5016
 20
6.7662
 30
0.0
 10
1.5016
 20
6.7662
 30
0.0
 10
1.4047
 20
6.7361
 30
0.0
 10
1.288
 20
6.7206
 30
0.0
 10
1.1521
 20
6.7206
 30
0.0
 10
1.1521
 20
6.7206
 30
0.0
 10
0.9446
 20
6.7206
 30
0.0
 10
0.7598
 20
6.762
 30
0.0
 10
0.5975
 20
6.8448
 30
0.0
 10
0.5975
 20
6.8448
 30
0.0
 10
0.4352
 20
6.9275
 30
0.0
 10
0.3124
 20
7.0432
 30
0.0
 10
0.2287
 20
7.1928
 30
0.0
 10
0.2287
 20
7.1928
 30
0.0
 10
0.1455
 20
7.3419
 30
0.0
 10
0.1036
 20
7.508
 30
0.0
 10
0.1036
 20
7.6909
 30
0.0
 10
0.1036
 20
7.6909
 30
0.0
 10
0.1036
 20
7.8142
 30
0.0
 10
0.1196
 20
7.9219
 30
0.0
 10
0.1525
 20
8.0141
 30
0.0
 10
0.1525
 20
8.0141
 30
0.0
 10
0.185
 20
8.1063
 30
0.0
 10
0.2419
 20
8.206
 30
0.0
 10
0.3228
 20
8.3123
 30
0.0
  0
SPLINE
  5
5A
330
1F
100
AcDbEntity
  8
VRSTVA_1
 62
   250
100
AcDbSpline
210
0.0
220
0.0
230
1.0
 70
    11
 71
     3
 72
    32
 73
    28
 74
     0
 42
0.0000000001
 43
0.0000000001
 40
0.0
 40
0.0
 40
0.0
 40
0.0
 40
0.125
 40
0.125
 40
0.125
 40
0.125
 40
0.25
 40
0.25
 40
0.25
 40
0.25
 40
0.375
 40
0.375
 40
0.375
 40
0.375
 40
0.5
 40
0.5
 40
0.5
 40
0.5
 40
0.625
 40
0.625
 40
0.625
 40
0.625
 40
0.75
 40
0.75
 40
0.75
 40
0.75
 40
1.0
 40
1.0
 40
1.0
 40
1.0
 10
0.5086
 20
8.1472
 30
0.0
 10
0.4408
 20
8.0607
 30
0.0
 10
0.3943
 20
7.9849
 30
0.0
 10
0.3694
 20
7.9205
 30
0.0
 10
0.3694
 20
7.9205
 30
0.0
 10
0.3449
 20
7.8556
 30
0.0
 10
0.3322
 20
7.7794
 30
0.0
 10
0.3322
 20
7.6924
 30
0.0
 10
0.3322
 20
7.6924
 30
0.0
 10
0.3322
 20
7.491
 30
0.0
 10
0.4004
 20
7.325
 30
0.0
 10
0.5368
 20
7.1933
 30
0.0
 10
0.5368
 20
7.1933
 30
0.0
 10
0.6732
 20
7.0621
 30
0.0
 10
0.8769
 20
6.9962
 30
0.0
 10
1.1483
 20
6.9962
 30
0.0
 10
1.1483
 20
6.9962
 30
0.0
 10
1.2546
 20
6.9962
 30
0.0
 10
1.3492
 20
7.0066
 30
0.0
 10
1.4319
 20
7.0268
 30
0.0
 10
1.4319
 20
7.0268
 30
0.0
 10
1.4936
 20
7.0414
 30
0.0
 10
1.5693
 20
7.0719
 30
0.0
 10
1.6591
 20
7.119
 30
0.0
 10
1.6591
 20
7.119
 30
0.0
 10
1.6591
 20
7.119
 30
0.0
 10
0.5086
 20
8.1472
 30
0.0
 10
0.5086
 20
8.1472
 30
0.0
  0
SPLINE
  5
5B
330
1F
100
AcDbEntity
  8
VRSTVA_1
 62
   250
100
AcDbSpline
210
0.0
220
0.0
230
1.0
 70
    11
 71
     3
 72
    28
 73
    24
 74
     0
 42
0.0000000001
 43
0.0000000001
 40
0.0
 40
0.0
 40
0.0
 40
0.0
 40
0.1428571428571428
 40
0.1428571428571428
 40
0.1428571428571428
 40
0.1428571428571428
 40
0.2857142857142857
 40
0.2857142857142857
 40
0.2857142857142857
 40
0.2857142857142857
 40
0.4285714285714285
 40
0.4285714285714285
 40
0.4285714285714285
 40
0.4285714285714285
 40
0.5714285714285714
 40
0.5714285714285714
 40
0.5714285714285714
 40
0.5714285714285714
 40
0.7142857142857143
 40
0.7142857142857143
 40
0.7142857142857143
 40
0.7142857142857143
 40
1.0
 40
1.0
 40
1.0
 40
1.0
 10
0.6507
 20
8.2601
 30
0.0
 10
0.6507
 20
8.2601
 30
0.0
 10
1.7969
 20
7.2361
 30
0.0
 10
1.7969
 20
7.2361
 30
0.0
 10
1.7969
 20
7.2361
 30
0.0
 10
1.8548
 20
7.3067
 30
0.0
 10
1.8953
 20
7.372
 30
0.0
 10
1.9183
 20
7.4318
 30
0.0
 10
1.9183
 20
7.4318
 30
0.0
 10
1.9489
 20
7.5099
 30
0.0
 10
1.9639
 20
7.5945
 30
0.0
 10
1.9639
 20
7.6853
 30
0.0
 10
1.9639
 20
7.6853
 30
0.0
 10
1.9639
 20
7.8857
 30
0.0
 10
1.8934
 20
8.0508
 30
0.0
 10
1.7518
 20
8.1816
 30
0.0
 10
1.7518
 20
8.1816
 30
0.0
 10
1.6102
 20
8.3119
 30
0.0
 10
1.4117
 20
8.3772
 30
0.0
 10
1.1563
 20
8.3772
 30
0.0
 10
1.1563
 20
8.3772
 30
0.0
 10
0.9653
 20
8.3772
 30
0.0
 10
0.7965
 20
8.3382
 30
0.0
 10
0.6507
 20
8.2601
 30
0.0
  0
SPLINE
  5
5C
330
1F
100
AcDbEntity
  8
VRSTVA_1
 62
   250
100
AcDbSpline
210
0.0
220
0.0
230
1.0
 70
    11
 71
     3
 72
    48
 73
    44
 74
     0
 42
0.0000000001
 43
0.0000000001
 40
0.0
 40
0.0
 40
0.0
 40
0.0
 40
0.0833333333333333
 40
0.0833333333333333
 40
0.0833333333333333
 40
0.0833333333333333
 40
0.1666666666666667
 40
0.1666666666666667
 40
0.1666666666666667
 40
0.1666666666666667
 40
0.25
 40
0.25
 40
0.25
 40
0.25
 40
0.3333333333333333
 40
0.3333333333333333
 40
0.3333333333333333
 40
0.3333333333333333
 40
0.4166666666666667
 40
0.4166666666666667
 40
0.4166666666666667
 40
0.4166666666666667
 40
0.5
 40
0.5
 40
0.5
 40
0.5
 40
0.5833333333333334
 40
0.5833333333333334
 40
0.5833333333333334
 40
0.5833333333333334
 40
0.6666666666666666
 40
0.6666666666666666
 40
0.6666666666666666
 40
0.6666666666666666
 40
0.75
 40
0.75
 40
0.75
 40
0.75
 40
0.8333333333333334
 40
0.8333333333333334
 40
0.8333333333333334
 40
0.8333333333333334
 40
1.0
 40
1.0
 40
1.0
 40
1.0
 10
2.1582
 20
9.6971
 30
0.0
 10
2.1582
 20
9.6971
 30
0.0
 10
1.6746
 20
9.6971
 30
0.0
 10
1.6746
 20
9.6971
 30
0.0
 10
1.6746
 20
9.6971
 30
0.0
 10
1.6746
 20
9.6971
 30
0.0
 10
1.6746
 20
8.8208
 30
0.0
 10
1.6746
 20
8.8208
 30
0.0
 10
1.6746
 20
8.8208
 30
0.0
 10
1.6746
 20
8.8208
 30
0.0
 10
1.447
 20
8.8208
 30
0.0
 10
1.447
 20
8.8208
 30
0.0
 10
1.447
 20
8.8208
 30
0.0
 10
1.447
 20
8.8208
 30
0.0
 10
0.1379
 20
9.7427
 30
0.0
 10
0.1379
 20
9.7427
 30
0.0
 10
0.1379
 20
9.7427
 30
0.0
 10
0.1379
 20
9.7427
 30
0.0
 10
0.1379
 20
9.9455
 30
0.0
 10
0.1379
 20
9.9455
 30
0.0
 10
0.1379
 20
9.9455
 30
0.0
 10
0.1379
 20
9.9455
 30
0.0
 10
1.447
 20
9.9455
 30
0.0
 10
1.447
 20
9.9455
 30
0.0
 10
1.447
 20
9.9455
 30
0.0
 10
1.447
 20
9.9455
 30
0.0
 10
1.447
 20
10.2183
 30
0.0
 10
1.447
 20
10.2183
 30
0.0
 10
1.447
 20
10.2183
 30
0.0
 10
1.447
 20
10.2183
 30
0.0
 10
1.6746
 20
10.2183
 30
0.0
 10
1.6746
 20
10.2183
 30
0.0
 10
1.6746
 20
10.2183
 30
0.0
 10
1.6746
 20
10.2183
 30
0.0
 10
1.6746
 20
9.9455
 30
0.0
 10
1.6746
 20
9.9455
 30
0.0
 10
1.6746
 20
9.9455
 30
0.0
 10
1.6746
 20
9.9455
 30
0.0
 10
2.1582
 20
9.9455
 30
0.0
 10
2.1582
 20
9.9455
 30
0.0
 10
2.1582
 20
9.9455
 30
0.0
 10
2.1582
 20
9.9455
 30
0.0
 10
2.1582
 20
9.6971
 30
0.0
 10
2.1582
 20
9.6971
 30
0.0
  0
SPLINE
  5
5D
330
1F
100
AcDbEntity
  8
VRSTVA_1
 62
   250
100
AcDbSpline
210
0.0
220
0.0
230
1.0
 70
    11
 71
     3
 72
    16
 73
    12
 74
     0
 42
0.0000000001
 43
0.0000000001
 40
0.0
 40
0.0
 40
0.0
 40
0.0
 40
0.25
 40
0.25
 40
0.25
 40
0.25
 40
0.5
 40
0.5
 40
0.5
 40
0.5
 40
1.0
 40
1.0
 40
1.0
 40
1.0
 10
1.447
 20
9.6971
 30
0.0
 10
1.447
 20
9.6971
 30
0.0
 10
0.5363
 20
9.6971
 30
0.0
 10
0.5363
 20
9.6971
 30
0.0
 10
0.5363
 20
9.6971
 30
0.0
 10
0.5363
 20
9.6971
 30
0.0
 10
1.447
 20
9.0649
 30
0.0
 10
1.447
 20
9.0649
 30
0.0
 10
1.447
 20
9.0649
 30
0.0
 10
1.447
 20
9.0649
 30
0.0
 10
1.447
 20
9.6971
 30
0.0
 10
1.447
 20
9.6971
 30
0.0
  0
SPLINE
  5
5E
330
1F
100
AcDbEntity
  8
VRSTVA_1
 62
   250
100
AcDbSpline
210
0.0
220
0.0
230
1.0
 70
    11
 71
     3
 72
    52
 73
    48
 74
     0
 42
0.0000000001
 43
0.0000000001
 40
0.0
 40
0.0
 40
0.0
 40
0.0
 40
0.0769230769230769
 40
0.0769230769230769
 40
0.0769230769230769
 40
0.0769230769230769
 40
0.1538461538461539
 40
0.1538461538461539
 40
0.1538461538461539
 40
0.1538461538461539
 40
0.2307692307692308
 40
0.2307692307692308
 40
0.2307692307692308
 40
0.2307692307692308
 40
0.3076923076923077
 40
0.3076923076923077
 40
0.3076923076923077
 40
0.3076923076923077
 40
0.3846153846153846
 40
0.3846153846153846
 40
0.3846153846153846
 40
0.3846153846153846
 40
0.4615384615384616
 40
0.4615384615384616
 40
0.4615384615384616
 40
0.4615384615384616
 40
0.5384615384615384
 40
0.5384615384615384
 40
0.5384615384615384
 40
0.5384615384615384
 40
0.6153846153846154
 40
0.6153846153846154
 40
0.6153846153846154
 40
0.6153846153846154
 40
0.6923076923076923
 40
0.6923076923076923
 40
0.6923076923076923
 40
0.6923076923076923
 40
0.7692307692307693
 40
0.7692307692307693
 40
0.7692307692307693
 40
0.7692307692307693
 40
0.8461538461538461
 40
0.8461538461538461
 40
0.8461538461538461
 40
0.8461538461538461
 40
1.0
 40
1.0
 40
1.0
 40
1.0
 10
1.162
 20
10.4718
 30
0.0
 10
0.923
 20
10.4718
 30
0.0
 10
0.7306
 20
10.4963
 30
0.0
 10
0.5853
 20
10.5457
 30
0.0
 10
0.5853
 20
10.5457
 30
0.0
 10
0.4395
 20
10.5946
 30
0.0
 10
0.327
 20
10.668
 30
0.0
 10
0.248
 20
10.7649
 30
0.0
 10
0.248
 20
10.7649
 30
0.0
 10
0.169
 20
10.8618
 30
0.0
 10
0.1295
 20
10.9836
 30
0.0
 10
0.1295
 20
11.1303
 30
0.0
 10
0.1295
 20
11.1303
 30
0.0
 10
0.1295
 20
11.239
 30
0.0
 10
0.1516
 20
11.334
 30
0.0
 10
0.1953
 20
11.4159
 30
0.0
 10
0.1953
 20
11.4159
 30
0.0
 10
0.2386
 20
11.4977
 30
0.0
 10
0.3016
 20
11.565
 30
0.0
 10
0.384
 20
11.6186
 30
0.0
 10
0.384
 20
11.6186
 30
0.0
 10
0.4663
 20
11.6718
 30
0.0
 10
0.5665
 20
11.7136
 30
0.0
 10
0.6845
 20
11.7437
 30
0.0
 10
0.6845
 20
11.7437
 30
0.0
 10
0.8026
 20
11.7743
 30
0.0
 10
0.9616
 20
11.7893
 30
0.0
 10
1.162
 20
11.7893
 30
0.0
 10
1.162
 20
11.7893
 30
0.0
 10
1.399
 20
11.7893
 30
0.0
 10
1.59
 20
11.7649
 30
0.0
 10
1.7358
 20
11.7164
 30
0.0
 10
1.7358
 20
11.7164
 30
0.0
 10
1.8816
 20
11.6675
 30
0.0
 10
1.994
 20
11.5946
 30
0.0
 10
2.0735
 20
11.4977
 30
0.0
 10
2.0735
 20
11.4977
 30
0.0
 10
2.153
 20
11.4008
 30
0.0
 10
2.1925
 20
11.2785
 30
0.0
 10
2.1925
 20
11.1303
 30
0.0
 10
2.1925
 20
11.1303
 30
0.0
 10
2.1925
 20
10.9356
 30
0.0
 10
2.1229
 20
10.7827
 30
0.0
 10
1.9832
 20
10.6717
 30
0.0
 10
1.9832
 20
10.6717
 30
0.0
 10
1.8153
 20
10.5386
 30
0.0
 10
1.5411
 20
10.4718
 30
0.0
 10
1.162
 20
10.4718
 30
0.0
  0
SPLINE
  5
5F
330
1F
100
AcDbEntity
  8
VRSTVA_1
 62
   250
100
AcDbSpline
210
0.0
220
0.0
230
1.0
 70
    11
 71
     3
 72
    36
 73
    32
 74
     0
 42
0.0000000001
 43
0.0000000001
 40
0.0
 40
0.0
 40
0.0
 40
0.0
 40
0.1111111111111111
 40
0.1111111111111111
 40
0.1111111111111111
 40
0.1111111111111111
 40
0.2222222222222222
 40
0.2222222222222222
 40
0.2222222222222222
 40
0.2222222222222222
 40
0.3333333333333333
 40
0.3333333333333333
 40
0.3333333333333333
 40
0.3333333333333333
 40
0.4444444444444444
 40
0.4444444444444444
 40
0.4444444444444444
 40
0.4444444444444444
 40
0.5555555555555556
 40
0.5555555555555556
 40
0.5555555555555556
 40
0.5555555555555556
 40
0.6666666666666666
 40
0.6666666666666666
 40
0.6666666666666666
 40
0.6666666666666666
 40
0.7777777777777778
 40
0.7777777777777778
 40
0.7777777777777778
 40
0.7777777777777778
 40
1.0
 40
1.0
 40
1.0
 40
1.0
 10
1.162
 20
10.7268
 30
0.0
 10
1.4936
 20
10.7268
 30
0.0
 10
1.7142
 20
10.7658
 30
0.0
 10
1.8242
 20
10.8434
 30
0.0
 10
1.8242
 20
10.8434
 30
0.0
 10
1.9338
 20
10.921
 30
0.0
 10
1.9889
 20
11.0165
 30
0.0
 10
1.9889
 20
11.1303
 30
0.0
 10
1.9889
 20
11.1303
 30
0.0
 10
1.9889
 20
11.2446
 30
0.0
 10
1.9334
 20
11.3401
 30
0.0
 10
1.8233
 20
11.4177
 30
0.0
 10
1.8233
 20
11.4177
 30
0.0
 10
1.7132
 20
11.4954
 30
0.0
 10
1.4926
 20
11.5344
 30
0.0
 10
1.162
 20
11.5344
 30
0.0
 10
1.162
 20
11.5344
 30
0.0
 10
0.8294
 20
11.5344
 30
0.0
 10
0.6083
 20
11.4954
 30
0.0
 10
0.4992
 20
11.4177
 30
0.0
 10
0.4992
 20
11.4177
 30
0.0
 10
0.3896
 20
11.3401
 30
0.0
 10
0.335
 20
11.2437
 30
0.0
 10
0.335
 20
11.128
 30
0.0
 10
0.335
 20
11.128
 30
0.0
 10
0.335
 20
11.0137
 30
0.0
 10
0.3835
 20
10.9229
 30
0.0
 10
0.4799
 20
10.8547
 30
0.0
 10
0.4799
 20
10.8547
 30
0.0
 10
0.6027
 20
10.7696
 30
0.0
 10
0.8303
 20
10.7268
 30
0.0
 10
1.162
 20
10.7268
 30
0.0
  0
SPLINE
  5
60
330
1F
100
AcDbEntity
  8
VRSTVA_1
 62
   250
100
AcDbSpline
210
0.0
220
0.0
230
1.0
 70
    24
 71
     3
 72
     8
 73
     4
 74
     0
 42
0.0000000001
 43
0.0000000001
 40
0.0
 40
0.0
 40
0.0
 40
0.0
 40
1.0
 40
1.0
 40
1.0
 40
1.0
 10
2.8605
 20
12.2741
 30
0.0
 10
2.8605
 20
12.2741
 30
0.0
 10
2.8605
 20
-16.0238
 30
0.0
 10
2.8605
 20
-16.0238
 30
0.0
  0
SPLINE
  5
61
330
1F
100
AcDbEntity
  8
VRSTVA_1
 62
   250
100
AcDbSpline
210
0.0
220
0.0
230
1.0
 70
    11
 71
     3
 72
    20
 73
    16
 74
     0
 42
0.0000000001
 43
0.0000000001
 40
0.0
 40
0.0
 40
0.0
 40
0.0
 40
0.2
 40
0.2
 40
0.2
 40
0.2
 40
0.4
 40
0.4
 40
0.4
 40
0.4
 40
0.6
 40
0.6
 40
0.6
 40
0.6
 40
1.0
 40
1.0
 40
1.0
 40
1.0
 10
3.3652
 20
6.1
 30
0.0
 10
3.3652
 20
6.1
 30
0.0
 10
2.9241
 20
2.975
 30
0.0
 10
2.9241
 20
2.975
 30
0.0
 10
2.9241
 20
2.975
 30
0.0
 10
2.9241
 20
2.975
 30
0.0
 10
2.8262
 20
2.975
 30
0.0
 10
2.8262
 20
2.975
 30
0.0
 10
2.8262
 20
2.975
 30
0.0
 10
2.8262
 20
2.975
 30
0.0
 10
2.3558
 20
6.1
 30
0.0
 10
2.3558
 20
6.1
 30
0.0
 10
2.3558
 20
6.1
 30
0.0
 10
2.3558
 20
6.1
 30
0.0
 10
3.3652
 20
6.1
 30
0.0
 10
3.3652
 20
6.1
 30
0.0
  0
SPLINE
  5
62
330
1F
100
AcDbEntity
  8
VRSTVA_1
 62
   250
100
AcDbSpline
210
0.0
220
0.0
230
1.0
 70
    11
 71
     3
 72
    20
 73
    16
 74
     0
 42
0.0000000001
 43
0.0000000001
 40
0.0
 40
0.0
 40
0.0
 40
0.0
 40
0.2
 40
0.2
 40
0.2
 40
0.2
 40
0.4
 40
0.4
 40
0.4
 40
0.4
 40
0.6
 40
0.6
 40
0.6
 40
0.6
 40
1.0
 40
1.0
 40
1.0
 40
1.0
 10
2.3558
 20
-14.7518
 30
0.0
 10
2.3558
 20
-14.7518
 30
0.0
 10
2.7969
 20
-11.6268
 30
0.0
 10
2.7969
 20
-11.6268
 30
0.0
 10
2.7969
 20
-11.6268
 30
0.0
 10
2.7969
 20
-11.6268
 30
0.0
 10
2.8948
 20
-11.6268
 30
0.0
 10
2.8948
 20
-11.6268
 30
0.0
 10
2.8948
 20
-11.6268
 30
0.0
 10
2.8948
 20
-11.6268
 30
0.0
 10
3.3652
 20
-14.7518
 30
0.0
 10
3.3652
 20
-14.7518
 30
0.0
 10
3.3652
 20
-14.7518
 30
0.0
 10
3.3652
 20
-14.7518
 30
0.0
 10
2.3558
 20
-14.7518
 30
0.0
 10
2.3558
 20
-14.7518
 30
0.0
  0
SPLINE
  5
63
330
1F
100
AcDbEntity
  8
VRSTVA_1
 62
   250
100
AcDbSpline
210
0.0
220
0.0
230
1.0
 70
    11
 71
     3
 72
    84
 73
    80
 74
     0
 42
0.0000000001
 43
0.0000000001
 40
0.0
 40
0.0
 40
0.0
 40
0.0
 40
0.0476190476190476
 40
0.0476190476190476
 40
0.0476190476190476
 40
0.0476190476190476
 40
0.0952380952380952
 40
0.0952380952380952
 40
0.0952380952380952
 40
0.0952380952380952
 40
0.1428571428571428
 40
0.1428571428571428
 40
0.1428571428571428
 40
0.1428571428571428
 40
0.1904761904761905
 40
0.1904761904761905
 40
0.1904761904761905
 40
0.1904761904761905
 40
0.2380952380952381
 40
0.2380952380952381
 40
0.2380952380952381
 40
0.2380952380952381
 40
0.2857142857142857
 40
0.2857142857142857
 40
0.2857142857142857
 40
0.2857142857142857
 40
0.3333333333333333
 40
0.3333333333333333
 40
0.3333333333333333
 40
0.3333333333333333
 40
0.3809523809523809
 40
0.3809523809523809
 40
0.3809523809523809
 40
0.3809523809523809
 40
0.4285714285714285
 40
0.4285714285714285
 40
0.4285714285714285
 40
0.4285714285714285
 40
0.4761904761904762
 40
0.4761904761904762
 40
0.4761904761904762
 40
0.4761904761904762
 40
0.5238095238095238
 40
0.5238095238095238
 40
0.5238095238095238
 40
0.5238095238095238
 40
0.5714285714285714
 40
0.5714285714285714
 40
0.5714285714285714
 40
0.5714285714285714
 40
0.6190476190476191
 40
0.6190476190476191
 40
0.6190476190476191
 40
0.6190476190476191
 40
0.6666666666666666
 40
0.6666666666666666
 40
0.6666666666666666
 40
0.6666666666666666
 40
0.7142857142857143
 40
0.7142857142857143
 40
0.7142857142857143
 40
0.7142857142857143
 40
0.7619047619047619
 40
0.7619047619047619
 40
0.7619047619047619
 40
0.7619047619047619
 40
0.8095238095238095
 40
0.8095238095238095
 40
0.8095238095238095
 40
0.8095238095238095
 40
0.8571428571428571
 40
0.8571428571428571
 40
0.8571428571428571
 40
0.8571428571428571
 40
0.9047619047619048
 40
0.9047619047619048
 40
0.9047619047619048
 40
0.9047619047619048
 40
1.0
 40
1.0
 40
1.0
 40
1.0
 10
21.3228
 20
10.8123
 30
0.0
 10
21.3228
 20
10.8123
 30
0.0
 10
21.0636
 20
11.0437
 30
0.0
 10
21.0636
 20
11.0437
 30
0.0
 10
21.0636
 20
11.0437
 30
0.0
 10
21.0636
 20
11.0437
 30
0.0
 10
21.1793
 20
11.1802
 30
0.0
 10
21.1793
 20
11.1802
 30
0.0
 10
21.1793
 20
11.1802
 30
0.0
 10
21.1793
 20
11.1802
 30
0.0
 10
21.4521
 20
10.9379
 30
0.0
 10
21.4521
 20
10.9379
 30
0.0
 10
21.4521
 20
10.9379
 30
0.0
 10
21.5697
 20
11.0169
 30
0.0
 10
21.6728
 20
11.0701
 30
0.0
 10
21.7607
 20
11.0978
 30
0.0
 10
21.7607
 20
11.0978
 30
0.0
 10
21.8764
 20
11.1345
 30
0.0
 10
22.0063
 20
11.1529
 30
0.0
 10
22.1492
 20
11.1529
 30
0.0
 10
22.1492
 20
11.1529
 30
0.0
 10
22.3562
 20
11.1529
 30
0.0
 10
22.5406
 20
11.111
 30
0.0
 10
22.7019
 20
11.0273
 30
0.0
 10
22.7019
 20
11.0273
 30
0.0
 10
22.8637
 20
10.9436
 30
0.0
 10
22.986
 20
10.8264
 30
0.0
 10
23.0688
 20
10.6754
 30
0.0
 10
23.0688
 20
10.6754
 30
0.0
 10
23.1512
 20
10.524
 30
0.0
 10
23.1925
 20
10.3636
 30
0.0
 10
23.1925
 20
10.1938
 30
0.0
 10
23.1925
 20
10.1938
 30
0.0
 10
23.1925
 20
10.0668
 30
0.0
 10
23.1747
 20
9.952
 30
0.0
 10
23.1389
 20
9.849
 30
0.0
 10
23.1389
 20
9.849
 30
0.0
 10
23.1112
 20
9.77
 30
0.0
 10
23.0585
 20
9.6778
 30
0.0
 10
22.9804
 20
9.5719
 30
0.0
 10
22.9804
 20
9.5719
 30
0.0
 10
22.9804
 20
9.5719
 30
0.0
 10
23.2396
 20
9.3405
 30
0.0
 10
23.2396
 20
9.3405
 30
0.0
 10
23.2396
 20
9.3405
 30
0.0
 10
23.2396
 20
9.3405
 30
0.0
 10
23.1239
 20
9.2041
 30
0.0
 10
23.1239
 20
9.2041
 30
0.0
 10
23.1239
 20
9.2041
 30
0.0
 10
23.1239
 20
9.2041
 30
0.0
 10
22.8525
 20
9.4468
 30
0.0
 10
22.8525
 20
9.4468
 30
0.0
 10
22.8525
 20
9.4468
 30
0.0
 10
22.7156
 20
9.3565
 30
0.0
 10
22.5984
 20
9.2963
 30
0.0
 10
22.5016
 20
9.2662
 30
0.0
 10
22.5016
 20
9.2662
 30
0.0
 10
22.4047
 20
9.2361
 30
0.0
 10
22.288
 20
9.2206
 30
0.0
 10
22.1521
 20
9.2206
 30
0.0
 10
22.1521
 20
9.2206
 30
0.0
 10
21.9446
 20
9.2206
 30
0.0
 10
21.7598
 20
9.262
 30
0.0
 10
21.5975
 20
9.3448
 30
0.0
 10
21.5975
 20
9.3448
 30
0.0
 10
21.4352
 20
9.4275
 30
0.0
 10
21.3124
 20
9.5432
 30
0.0
 10
21.2287
 20
9.6928
 30
0.0
 10
21.2287
 20
9.6928
 30
0.0
 10
21.1455
 20
9.8419
 30
0.0
 10
21.1036
 20
10.008
 30
0.0
 10
21.1036
 20
10.1909
 30
0.0
 10
21.1036
 20
10.1909
 30
0.0
 10
21.1036
 20
10.3142
 30
0.0
 10
21.1196
 20
10.4219
 30
0.0
 10
21.1525
 20
10.5141
 30
0.0
 10
21.1525
 20
10.5141
 30
0.0
 10
21.185
 20
10.6063
 30
0.0
 10
21.2419
 20
10.706
 30
0.0
 10
21.3228
 20
10.8123
 30
0.0
  0
SPLINE
  5
64
330
1F
100
AcDbEntity
  8
VRSTVA_1
 62
   250
100
AcDbSpline
210
0.0
220
0.0
230
1.0
 70
    11
 71
     3
 72
    32
 73
    28
 74
     0
 42
0.0000000001
 43
0.0000000001
 40
0.0
 40
0.0
 40
0.0
 40
0.0
 40
0.125
 40
0.125
 40
0.125
 40
0.125
 40
0.25
 40
0.25
 40
0.25
 40
0.25
 40
0.375
 40
0.375
 40
0.375
 40
0.375
 40
0.5
 40
0.5
 40
0.5
 40
0.5
 40
0.625
 40
0.625
 40
0.625
 40
0.625
 40
0.75
 40
0.75
 40
0.75
 40
0.75
 40
1.0
 40
1.0
 40
1.0
 40
1.0
 10
21.5086
 20
10.6472
 30
0.0
 10
21.4408
 20
10.5607
 30
0.0
 10
21.3943
 20
10.4849
 30
0.0
 10
21.3694
 20
10.4205
 30
0.0
 10
21.3694
 20
10.4205
 30
0.0
 10
21.3449
 20
10.3556
 30
0.0
 10
21.3322
 20
10.2794
 30
0.0
 10
21.3322
 20
10.1924
 30
0.0
 10
21.3322
 20
10.1924
 30
0.0
 10
21.3322
 20
9.991
 30
0.0
 10
21.4004
 20
9.825
 30
0.0
 10
21.5368
 20
9.6933
 30
0.0
 10
21.5368
 20
9.6933
 30
0.0
 10
21.6732
 20
9.5621
 30
0.0
 10
21.8769
 20
9.4962
 30
0.0
 10
22.1483
 20
9.4962
 30
0.0
 10
22.1483
 20
9.4962
 30
0.0
 10
22.2546
 20
9.4962
 30
0.0
 10
22.3492
 20
9.5066
 30
0.0
 10
22.4319
 20
9.5268
 30
0.0
 10
22.4319
 20
9.5268
 30
0.0
 10
22.4936
 20
9.5414
 30
0.0
 10
22.5693
 20
9.5719
 30
0.0
 10
22.6591
 20
9.619
 30
0.0
 10
22.6591
 20
9.619
 30
0.0
 10
22.6591
 20
9.619
 30
0.0
 10
21.5086
 20
10.6472
 30
0.0
 10
21.5086
 20
10.6472
 30
0.0
  0
SPLINE
  5
65
330
1F
100
AcDbEntity
  8
VRSTVA_1
 62
   250
100
AcDbSpline
210
0.0
220
0.0
230
1.0
 70
    11
 71
     3
 72
    28
 73
    24
 74
     0
 42
0.0000000001
 43
0.0000000001
 40
0.0
 40
0.0
 40
0.0
 40
0.0
 40
0.1428571428571428
 40
0.1428571428571428
 40
0.1428571428571428
 40
0.1428571428571428
 40
0.2857142857142857
 40
0.2857142857142857
 40
0.2857142857142857
 40
0.2857142857142857
 40
0.4285714285714285
 40
0.4285714285714285
 40
0.4285714285714285
 40
0.4285714285714285
 40
0.5714285714285714
 40
0.5714285714285714
 40
0.5714285714285714
 40
0.5714285714285714
 40
0.7142857142857143
 40
0.7142857142857143
 40
0.7142857142857143
 40
0.7142857142857143
 40
1.0
 40
1.0
 40
1.0
 40
1.0
 10
21.6507
 20
10.7601
 30
0.0
 10
21.6507
 20
10.7601
 30
0.0
 10
22.7969
 20
9.7361
 30
0.0
 10
22.7969
 20
9.7361
 30
0.0
 10
22.7969
 20
9.7361
 30
0.0
 10
22.8548
 20
9.8067
 30
0.0
 10
22.8953
 20
9.872
 30
0.0
 10
22.9183
 20
9.9318
 30
0.0
 10
22.9183
 20
9.9318
 30
0.0
 10
22.9489
 20
10.0099
 30
0.0
 10
22.9639
 20
10.0945
 30
0.0
 10
22.9639
 20
10.1853
 30
0.0
 10
22.9639
 20
10.1853
 30
0.0
 10
22.9639
 20
10.3857
 30
0.0
 10
22.8934
 20
10.5508
 30
0.0
 10
22.7518
 20
10.6816
 30
0.0
 10
22.7518
 20
10.6816
 30
0.0
 10
22.6102
 20
10.8119
 30
0.0
 10
22.4117
 20
10.8772
 30
0.0
 10
22.1563
 20
10.8772
 30
0.0
 10
22.1563
 20
10.8772
 30
0.0
 10
21.9653
 20
10.8772
 30
0.0
 10
21.7965
 20
10.8382
 30
0.0
 10
21.6507
 20
10.7601
 30
0.0
  0
SPLINE
  5
66
330
1F
100
AcDbEntity
  8
VRSTVA_1
 62
   250
100
AcDbSpline
210
0.0
220
0.0
230
1.0
 70
    11
 71
     3
 72
    92
 73
    88
 74
     0
 42
0.0000000001
 43
0.0000000001
 40
0.0
 40
0.0
 40
0.0
 40
0.0
 40
0.0434782608695652
 40
0.0434782608695652
 40
0.0434782608695652
 40
0.0434782608695652
 40
0.0869565217391304
 40
0.0869565217391304
 40
0.0869565217391304
 40
0.0869565217391304
 40
0.1304347826086956
 40
0.1304347826086956
 40
0.1304347826086956
 40
0.1304347826086956
 40
0.1739130434782609
 40
0.1739130434782609
 40
0.1739130434782609
 40
0.1739130434782609
 40
0.2173913043478261
 40
0.2173913043478261
 40
0.2173913043478261
 40
0.2173913043478261
 40
0.2608695652173913
 40
0.2608695652173913
 40
0.2608695652173913
 40
0.2608695652173913
 40
0.3043478260869565
 40
0.3043478260869565
 40
0.3043478260869565
 40
0.3043478260869565
 40
0.3478260869565217
 40
0.3478260869565217
 40
0.3478260869565217
 40
0.3478260869565217
 40
0.391304347826087
 40
0.391304347826087
 40
0.391304347826087
 40
0.391304347826087
 40
0.4347826086956522
 40
0.4347826086956522
 40
0.4347826086956522
 40
0.4347826086956522
 40
0.4782608695652174
 40
0.4782608695652174
 40
0.4782608695652174
 40
0.4782608695652174
 40
0.5217391304347826
 40
0.5217391304347826
 40
0.5217391304347826
 40
0.5217391304347826
 40
0.5652173913043478
 40
0.5652173913043478
 40
0.5652173913043478
 40
0.5652173913043478
 40
0.6086956521739131
 40
0.6086956521739131
 40
0.6086956521739131
 40
0.6086956521739131
 40
0.6521739130434783
 40
0.6521739130434783
 40
0.6521739130434783
 40
0.6521739130434783
 40
0.6956521739130435
 40
0.6956521739130435
 40
0.6956521739130435
 40
0.6956521739130435
 40
0.7391304347826086
 40
0.7391304347826086
 40
0.7391304347826086
 40
0.7391304347826086
 40
0.782608695652174
 40
0.782608695652174
 40
0.782608695652174
 40
0.782608695652174
 40
0.8260869565217391
 40
0.8260869565217391
 40
0.8260869565217391
 40
0.8260869565217391
 40
0.8695652173913043
 40
0.8695652173913043
 40
0.8695652173913043
 40
0.8695652173913043
 40
0.9130434782608695
 40
0.9130434782608695
 40
0.9130434782608695
 40
0.9130434782608695
 40
1.0
 40
1.0
 40
1.0
 40
1.0
 10
22.629
 20
11.4022
 30
0.0
 10
22.629
 20
11.4022
 30
0.0
 10
22.6069
 20
11.6628
 30
0.0
 10
22.6069
 20
11.6628
 30
0.0
 10
22.6069
 20
11.6628
 30
0.0
 10
22.7339
 20
11.6821
 30
0.0
 10
22.8289
 20
11.7267
 30
0.0
 10
22.8929
 20
11.7968
 30
0.0
 10
22.8929
 20
11.7968
 30
0.0
 10
22.9569
 20
11.8674
 30
0.0
 10
22.9889
 20
11.952
 30
0.0
 10
22.9889
 20
12.0513
 30
0.0
 10
22.9889
 20
12.0513
 30
0.0
 10
22.9889
 20
12.1708
 30
0.0
 10
22.9437
 20
12.2719
 30
0.0
 10
22.8539
 20
12.3542
 30
0.0
 10
22.8539
 20
12.3542
 30
0.0
 10
22.7636
 20
12.437
 30
0.0
 10
22.6441
 20
12.4784
 30
0.0
 10
22.4954
 20
12.4784
 30
0.0
 10
22.4954
 20
12.4784
 30
0.0
 10
22.3539
 20
12.4784
 30
0.0
 10
22.2424
 20
12.4389
 30
0.0
 10
22.1605
 20
12.3594
 30
0.0
 10
22.1605
 20
12.3594
 30
0.0
 10
22.0787
 20
12.2799
 30
0.0
 10
22.0378
 20
12.176
 30
0.0
 10
22.0378
 20
12.0471
 30
0.0
 10
22.0378
 20
12.0471
 30
0.0
 10
22.0378
 20
11.9671
 30
0.0
 10
22.0561
 20
11.8951
 30
0.0
 10
22.0923
 20
11.8307
 30
0.0
 10
22.0923
 20
11.8307
 30
0.0
 10
22.1286
 20
11.7662
 30
0.0
 10
22.1756
 20
11.7159
 30
0.0
 10
22.2334
 20
11.6792
 30
0.0
 10
22.2334
 20
11.6792
 30
0.0
 10
22.2334
 20
11.6792
 30
0.0
 10
22.2033
 20
11.4464
 30
0.0
 10
22.2033
 20
11.4464
 30
0.0
 10
22.2033
 20
11.4464
 30
0.0
 10
22.2033
 20
11.4464
 30
0.0
 10
21.1657
 20
11.6421
 30
0.0
 10
21.1657
 20
11.6421
 30
0.0
 10
21.1657
 20
11.6421
 30
0.0
 10
21.1657
 20
11.6421
 30
0.0
 10
21.1657
 20
12.6468
 30
0.0
 10
21.1657
 20
12.6468
 30
0.0
 10
21.1657
 20
12.6468
 30
0.0
 10
21.1657
 20
12.6468
 30
0.0
 10
21.4028
 20
12.6468
 30
0.0
 10
21.4028
 20
12.6468
 30
0.0
 10
21.4028
 20
12.6468
 30
0.0
 10
21.4028
 20
12.6468
 30
0.0
 10
21.4028
 20
11.8406
 30
0.0
 10
21.4028
 20
11.8406
 30
0.0
 10
21.4028
 20
11.8406
 30
0.0
 10
21.4028
 20
11.8406
 30
0.0
 10
21.9456
 20
11.7315
 30
0.0
 10
21.9456
 20
11.7315
 30
0.0
 10
21.9456
 20
11.7315
 30
0.0
 10
21.8609
 20
11.8528
 30
0.0
 10
21.8186
 20
11.9803
 30
0.0
 10
21.8186
 20
12.1134
 30
0.0
 10
21.8186
 20
12.1134
 30
0.0
 10
21.8186
 20
12.2898
 30
0.0
 10
21.8797
 20
12.4384
 30
0.0
 10
22.002
 20
12.5598
 30
0.0
 10
22.002
 20
12.5598
 30
0.0
 10
22.1243
 20
12.6811
 30
0.0
 10
22.2814
 20
12.7418
 30
0.0
 10
22.4733
 20
12.7418
 30
0.0
 10
22.4733
 20
12.7418
 30
0.0
 10
22.6563
 20
12.7418
 30
0.0
 10
22.8143
 20
12.6882
 30
0.0
 10
22.9475
 20
12.5819
 30
0.0
 10
22.9475
 20
12.5819
 30
0.0
 10
23.1107
 20
12.4521
 30
0.0
 10
23.1925
 20
12.2752
 30
0.0
 10
23.1925
 20
12.0513
 30
0.0
 10
23.1925
 20
12.0513
 30
0.0
 10
23.1925
 20
11.8674
 30
0.0
 10
23.1413
 20
11.7173
 30
0.0
 10
23.0383
 20
11.6011
 30
0.0
 10
23.0383
 20
11.6011
 30
0.0
 10
22.9353
 20
11.485
 30
0.0
 10
22.7988
 20
11.4186
 30
0.0
 10
22.629
 20
11.4022
 30
0.0
  0
SPLINE
  5
67
330
1F
100
AcDbEntity
  8
VRSTVA_1
 62
   250
100
AcDbSpline
210
0.0
220
0.0
230
1.0
 70
    11
 71
     3
 72
    52
 73
    48
 74
     0
 42
0.0000000001
 43
0.0000000001
 40
0.0
 40
0.0
 40
0.0
 40
0.0
 40
0.0769230769230769
 40
0.0769230769230769
 40
0.0769230769230769
 40
0.0769230769230769
 40
0.1538461538461539
 40
0.1538461538461539
 40
0.1538461538461539
 40
0.1538461538461539
 40
0.2307692307692308
 40
0.2307692307692308
 40
0.2307692307692308
 40
0.2307692307692308
 40
0.3076923076923077
 40
0.3076923076923077
 40
0.3076923076923077
 40
0.3076923076923077
 40
0.3846153846153846
 40
0.3846153846153846
 40
0.3846153846153846
 40
0.3846153846153846
 40
0.4615384615384616
 40
0.4615384615384616
 40
0.4615384615384616
 40
0.4615384615384616
 40
0.5384615384615384
 40
0.5384615384615384
 40
0.5384615384615384
 40
0.5384615384615384
 40
0.6153846153846154
 40
0.6153846153846154
 40
0.6153846153846154
 40
0.6153846153846154
 40
0.6923076923076923
 40
0.6923076923076923
 40
0.6923076923076923
 40
0.6923076923076923
 40
0.7692307692307693
 40
0.7692307692307693
 40
0.7692307692307693
 40
0.7692307692307693
 40
0.8461538461538461
 40
0.8461538461538461
 40
0.8461538461538461
 40
0.8461538461538461
 40
1.0
 40
1.0
 40
1.0
 40
1.0
 10
22.162
 20
12.9718
 30
0.0
 10
21.923
 20
12.9718
 30
0.0
 10
21.7306
 20
12.9963
 30
0.0
 10
21.5853
 20
13.0457
 30
0.0
 10
21.5853
 20
13.0457
 30
0.0
 10
21.4395
 20
13.0946
 30
0.0
 10
21.327
 20
13.168
 30
0.0
 10
21.248
 20
13.2649
 30
0.0
 10
21.248
 20
13.2649
 30
0.0
 10
21.169
 20
13.3618
 30
0.0
 10
21.1295
 20
13.4836
 30
0.0
 10
21.1295
 20
13.6303
 30
0.0
 10
21.1295
 20
13.6303
 30
0.0
 10
21.1295
 20
13.739
 30
0.0
 10
21.1516
 20
13.834
 30
0.0
 10
21.1953
 20
13.9159
 30
0.0
 10
21.1953
 20
13.9159
 30
0.0
 10
21.2386
 20
13.9977
 30
0.0
 10
21.3016
 20
14.065
 30
0.0
 10
21.384
 20
14.1186
 30
0.0
 10
21.384
 20
14.1186
 30
0.0
 10
21.4663
 20
14.1718
 30
0.0
 10
21.5665
 20
14.2136
 30
0.0
 10
21.6845
 20
14.2437
 30
0.0
 10
21.6845
 20
14.2437
 30
0.0
 10
21.8026
 20
14.2743
 30
0.0
 10
21.9616
 20
14.2893
 30
0.0
 10
22.162
 20
14.2893
 30
0.0
 10
22.162
 20
14.2893
 30
0.0
 10
22.399
 20
14.2893
 30
0.0
 10
22.59
 20
14.2649
 30
0.0
 10
22.7358
 20
14.2164
 30
0.0
 10
22.7358
 20
14.2164
 30
0.0
 10
22.8816
 20
14.1675
 30
0.0
 10
22.994
 20
14.0946
 30
0.0
 10
23.0735
 20
13.9977
 30
0.0
 10
23.0735
 20
13.9977
 30
0.0
 10
23.153
 20
13.9008
 30
0.0
 10
23.1925
 20
13.7785
 30
0.0
 10
23.1925
 20
13.6303
 30
0.0
 10
23.1925
 20
13.6303
 30
0.0
 10
23.1925
 20
13.4356
 30
0.0
 10
23.1229
 20
13.2827
 30
0.0
 10
22.9832
 20
13.1717
 30
0.0
 10
22.9832
 20
13.1717
 30
0.0
 10
22.8153
 20
13.0386
 30
0.0
 10
22.5411
 20
12.9718
 30
0.0
 10
22.162
 20
12.9718
 30
0.0
  0
SPLINE
  5
68
330
1F
100
AcDbEntity
  8
VRSTVA_1
 62
   250
100
AcDbSpline
210
0.0
220
0.0
230
1.0
 70
    11
 71
     3
 72
    36
 73
    32
 74
     0
 42
0.0000000001
 43
0.0000000001
 40
0.0
 40
0.0
 40
0.0
 40
0.0
 40
0.1111111111111111
 40
0.1111111111111111
 40
0.1111111111111111
 40
0.1111111111111111
 40
0.2222222222222222
 40
0.2222222222222222
 40
0.2222222222222222
 40
0.2222222222222222
 40
0.3333333333333333
 40
0.3333333333333333
 40
0.3333333333333333
 40
0.3333333333333333
 40
0.4444444444444444
 40
0.4444444444444444
 40
0.4444444444444444
 40
0.4444444444444444
 40
0.5555555555555556
 40
0.5555555555555556
 40
0.5555555555555556
 40
0.5555555555555556
 40
0.6666666666666666
 40
0.6666666666666666
 40
0.6666666666666666
 40
0.6666666666666666
 40
0.7777777777777778
 40
0.7777777777777778
 40
0.7777777777777778
 40
0.7777777777777778
 40
1.0
 40
1.0
 40
1.0
 40
1.0
 10
22.162
 20
13.2268
 30
0.0
 10
22.4936
 20
13.2268
 30
0.0
 10
22.7142
 20
13.2658
 30
0.0
 10
22.8242
 20
13.3434
 30
0.0
 10
22.8242
 20
13.3434
 30
0.0
 10
22.9338
 20
13.421
 30
0.0
 10
22.9889
 20
13.5165
 30
0.0
 10
22.9889
 20
13.6303
 30
0.0
 10
22.9889
 20
13.6303
 30
0.0
 10
22.9889
 20
13.7446
 30
0.0
 10
22.9334
 20
13.8401
 30
0.0
 10
22.8233
 20
13.9177
 30
0.0
 10
22.8233
 20
13.9177
 30
0.0
 10
22.7132
 20
13.9954
 30
0.0
 10
22.4926
 20
14.0344
 30
0.0
 10
22.162
 20
14.0344
 30
0.0
 10
22.162
 20
14.0344
 30
0.0
 10
21.8294
 20
14.0344
 30
0.0
 10
21.6083
 20
13.9954
 30
0.0
 10
21.4992
 20
13.9177
 30
0.0
 10
21.4992
 20
13.9177
 30
0.0
 10
21.3896
 20
13.8401
 30
0.0
 10
21.335
 20
13.7437
 30
0.0
 10
21.335
 20
13.628
 30
0.0
 10
21.335
 20
13.628
 30
0.0
 10
21.335
 20
13.5137
 30
0.0
 10
21.3835
 20
13.4229
 30
0.0
 10
21.4799
 20
13.3547
 30
0.0
 10
21.4799
 20
13.3547
 30
0.0
 10
21.6027
 20
13.2696
 30
0.0
 10
21.8303
 20
13.2268
 30
0.0
 10
22.162
 20
13.2268
 30
0.0
  0
SPLINE
  5
69
330
1F
100
AcDbEntity
  8
VRSTVA_1
 62
   250
100
AcDbSpline
210
0.0
220
0.0
230
1.0
 70
    24
 71
     3
 72
     8
 73
     4
 74
     0
 42
0.0000000001
 43
0.0000000001
 40
0.0
 40
0.0
 40
0.0
 40
0.0
 40
1.0
 40
1.0
 40
1.0
 40
1.0
 10
23.8605
 20
14.6762
 30
0.0
 10
23.8605
 20
14.6762
 30
0.0
 10
23.8605
 20
-18.3578
 30
0.0
 10
23.8605
 20
-18.3578
 30
0.0
  0
SPLINE
  5
6A
330
1F
100
AcDbEntity
  8
VRSTVA_1
 62
   250
100
AcDbSpline
210
0.0
220
0.0
230
1.0
 70
    11
 71
     3
 72
    20
 73
    16
 74
     0
 42
0.0000000001
 43
0.0000000001
 40
0.0
 40
0.0
 40
0.0
 40
0.0
 40
0.2
 40
0.2
 40
0.2
 40
0.2
 40
0.4
 40
0.4
 40
0.4
 40
0.4
 40
0.6
 40
0.6
 40
0.6
 40
0.6
 40
1.0
 40
1.0
 40
1.0
 40
1.0
 10
24.381
 20
7.8529
 30
0.0
 10
24.381
 20
7.8529
 30
0.0
 10
23.9399
 20
4.7279
 30
0.0
 10
23.9399
 20
4.7279
 30
0.0
 10
23.9399
 20
4.7279
 30
0.0
 10
23.9399
 20
4.7279
 30
0.0
 10
23.842
 20
4.7279
 30
0.0
 10
23.842
 20
4.7279
 30
0.0
 10
23.842
 20
4.7279
 30
0.0
 10
23.842
 20
4.7279
 30
0.0
 10
23.3716
 20
7.8529
 30
0.0
 10
23.3716
 20
7.8529
 30
0.0
 10
23.3716
 20
7.8529
 30
0.0
 10
23.3716
 20
7.8529
 30
0.0
 10
24.381
 20
7.8529
 30
0.0
 10
24.381
 20
7.8529
 30
0.0
  0
SPLINE
  5
6B
330
1F
100
AcDbEntity
  8
VRSTVA_1
 62
   250
100
AcDbSpline
210
0.0
220
0.0
230
1.0
 70
    11
 71
     3
 72
    20
 73
    16
 74
     0
 42
0.0000000001
 43
0.0000000001
 40
0.0
 40
0.0
 40
0.0
 40
0.0
 40
0.2
 40
0.2
 40
0.2
 40
0.2
 40
0.4
 40
0.4
 40
0.4
 40
0.4
 40
0.6
 40
0.6
 40
0.6
 40
0.6
 40
1.0
 40
1.0
 40
1.0
 40
1.0
 10
23.3559
 20
-16.4385
 30
0.0
 10
23.3559
 20
-16.4385
 30
0.0
 10
23.7969
 20
-13.3135
 30
0.0
 10
23.7969
 20
-13.3135
 30
0.0
 10
23.7969
 20
-13.3135
 30
0.0
 10
23.7969
 20
-13.3135
 30
0.0
 10
23.8948
 20
-13.3135
 30
0.0
 10
23.8948
 20
-13.3135
 30
0.0
 10
23.8948
 20
-13.3135
 30
0.0
 10
23.8948
 20
-13.3135
 30
0.0
 10
24.3652
 20
-16.4385
 30
0.0
 10
24.3652
 20
-16.4385
 30
0.0
 10
24.3652
 20
-16.4385
 30
0.0
 10
24.3652
 20
-16.4385
 30
0.0
 10
23.3559
 20
-16.4385
 30
0.0
 10
23.3559
 20
-16.4385
 30
0.0
  0
SPLINE
  5
6C
330
1F
100
AcDbEntity
  8
VRSTVA_1
 62
   250
100
AcDbSpline
210
0.0
220
0.0
230
1.0
 70
    11
 71
     3
 72
   120
 73
   116
 74
     0
 42
0.0000000001
 43
0.0000000001
 40
0.0
 40
0.0
 40
0.0
 40
0.0
 40
0.0333333333333333
 40
0.0333333333333333
 40
0.0333333333333333
 40
0.0333333333333333
 40
0.0666666666666667
 40
0.0666666666666667
 40
0.0666666666666667
 40
0.0666666666666667
 40
0.1
 40
0.1
 40
0.1
 40
0.1
 40
0.1333333333333333
 40
0.1333333333333333
 40
0.1333333333333333
 40
0.1333333333333333
 40
0.1666666666666667
 40
0.1666666666666667
 40
0.1666666666666667
 40
0.1666666666666667
 40
0.2
 40
0.2
 40
0.2
 40
0.2
 40
0.2333333333333333
 40
0.2333333333333333
 40
0.2333333333333333
 40
0.2333333333333333
 40
0.2666666666666667
 40
0.2666666666666667
 40
0.2666666666666667
 40
0.2666666666666667
 40
0.3
 40
0.3
 40
0.3
 40
0.3
 40
0.3333333333333333
 40
0.3333333333333333
 40
0.3333333333333333
 40
0.3333333333333333
 40
0.3666666666666666
 40
0.3666666666666666
 40
0.3666666666666666
 40
0.3666666666666666
 40
0.4
 40
0.4
 40
0.4
 40
0.4
 40
0.4333333333333333
 40
0.4333333333333333
 40
0.4333333333333333
 40
0.4333333333333333
 40
0.4666666666666667
 40
0.4666666666666667
 40
0.4666666666666667
 40
0.4666666666666667
 40
0.5
 40
0.5
 40
0.5
 40
0.5
 40
0.5333333333333333
 40
0.5333333333333333
 40
0.5333333333333333
 40
0.5333333333333333
 40
0.5666666666666667
 40
0.5666666666666667
 40
0.5666666666666667
 40
0.5666666666666667
 40
0.6
 40
0.6
 40
0.6
 40
0.6
 40
0.6333333333333333
 40
0.6333333333333333
 40
0.6333333333333333
 40
0.6333333333333333
 40
0.6666666666666666
 40
0.6666666666666666
 40
0.6666666666666666
 40
0.6666666666666666
 40
0.7
 40
0.7
 40
0.7
 40
0.7
 40
0.7333333333333333
 40
0.7333333333333333
 40
0.7333333333333333
 40
0.7333333333333333
 40
0.7666666666666667
 40
0.7666666666666667
 40
0.7666666666666667
 40
0.7666666666666667
 40
0.8
 40
0.8
 40
0.8
 40
0.8
 40
0.8333333333333334
 40
0.8333333333333334
 40
0.8333333333333334
 40
0.8333333333333334
 40
0.8666666666666667
 40
0.8666666666666667
 40
0.8666666666666667
 40
0.8666666666666667
 40
0.9
 40
0.9
 40
0.9
 40
0.9
 40
0.9333333333333333
 40
0.9333333333333333
 40
0.9333333333333333
 40
0.9333333333333333
 40
1.0
 40
1.0
 40
1.0
 40
1.0
 10
-25.4469
 20
8.9136
 30
0.0
 10
-25.4469
 20
8.9136
 30
0.0
 10
-25.6142
 20
9.0809
 30
0.0
 10
-25.6142
 20
9.0809
 30
0.0
 10
-25.6142
 20
9.0809
 30
0.0
 10
-25.6142
 20
9.0809
 30
0.0
 10
-25.0102
 20
9.6869
 30
0.0
 10
-25.0102
 20
9.6869
 30
0.0
 10
-25.0102
 20
9.6869
 30
0.0
 10
-25.0102
 20
9.6869
 30
0.0
 10
-24.4803
 20
9.1571
 30
0.0
 10
-24.4803
 20
9.1571
 30
0.0
 10
-24.4803
 20
9.1571
 30
0.0
 10
-24.499
 20
8.9901
 30
0.0
 10
-24.5392
 20
8.8388
 30
0.0
 10
-24.6004
 20
8.7024
 30
0.0
 10
-24.6004
 20
8.7024
 30
0.0
 10
-24.6619
 20
8.5664
 30
0.0
 10
-24.7448
 20
8.4463
 30
0.0
 10
-24.8485
 20
8.3425
 30
0.0
 10
-24.8485
 20
8.3425
 30
0.0
 10
-24.9889
 20
8.2022
 30
0.0
 10
-25.1465
 20
8.1044
 30
0.0
 10
-25.3212
 20
8.0502
 30
0.0
 10
-25.3212
 20
8.0502
 30
0.0
 10
-25.4958
 20
7.9953
 30
0.0
 10
-25.6694
 20
7.996
 30
0.0
 10
-25.8414
 20
8.0508
 30
0.0
 10
-25.8414
 20
8.0508
 30
0.0
 10
-26.0137
 20
8.106
 30
0.0
 10
-26.17
 20
8.2038
 30
0.0
 10
-26.3103
 20
8.3442
 30
0.0
 10
-26.3103
 20
8.3442
 30
0.0
 10
-26.4494
 20
8.4832
 30
0.0
 10
-26.5498
 20
8.6422
 30
0.0
 10
-26.612
 20
8.8208
 30
0.0
 10
-26.612
 20
8.8208
 30
0.0
 10
-26.6749
 20
8.9994
 30
0.0
 10
-26.6805
 20
9.1727
 30
0.0
 10
-26.63
 20
9.3404
 30
0.0
 10
-26.63
 20
9.3404
 30
0.0
 10
-26.5791
 20
9.5076
 30
0.0
 10
-26.4826
 20
9.6627
 30
0.0
 10
-26.3403
 20
9.805
 30
0.0
 10
-26.3403
 20
9.805
 30
0.0
 10
-26.2372
 20
9.9081
 30
0.0
 10
-26.1271
 20
9.9849
 30
0.0
 10
-26.01
 20
10.0348
 30
0.0
 10
-26.01
 20
10.0348
 30
0.0
 10
-25.8933
 20
10.0851
 30
0.0
 10
-25.7812
 20
10.104
 30
0.0
 10
-25.6741
 20
10.0914
 30
0.0
 10
-25.6741
 20
10.0914
 30
0.0
 10
-25.5666
 20
10.0791
 30
0.0
 10
-25.4529
 20
10.0372
 30
0.0
 10
-25.3318
 20
9.966
 30
0.0
 10
-25.3318
 20
9.966
 30
0.0
 10
-25.3318
 20
9.966
 30
0.0
 10
-25.4555
 20
9.7485
 30
0.0
 10
-25.4555
 20
9.7485
 30
0.0
 10
-25.4555
 20
9.7485
 30
0.0
 10
-25.55
 20
9.7997
 30
0.0
 10
-25.6338
 20
9.8303
 30
0.0
 10
-25.707
 20
9.8403
 30
0.0
 10
-25.707
 20
9.8403
 30
0.0
 10
-25.7805
 20
9.8499
 30
0.0
 10
-25.8593
 20
9.8376
 30
0.0
 10
-25.9435
 20
9.8033
 30
0.0
 10
-25.9435
 20
9.8033
 30
0.0
 10
-26.0273
 20
9.7694
 30
0.0
 10
-26.1058
 20
9.7162
 30
0.0
 10
-26.1776
 20
9.6444
 30
0.0
 10
-26.1776
 20
9.6444
 30
0.0
 10
-26.2641
 20
9.5579
 30
0.0
 10
-26.3256
 20
9.4697
 30
0.0
 10
-26.3622
 20
9.3806
 30
0.0
 10
-26.3622
 20
9.3806
 30
0.0
 10
-26.3991
 20
9.2911
 30
0.0
 10
-26.4151
 20
9.206
 30
0.0
 10
-26.4111
 20
9.1242
 30
0.0
 10
-26.4111
 20
9.1242
 30
0.0
 10
-26.4068
 20
9.0427
 30
0.0
 10
-26.3898
 20
8.9658
 30
0.0
 10
-26.3599
 20
8.8927
 30
0.0
 10
-26.3599
 20
8.8927
 30
0.0
 10
-26.308
 20
8.7683
 30
0.0
 10
-26.2305
 20
8.6542
 30
0.0
 10
-26.1271
 20
8.5507
 30
0.0
 10
-26.1271
 20
8.5507
 30
0.0
 10
-25.9997
 20
8.4233
 30
0.0
 10
-25.8713
 20
8.3389
 30
0.0
 10
-25.7416
 20
8.297
 30
0.0
 10
-25.7416
 20
8.297
 30
0.0
 10
-25.6119
 20
8.2551
 30
0.0
 10
-25.4845
 20
8.2554
 30
0.0
 10
-25.3591
 20
8.2976
 30
0.0
 10
-25.3591
 20
8.2976
 30
0.0
 10
-25.2337
 20
8.3399
 30
0.0
 10
-25.1239
 20
8.4077
 30
0.0
 10
-25.0298
 20
8.5019
 30
0.0
 10
-25.0298
 20
8.5019
 30
0.0
 10
-24.9477
 20
8.584
 30
0.0
 10
-24.8838
 20
8.6798
 30
0.0
 10
-24.8375
 20
8.7892
 30
0.0
 10
-24.8375
 20
8.7892
 30
0.0
 10
-24.7907
 20
8.8987
 30
0.0
 10
-24.7654
 20
8.9911
 30
0.0
 10
-24.7611
 20
9.0673
 30
0.0
 10
-24.7611
 20
9.0673
 30
0.0
 10
-24.7611
 20
9.0673
 30
0.0
 10
-25.0271
 20
9.3334
 30
0.0
 10
-25.0271
 20
9.3334
 30
0.0
 10
-25.0271
 20
9.3334
 30
0.0
 10
-25.0271
 20
9.3334
 30
0.0
 10
-25.4469
 20
8.9136
 30
0.0
 10
-25.4469
 20
8.9136
 30
0.0
  0
SPLINE
  5
6D
330
1F
100
AcDbEntity
  8
VRSTVA_1
 62
   250
100
AcDbSpline
210
0.0
220
0.0
230
1.0
 70
    11
 71
     3
 72
    80
 73
    76
 74
     0
 42
0.0000000001
 43
0.0000000001
 40
0.0
 40
0.0
 40
0.0
 40
0.0
 40
0.05
 40
0.05
 40
0.05
 40
0.05
 40
0.1
 40
0.1
 40
0.1
 40
0.1
 40
0.15
 40
0.15
 40
0.15
 40
0.15
 40
0.2
 40
0.2
 40
0.2
 40
0.2
 40
0.25
 40
0.25
 40
0.25
 40
0.25
 40
0.3
 40
0.3
 40
0.3
 40
0.3
 40
0.35
 40
0.35
 40
0.35
 40
0.35
 40
0.4
 40
0.4
 40
0.4
 40
0.4
 40
0.45
 40
0.45
 40
0.45
 40
0.45
 40
0.5
 40
0.5
 40
0.5
 40
0.5
 40
0.55
 40
0.55
 40
0.55
 40
0.55
 40
0.6
 40
0.6
 40
0.6
 40
0.6
 40
0.65
 40
0.65
 40
0.65
 40
0.65
 40
0.7
 40
0.7
 40
0.7
 40
0.7
 40
0.75
 40
0.75
 40
0.75
 40
0.75
 40
0.8
 40
0.8
 40
0.8
 40
0.8
 40
0.85
 40
0.85
 40
0.85
 40
0.85
 40
0.9
 40
0.9
 40
0.9
 40
0.9
 40
1.0
 40
1.0
 40
1.0
 40
1.0
 10
-23.6881
 20
11.7088
 30
0.0
 10
-23.6881
 20
11.7088
 30
0.0
 10
-23.8487
 20
11.5209
 30
0.0
 10
-23.8487
 20
11.5209
 30
0.0
 10
-23.8487
 20
11.5209
 30
0.0
 10
-23.9332
 20
11.5741
 30
0.0
 10
-24.0054
 20
11.6024
 30
0.0
 10
-24.0649
 20
11.6047
 30
0.0
 10
-24.0649
 20
11.6047
 30
0.0
 10
-24.1627
 20
11.6074
 30
0.0
 10
-24.2462
 20
11.5738
 30
0.0
 10
-24.3157
 20
11.5043
 30
0.0
 10
-24.3157
 20
11.5043
 30
0.0
 10
-24.3716
 20
11.4484
 30
0.0
 10
-24.4048
 20
11.3839
 30
0.0
 10
-24.4158
 20
11.3104
 30
0.0
 10
-24.4158
 20
11.3104
 30
0.0
 10
-24.4308
 20
11.2149
 30
0.0
 10
-24.4155
 20
11.1125
 30
0.0
 10
-24.3702
 20
11.0034
 30
0.0
 10
-24.3702
 20
11.0034
 30
0.0
 10
-24.3247
 20
10.8946
 30
0.0
 10
-24.2312
 20
10.7679
 30
0.0
 10
-24.0895
 20
10.6235
 30
0.0
 10
-24.0895
 20
10.6235
 30
0.0
 10
-24.1115
 20
10.73
 30
0.0
 10
-24.1078
 20
10.8294
 30
0.0
 10
-24.0779
 20
10.9219
 30
0.0
 10
-24.0779
 20
10.9219
 30
0.0
 10
-24.048
 20
11.0137
 30
0.0
 10
-23.9994
 20
11.0935
 30
0.0
 10
-23.9325
 20
11.1604
 30
0.0
 10
-23.9325
 20
11.1604
 30
0.0
 10
-23.8155
 20
11.2775
 30
0.0
 10
-23.6731
 20
11.334
 30
0.0
 10
-23.5048
 20
11.33
 30
0.0
 10
-23.5048
 20
11.33
 30
0.0
 10
-23.3365
 20
11.326
 30
0.0
 10
-23.1842
 20
11.2562
 30
0.0
 10
-23.0478
 20
11.1198
 30
0.0
 10
-23.0478
 20
11.1198
 30
0.0
 10
-22.958
 20
11.03
 30
0.0
 10
-22.8945
 20
10.9272
 30
0.0
 10
-22.8559
 20
10.8115
 30
0.0
 10
-22.8559
 20
10.8115
 30
0.0
 10
-22.8176
 20
10.6961
 30
0.0
 10
-22.8116
 20
10.5836
 30
0.0
 10
-22.8383
 20
10.4752
 30
0.0
 10
-22.8383
 20
10.4752
 30
0.0
 10
-22.8649
 20
10.3668
 30
0.0
 10
-22.9211
 20
10.27
 30
0.0
 10
-23.0069
 20
10.1842
 30
0.0
 10
-23.0069
 20
10.1842
 30
0.0
 10
-23.1532
 20
10.0378
 30
0.0
 10
-23.3259
 20
9.9723
 30
0.0
 10
-23.5257
 20
9.9879
 30
0.0
 10
-23.5257
 20
9.9879
 30
0.0
 10
-23.7257
 20
10.0029
 30
0.0
 10
-23.9488
 20
10.1343
 30
0.0
 10
-24.1956
 20
10.3811
 30
0.0
 10
-24.1956
 20
10.3811
 30
0.0
 10
-24.4717
 20
10.6571
 30
0.0
 10
-24.6214
 20
10.9086
 30
0.0
 10
-24.6446
 20
11.1361
 30
0.0
 10
-24.6446
 20
11.1361
 30
0.0
 10
-24.6649
 20
11.334
 30
0.0
 10
-24.6001
 20
11.5086
 30
0.0
 10
-24.4491
 20
11.6596
 30
0.0
 10
-24.4491
 20
11.6596
 30
0.0
 10
-24.337
 20
11.7717
 30
0.0
 10
-24.2133
 20
11.8322
 30
0.0
 10
-24.0782
 20
11.8409
 30
0.0
 10
-24.0782
 20
11.8409
 30
0.0
 10
-23.9435
 20
11.8499
 30
0.0
 10
-23.8135
 20
11.8056
 30
0.0
 10
-23.6881
 20
11.7088
 30
0.0
  0
SPLINE
  5
6E
330
1F
100
AcDbEntity
  8
VRSTVA_1
 62
   250
100
AcDbSpline
210
0.0
220
0.0
230
1.0
 70
    11
 71
     3
 72
    40
 73
    36
 74
     0
 42
0.0000000001
 43
0.0000000001
 40
0.0
 40
0.0
 40
0.0
 40
0.0
 40
0.1
 40
0.1
 40
0.1
 40
0.1
 40
0.2
 40
0.2
 40
0.2
 40
0.2
 40
0.3
 40
0.3
 40
0.3
 40
0.3
 40
0.4
 40
0.4
 40
0.4
 40
0.4
 40
0.5
 40
0.5
 40
0.5
 40
0.5
 40
0.6
 40
0.6
 40
0.6
 40
0.6
 40
0.7
 40
0.7
 40
0.7
 40
0.7
 40
0.8
 40
0.8
 40
0.8
 40
0.8
 40
1.0
 40
1.0
 40
1.0
 40
1.0
 10
-23.7885
 20
10.3771
 30
0.0
 10
-23.728
 20
10.3166
 30
0.0
 10
-23.6571
 20
10.2716
 30
0.0
 10
-23.5763
 20
10.2421
 30
0.0
 10
-23.5763
 20
10.2421
 30
0.0
 10
-23.4955
 20
10.2125
 30
0.0
 10
-23.4177
 20
10.2065
 30
0.0
 10
-23.3428
 20
10.2234
 30
0.0
 10
-23.3428
 20
10.2234
 30
0.0
 10
-23.2677
 20
10.2407
 30
0.0
 10
-23.2045
 20
10.2746
 30
0.0
 10
-23.1539
 20
10.3252
 30
0.0
 10
-23.1539
 20
10.3252
 30
0.0
 10
-23.0797
 20
10.3994
 30
0.0
 10
-23.0461
 20
10.4928
 30
0.0
 10
-23.0528
 20
10.6059
 30
0.0
 10
-23.0528
 20
10.6059
 30
0.0
 10
-23.0594
 20
10.719
 30
0.0
 10
-23.114
 20
10.8268
 30
0.0
 10
-23.2164
 20
10.9292
 30
0.0
 10
-23.2164
 20
10.9292
 30
0.0
 10
-23.3152
 20
11.028
 30
0.0
 10
-23.4193
 20
11.0796
 30
0.0
 10
-23.5287
 20
11.0839
 30
0.0
 10
-23.5287
 20
11.0839
 30
0.0
 10
-23.6382
 20
11.0882
 30
0.0
 10
-23.7326
 20
11.0503
 30
0.0
 10
-23.8125
 20
10.9705
 30
0.0
 10
-23.8125
 20
10.9705
 30
0.0
 10
-23.892
 20
10.891
 30
0.0
 10
-23.9309
 20
10.7955
 30
0.0
 10
-23.9292
 20
10.6834
 30
0.0
 10
-23.9292
 20
10.6834
 30
0.0
 10
-23.9275
 20
10.5713
 30
0.0
 10
-23.8806
 20
10.4692
 30
0.0
 10
-23.7885
 20
10.3771
 30
0.0
  0
SPLINE
  5
6F
330
1F
100
AcDbEntity
  8
VRSTVA_1
 62
   250
100
AcDbSpline
210
0.0
220
0.0
230
1.0
 70
    11
 71
     3
 72
    20
 73
    16
 74
     0
 42
0.0000000001
 43
0.0000000001
 40
0.0
 40
0.0
 40
0.0
 40
0.0
 40
0.2
 40
0.2
 40
0.2
 40
0.2
 40
0.4
 40
0.4
 40
0.4
 40
0.4
 40
0.6
 40
0.6
 40
0.6
 40
0.6
 40
1.0
 40
1.0
 40
1.0
 40
1.0
 10
-22.4681
 20
10.723
 30
0.0
 10
-22.4681
 20
10.723
 30
0.0
 10
-23.5311
 20
12.6142
 30
0.0
 10
-23.5311
 20
12.6142
 30
0.0
 10
-23.5311
 20
12.6142
 30
0.0
 10
-23.5311
 20
12.6142
 30
0.0
 10
-23.3907
 20
12.7546
 30
0.0
 10
-23.3907
 20
12.7546
 30
0.0
 10
-23.3907
 20
12.7546
 30
0.0
 10
-23.3907
 20
12.7546
 30
0.0
 10
-22.3267
 20
10.8644
 30
0.0
 10
-22.3267
 20
10.8644
 30
0.0
 10
-22.3267
 20
10.8644
 30
0.0
 10
-22.3267
 20
10.8644
 30
0.0
 10
-22.4681
 20
10.723
 30
0.0
 10
-22.4681
 20
10.723
 30
0.0
  0
SPLINE
  5
70
330
1F
100
AcDbEntity
  8
VRSTVA_1
 62
   250
100
AcDbSpline
210
0.0
220
0.0
230
1.0
 70
    11
 71
     3
 72
    48
 73
    44
 74
     0
 42
0.0000000001
 43
0.0000000001
 40
0.0
 40
0.0
 40
0.0
 40
0.0
 40
0.0833333333333333
 40
0.0833333333333333
 40
0.0833333333333333
 40
0.0833333333333333
 40
0.1666666666666667
 40
0.1666666666666667
 40
0.1666666666666667
 40
0.1666666666666667
 40
0.25
 40
0.25
 40
0.25
 40
0.25
 40
0.3333333333333333
 40
0.3333333333333333
 40
0.3333333333333333
 40
0.3333333333333333
 40
0.4166666666666667
 40
0.4166666666666667
 40
0.4166666666666667
 40
0.4166666666666667
 40
0.5
 40
0.5
 40
0.5
 40
0.5
 40
0.5833333333333334
 40
0.5833333333333334
 40
0.5833333333333334
 40
0.5833333333333334
 40
0.6666666666666666
 40
0.6666666666666666
 40
0.6666666666666666
 40
0.6666666666666666
 40
0.75
 40
0.75
 40
0.75
 40
0.75
 40
0.8333333333333334
 40
0.8333333333333334
 40
0.8333333333333334
 40
0.8333333333333334
 40
1.0
 40
1.0
 40
1.0
 40
1.0
 10
-21.293
 20
11.9467
 30
0.0
 10
-21.293
 20
11.9467
 30
0.0
 10
-21.6349
 20
12.2886
 30
0.0
 10
-21.6349
 20
12.2886
 30
0.0
 10
-21.6349
 20
12.2886
 30
0.0
 10
-21.6349
 20
12.2886
 30
0.0
 10
-22.2545
 20
11.6689
 30
0.0
 10
-22.2545
 20
11.6689
 30
0.0
 10
-22.2545
 20
11.6689
 30
0.0
 10
-22.2545
 20
11.6689
 30
0.0
 10
-22.4155
 20
11.8299
 30
0.0
 10
-22.4155
 20
11.8299
 30
0.0
 10
-22.4155
 20
11.8299
 30
0.0
 10
-22.4155
 20
11.8299
 30
0.0
 10
-22.6892
 20
13.4075
 30
0.0
 10
-22.6892
 20
13.4075
 30
0.0
 10
-22.6892
 20
13.4075
 30
0.0
 10
-22.6892
 20
13.4075
 30
0.0
 10
-22.5459
 20
13.5508
 30
0.0
 10
-22.5459
 20
13.5508
 30
0.0
 10
-22.5459
 20
13.5508
 30
0.0
 10
-22.5459
 20
13.5508
 30
0.0
 10
-21.6203
 20
12.6252
 30
0.0
 10
-21.6203
 20
12.6252
 30
0.0
 10
-21.6203
 20
12.6252
 30
0.0
 10
-21.6203
 20
12.6252
 30
0.0
 10
-21.4273
 20
12.8181
 30
0.0
 10
-21.4273
 20
12.8181
 30
0.0
 10
-21.4273
 20
12.8181
 30
0.0
 10
-21.4273
 20
12.8181
 30
0.0
 10
-21.2664
 20
12.6571
 30
0.0
 10
-21.2664
 20
12.6571
 30
0.0
 10
-21.2664
 20
12.6571
 30
0.0
 10
-21.2664
 20
12.6571
 30
0.0
 10
-21.4593
 20
12.4642
 30
0.0
 10
-21.4593
 20
12.4642
 30
0.0
 10
-21.4593
 20
12.4642
 30
0.0
 10
-21.4593
 20
12.4642
 30
0.0
 10
-21.1174
 20
12.1223
 30
0.0
 10
-21.1174
 20
12.1223
 30
0.0
 10
-21.1174
 20
12.1223
 30
0.0
 10
-21.1174
 20
12.1223
 30
0.0
 10
-21.293
 20
11.9467
 30
0.0
 10
-21.293
 20
11.9467
 30
0.0
  0
SPLINE
  5
71
330
1F
100
AcDbEntity
  8
VRSTVA_1
 62
   250
100
AcDbSpline
210
0.0
220
0.0
230
1.0
 70
    11
 71
     3
 72
    16
 73
    12
 74
     0
 42
0.0000000001
 43
0.0000000001
 40
0.0
 40
0.0
 40
0.0
 40
0.0
 40
0.25
 40
0.25
 40
0.25
 40
0.25
 40
0.5
 40
0.5
 40
0.5
 40
0.5
 40
1.0
 40
1.0
 40
1.0
 40
1.0
 10
-21.7959
 20
12.4496
 30
0.0
 10
-21.7959
 20
12.4496
 30
0.0
 10
-22.4398
 20
13.0935
 30
0.0
 10
-22.4398
 20
13.0935
 30
0.0
 10
-22.4398
 20
13.0935
 30
0.0
 10
-22.4398
 20
13.0935
 30
0.0
 10
-22.2429
 20
12.0025
 30
0.0
 10
-22.2429
 20
12.0025
 30
0.0
 10
-22.2429
 20
12.0025
 30
0.0
 10
-22.2429
 20
12.0025
 30
0.0
 10
-21.7959
 20
12.4496
 30
0.0
 10
-21.7959
 20
12.4496
 30
0.0
  0
SPLINE
  5
72
330
1F
100
AcDbEntity
  8
VRSTVA_1
 62
   250
100
AcDbSpline
210
0.0
220
0.0
230
1.0
 70
    11
 71
     3
 72
    28
 73
    24
 74
     0
 42
0.0000000001
 43
0.0000000001
 40
0.0
 40
0.0
 40
0.0
 40
0.0
 40
0.1428571428571428
 40
0.1428571428571428
 40
0.1428571428571428
 40
0.1428571428571428
 40
0.2857142857142857
 40
0.2857142857142857
 40
0.2857142857142857
 40
0.2857142857142857
 40
0.4285714285714285
 40
0.4285714285714285
 40
0.4285714285714285
 40
0.4285714285714285
 40
0.5714285714285714
 40
0.5714285714285714
 40
0.5714285714285714
 40
0.5714285714285714
 40
0.7142857142857143
 40
0.7142857142857143
 40
0.7142857142857143
 40
0.7142857142857143
 40
1.0
 40
1.0
 40
1.0
 40
1.0
 10
-21.6103
 20
13.4746
 30
0.0
 10
-21.6103
 20
13.4746
 30
0.0
 10
-21.9312
 20
13.6978
 30
0.0
 10
-21.9312
 20
13.6978
 30
0.0
 10
-21.9312
 20
13.6978
 30
0.0
 10
-21.9312
 20
13.6978
 30
0.0
 10
-22.1651
 20
13.9316
 30
0.0
 10
-22.1651
 20
13.9316
 30
0.0
 10
-22.1651
 20
13.9316
 30
0.0
 10
-22.1651
 20
13.9316
 30
0.0
 10
-21.9652
 20
14.1315
 30
0.0
 10
-21.9652
 20
14.1315
 30
0.0
 10
-21.9652
 20
14.1315
 30
0.0
 10
-21.9652
 20
14.1315
 30
0.0
 10
-21.7314
 20
13.8977
 30
0.0
 10
-21.7314
 20
13.8977
 30
0.0
 10
-21.7314
 20
13.8977
 30
0.0
 10
-21.7314
 20
13.8977
 30
0.0
 10
-21.5032
 20
13.5818
 30
0.0
 10
-21.5032
 20
13.5818
 30
0.0
 10
-21.5032
 20
13.5818
 30
0.0
 10
-21.5032
 20
13.5818
 30
0.0
 10
-21.6103
 20
13.4746
 30
0.0
 10
-21.6103
 20
13.4746
 30
0.0
  0
SPLINE
  5
73
330
1F
100
AcDbEntity
  8
VRSTVA_1
 62
   250
100
AcDbSpline
210
0.0
220
0.0
230
1.0
 70
    11
 71
     3
 72
    28
 73
    24
 74
     0
 42
0.0000000001
 43
0.0000000001
 40
0.0
 40
0.0
 40
0.0
 40
0.0
 40
0.1428571428571428
 40
0.1428571428571428
 40
0.1428571428571428
 40
0.1428571428571428
 40
0.2857142857142857
 40
0.2857142857142857
 40
0.2857142857142857
 40
0.2857142857142857
 40
0.4285714285714285
 40
0.4285714285714285
 40
0.4285714285714285
 40
0.4285714285714285
 40
0.5714285714285714
 40
0.5714285714285714
 40
0.5714285714285714
 40
0.5714285714285714
 40
0.7142857142857143
 40
0.7142857142857143
 40
0.7142857142857143
 40
0.7142857142857143
 40
1.0
 40
1.0
 40
1.0
 40
1.0
 10
-21.2877
 20
13.7973
 30
0.0
 10
-21.2877
 20
13.7973
 30
0.0
 10
-21.6076
 20
14.0215
 30
0.0
 10
-21.6076
 20
14.0215
 30
0.0
 10
-21.6076
 20
14.0215
 30
0.0
 10
-21.6076
 20
14.0215
 30
0.0
 10
-21.8414
 20
14.2553
 30
0.0
 10
-21.8414
 20
14.2553
 30
0.0
 10
-21.8414
 20
14.2553
 30
0.0
 10
-21.8414
 20
14.2553
 30
0.0
 10
-21.6415
 20
14.4552
 30
0.0
 10
-21.6415
 20
14.4552
 30
0.0
 10
-21.6415
 20
14.4552
 30
0.0
 10
-21.6415
 20
14.4552
 30
0.0
 10
-21.4077
 20
14.2214
 30
0.0
 10
-21.4077
 20
14.2214
 30
0.0
 10
-21.4077
 20
14.2214
 30
0.0
 10
-21.4077
 20
14.2214
 30
0.0
 10
-21.1825
 20
13.9024
 30
0.0
 10
-21.1825
 20
13.9024
 30
0.0
 10
-21.1825
 20
13.9024
 30
0.0
 10
-21.1825
 20
13.9024
 30
0.0
 10
-21.2877
 20
13.7973
 30
0.0
 10
-21.2877
 20
13.7973
 30
0.0
  0
SPLINE
  5
74
330
1F
100
AcDbEntity
  8
VRSTVA_1
 62
   250
100
AcDbSpline
210
0.0
220
0.0
230
1.0
 70
    24
 71
     3
 72
     8
 73
     4
 74
     0
 42
0.0000000001
 43
0.0000000001
 40
0.0
 40
0.0
 40
0.0
 40
0.0
 40
1.0
 40
1.0
 40
1.0
 40
1.0
 10
-14.0057
 20
18.3579
 30
0.0
 10
-14.0057
 20
18.3579
 30
0.0
 10
-31.7703
 20
0.5934
 30
0.0
 10
-31.7703
 20
0.5934
 30
0.0
  0
SPLINE
  5
75
330
1F
100
AcDbEntity
  8
VRSTVA_1
 62
   250
100
AcDbSpline
210
0.0
220
0.0
230
1.0
 70
    11
 71
     3
 72
    20
 73
    16
 74
     0
 42
0.0000000001
 43
0.0000000001
 40
0.0
 40
0.0
 40
0.0
 40
0.0
 40
0.2
 40
0.2
 40
0.2
 40
0.2
 40
0.4
 40
0.4
 40
0.4
 40
0.4
 40
0.6
 40
0.6
 40
0.6
 40
0.6
 40
1.0
 40
1.0
 40
1.0
 40
1.0
 10
-14.8804
 20
16.8099
 30
0.0
 10
-14.8804
 20
16.8099
 30
0.0
 10
-17.2942
 20
14.9931
 30
0.0
 10
-17.2942
 20
14.9931
 30
0.0
 10
-17.2942
 20
14.9931
 30
0.0
 10
-17.2942
 20
14.9931
 30
0.0
 10
-17.3605
 20
15.0594
 30
0.0
 10
-17.3605
 20
15.0594
 30
0.0
 10
-17.3605
 20
15.0594
 30
0.0
 10
-17.3605
 20
15.0594
 30
0.0
 10
-15.5636
 20
17.4931
 30
0.0
 10
-15.5636
 20
17.4931
 30
0.0
 10
-15.5636
 20
17.4931
 30
0.0
 10
-15.5636
 20
17.4931
 30
0.0
 10
-14.8804
 20
16.8099
 30
0.0
 10
-14.8804
 20
16.8099
 30
0.0
  0
SPLINE
  5
76
330
1F
100
AcDbEntity
  8
VRSTVA_1
 62
   250
100
AcDbSpline
210
0.0
220
0.0
230
1.0
 70
    11
 71
     3
 72
    20
 73
    16
 74
     0
 42
0.0000000001
 43
0.0000000001
 40
0.0
 40
0.0
 40
0.0
 40
0.0
 40
0.2
 40
0.2
 40
0.2
 40
0.2
 40
0.4
 40
0.4
 40
0.4
 40
0.4
 40
0.6
 40
0.6
 40
0.6
 40
0.6
 40
1.0
 40
1.0
 40
1.0
 40
1.0
 10
-31.2676
 20
1.7692
 30
0.0
 10
-31.2676
 20
1.7692
 30
0.0
 10
-28.8538
 20
3.586
 30
0.0
 10
-28.8538
 20
3.586
 30
0.0
 10
-28.8538
 20
3.586
 30
0.0
 10
-28.8538
 20
3.586
 30
0.0
 10
-28.7875
 20
3.5196
 30
0.0
 10
-28.7875
 20
3.5196
 30
0.0
 10
-28.7875
 20
3.5196
 30
0.0
 10
-28.7875
 20
3.5196
 30
0.0
 10
-30.5844
 20
1.0859
 30
0.0
 10
-30.5844
 20
1.0859
 30
0.0
 10
-30.5844
 20
1.0859
 30
0.0
 10
-30.5844
 20
1.0859
 30
0.0
 10
-31.2676
 20
1.7692
 30
0.0
 10
-31.2676
 20
1.7692
 30
0.0
  0
SPLINE
  5
77
330
1F
100
AcDbEntity
  8
VRSTVA_1
  6
NEW_LINE3
 62
   250
100
AcDbSpline
210
0.0
220
0.0
230
1.0
 70
    24
 71
     3
 72
     8
 73
     4
 74
     0
 42
0.0000000001
 43
0.0000000001
 40
0.0
 40
0.0
 40
0.0
 40
0.0
 40
1.0
 40
1.0
 40
1.0
 40
1.0
 10
-17.8158
 20
15.3465
 30
0.0
 10
-17.8158
 20
15.3465
 30
0.0
 10
-13.8692
 20
11.3999
 30
0.0
 10
-13.8692
 20
11.3999
 30
0.0
  0
SPLINE
  5
79
330
1F
100
AcDbEntity
  8
VRSTVA_1
  6
NEW_LINE4
 62
   250
100
AcDbSpline
210
0.0
220
0.0
230
1.0
 70
    24
 71
     3
 72
     8
 73
     4
 74
     0
 42
0.0000000001
 43
0.0000000001
 40
0.0
 40
0.0
 40
0.0
 40
0.0
 40
1.0
 40
1.0
 40
1.0
 40
1.0
 10
-29.2158
 20
3.8965
 30
0.0
 10
-29.2158
 20
3.8965
 30
0.0
 10
-27.4233
 20
2.104
 30
0.0
 10
-27.4233
 20
2.104
 30
0.0
  0
SPLINE
  5
7B
330
1F
100
AcDbEntity
  8
VRSTVA_1
  6
NEW_LINE5
 62
   250
100
AcDbSpline
210
0.0
220
0.0
230
1.0
 70
    24
 71
     3
 72
     8
 73
     4
 74
     0
 42
0.0000000001
 43
0.0000000001
 40
0.0
 40
0.0
 40
0.0
 40
0.0
 40
1.0
 40
1.0
 40
1.0
 40
1.0
 10
-28.0395
 20
-4.3313
 30
0.0
 10
-28.0395
 20
-4.3313
 30
0.0
 10
-10.5768
 20
-4.3313
 30
0.0
 10
-10.5768
 20
-4.3313
 30
0.0
  0
SPLINE
  5
7D
330
1F
100
AcDbEntity
  8
VRSTVA_1
 62
   250
100
AcDbSpline
210
0.0
220
0.0
230
1.0
 70
    11
 71
     3
 72
    48
 73
    44
 74
     0
 42
0.0000000001
 43
0.0000000001
 40
0.0
 40
0.0
 40
0.0
 40
0.0
 40
0.0833333333333333
 40
0.0833333333333333
 40
0.0833333333333333
 40
0.0833333333333333
 40
0.1666666666666667
 40
0.1666666666666667
 40
0.1666666666666667
 40
0.1666666666666667
 40
0.25
 40
0.25
 40
0.25
 40
0.25
 40
0.3333333333333333
 40
0.3333333333333333
 40
0.3333333333333333
 40
0.3333333333333333
 40
0.4166666666666667
 40
0.4166666666666667
 40
0.4166666666666667
 40
0.4166666666666667
 40
0.5
 40
0.5
 40
0.5
 40
0.5
 40
0.5833333333333334
 40
0.5833333333333334
 40
0.5833333333333334
 40
0.5833333333333334
 40
0.6666666666666666
 40
0.6666666666666666
 40
0.6666666666666666
 40
0.6666666666666666
 40
0.75
 40
0.75
 40
0.75
 40
0.75
 40
0.8333333333333334
 40
0.8333333333333334
 40
0.8333333333333334
 40
0.8333333333333334
 40
1.0
 40
1.0
 40
1.0
 40
1.0
 10
-25.3314
 20
1.2991
 30
0.0
 10
-25.3314
 20
1.2991
 30
0.0
 10
-25.7077
 20
1.6029
 30
0.0
 10
-25.7077
 20
1.6029
 30
0.0
 10
-25.7077
 20
1.6029
 30
0.0
 10
-25.7077
 20
1.6029
 30
0.0
 10
-26.2582
 20
0.9211
 30
0.0
 10
-26.2582
 20
0.9211
 30
0.0
 10
-26.2582
 20
0.9211
 30
0.0
 10
-26.2582
 20
0.9211
 30
0.0
 10
-26.4353
 20
1.0641
 30
0.0
 10
-26.4353
 20
1.0641
 30
0.0
 10
-26.4353
 20
1.0641
 30
0.0
 10
-26.4353
 20
1.0641
 30
0.0
 10
-26.8746
 20
2.6038
 30
0.0
 10
-26.8746
 20
2.6038
 30
0.0
 10
-26.8746
 20
2.6038
 30
0.0
 10
-26.8746
 20
2.6038
 30
0.0
 10
-26.7473
 20
2.7615
 30
0.0
 10
-26.7473
 20
2.7615
 30
0.0
 10
-26.7473
 20
2.7615
 30
0.0
 10
-26.7473
 20
2.7615
 30
0.0
 10
-25.7288
 20
1.9391
 30
0.0
 10
-25.7288
 20
1.9391
 30
0.0
 10
-25.7288
 20
1.9391
 30
0.0
 10
-25.7288
 20
1.9391
 30
0.0
 10
-25.5574
 20
2.1514
 30
0.0
 10
-25.5574
 20
2.1514
 30
0.0
 10
-25.5574
 20
2.1514
 30
0.0
 10
-25.5574
 20
2.1514
 30
0.0
 10
-25.3803
 20
2.0084
 30
0.0
 10
-25.3803
 20
2.0084
 30
0.0
 10
-25.3803
 20
2.0084
 30
0.0
 10
-25.3803
 20
2.0084
 30
0.0
 10
-25.5517
 20
1.7961
 30
0.0
 10
-25.5517
 20
1.7961
 30
0.0
 10
-25.5517
 20
1.7961
 30
0.0
 10
-25.5517
 20
1.7961
 30
0.0
 10
-25.1754
 20
1.4924
 30
0.0
 10
-25.1754
 20
1.4924
 30
0.0
 10
-25.1754
 20
1.4924
 30
0.0
 10
-25.1754
 20
1.4924
 30
0.0
 10
-25.3314
 20
1.2991
 30
0.0
 10
-25.3314
 20
1.2991
 30
0.0
  0
SPLINE
  5
7E
330
1F
100
AcDbEntity
  8
VRSTVA_1
 62
   250
100
AcDbSpline
210
0.0
220
0.0
230
1.0
 70
    11
 71
     3
 72
    16
 73
    12
 74
     0
 42
0.0000000001
 43
0.0000000001
 40
0.0
 40
0.0
 40
0.0
 40
0.0
 40
0.25
 40
0.25
 40
0.25
 40
0.25
 40
0.5
 40
0.5
 40
0.5
 40
0.5
 40
1.0
 40
1.0
 40
1.0
 40
1.0
 10
-25.8848
 20
1.7459
 30
0.0
 10
-25.8848
 20
1.7459
 30
0.0
 10
-26.5933
 20
2.318
 30
0.0
 10
-26.5933
 20
2.318
 30
0.0
 10
-26.5933
 20
2.318
 30
0.0
 10
-26.5933
 20
2.318
 30
0.0
 10
-26.2819
 20
1.2541
 30
0.0
 10
-26.2819
 20
1.2541
 30
0.0
 10
-26.2819
 20
1.2541
 30
0.0
 10
-26.2819
 20
1.2541
 30
0.0
 10
-25.8848
 20
1.7459
 30
0.0
 10
-25.8848
 20
1.7459
 30
0.0
  0
SPLINE
  5
7F
330
1F
100
AcDbEntity
  8
VRSTVA_1
 62
   250
100
AcDbSpline
210
0.0
220
0.0
230
1.0
 70
    11
 71
     3
 72
    92
 73
    88
 74
     0
 42
0.0000000001
 43
0.0000000001
 40
0.0
 40
0.0
 40
0.0
 40
0.0
 40
0.0434782608695652
 40
0.0434782608695652
 40
0.0434782608695652
 40
0.0434782608695652
 40
0.0869565217391304
 40
0.0869565217391304
 40
0.0869565217391304
 40
0.0869565217391304
 40
0.1304347826086956
 40
0.1304347826086956
 40
0.1304347826086956
 40
0.1304347826086956
 40
0.1739130434782609
 40
0.1739130434782609
 40
0.1739130434782609
 40
0.1739130434782609
 40
0.2173913043478261
 40
0.2173913043478261
 40
0.2173913043478261
 40
0.2173913043478261
 40
0.2608695652173913
 40
0.2608695652173913
 40
0.2608695652173913
 40
0.2608695652173913
 40
0.3043478260869565
 40
0.3043478260869565
 40
0.3043478260869565
 40
0.3043478260869565
 40
0.3478260869565217
 40
0.3478260869565217
 40
0.3478260869565217
 40
0.3478260869565217
 40
0.391304347826087
 40
0.391304347826087
 40
0.391304347826087
 40
0.391304347826087
 40
0.4347826086956522
 40
0.4347826086956522
 40
0.4347826086956522
 40
0.4347826086956522
 40
0.4782608695652174
 40
0.4782608695652174
 40
0.4782608695652174
 40
0.4782608695652174
 40
0.5217391304347826
 40
0.5217391304347826
 40
0.5217391304347826
 40
0.5217391304347826
 40
0.5652173913043478
 40
0.5652173913043478
 40
0.5652173913043478
 40
0.5652173913043478
 40
0.6086956521739131
 40
0.6086956521739131
 40
0.6086956521739131
 40
0.6086956521739131
 40
0.6521739130434783
 40
0.6521739130434783
 40
0.6521739130434783
 40
0.6521739130434783
 40
0.6956521739130435
 40
0.6956521739130435
 40
0.6956521739130435
 40
0.6956521739130435
 40
0.7391304347826086
 40
0.7391304347826086
 40
0.7391304347826086
 40
0.7391304347826086
 40
0.782608695652174
 40
0.782608695652174
 40
0.782608695652174
 40
0.782608695652174
 40
0.8260869565217391
 40
0.8260869565217391
 40
0.8260869565217391
 40
0.8260869565217391
 40
0.8695652173913043
 40
0.8695652173913043
 40
0.8695652173913043
 40
0.8695652173913043
 40
0.9130434782608695
 40
0.9130434782608695
 40
0.9130434782608695
 40
0.9130434782608695
 40
1.0
 40
1.0
 40
1.0
 40
1.0
 10
-25.2565
 20
2.2343
 30
0.0
 10
-25.2565
 20
2.2343
 30
0.0
 10
-25.11
 20
2.451
 30
0.0
 10
-25.11
 20
2.451
 30
0.0
 10
-25.11
 20
2.451
 30
0.0
 10
-24.999
 20
2.3862
 30
0.0
 10
-24.897
 20
2.3612
 30
0.0
 10
-24.8032
 20
2.3756
 30
0.0
 10
-24.8032
 20
2.3756
 30
0.0
 10
-24.7091
 20
2.3903
 30
0.0
 10
-24.6311
 20
2.4361
 30
0.0
 10
-24.5687
 20
2.5133
 30
0.0
 10
-24.5687
 20
2.5133
 30
0.0
 10
-24.4937
 20
2.6063
 30
0.0
 10
-24.4653
 20
2.7133
 30
0.0
 10
-24.4835
 20
2.8338
 30
0.0
 10
-24.4835
 20
2.8338
 30
0.0
 10
-24.5017
 20
2.9549
 30
0.0
 10
-24.5687
 20
3.0622
 30
0.0
 10
-24.6843
 20
3.1556
 30
0.0
 10
-24.6843
 20
3.1556
 30
0.0
 10
-24.7945
 20
3.2445
 30
0.0
 10
-24.906
 20
3.2838
 30
0.0
 10
-25.0196
 20
3.2734
 30
0.0
 10
-25.0196
 20
3.2734
 30
0.0
 10
-25.1333
 20
3.263
 30
0.0
 10
-25.2304
 20
3.2078
 30
0.0
 10
-25.3114
 20
3.1075
 30
0.0
 10
-25.3114
 20
3.1075
 30
0.0
 10
-25.3616
 20
3.0453
 30
0.0
 10
-25.3925
 20
2.9778
 30
0.0
 10
-25.4049
 20
2.9049
 30
0.0
 10
-25.4049
 20
2.9049
 30
0.0
 10
-25.4172
 20
2.832
 30
0.0
 10
-25.4122
 20
2.7633
 30
0.0
 10
-25.3902
 20
2.6984
 30
0.0
 10
-25.3902
 20
2.6984
 30
0.0
 10
-25.3902
 20
2.6984
 30
0.0
 10
-25.5599
 20
2.5361
 30
0.0
 10
-25.5599
 20
2.5361
 30
0.0
 10
-25.5599
 20
2.5361
 30
0.0
 10
-25.5599
 20
2.5361
 30
0.0
 10
-26.2443
 20
3.3403
 30
0.0
 10
-26.2443
 20
3.3403
 30
0.0
 10
-26.2443
 20
3.3403
 30
0.0
 10
-26.2443
 20
3.3403
 30
0.0
 10
-25.6131
 20
4.122
 30
0.0
 10
-25.6131
 20
4.122
 30
0.0
 10
-25.6131
 20
4.122
 30
0.0
 10
-25.6131
 20
4.122
 30
0.0
 10
-25.4287
 20
3.973
 30
0.0
 10
-25.4287
 20
3.973
 30
0.0
 10
-25.4287
 20
3.973
 30
0.0
 10
-25.4287
 20
3.973
 30
0.0
 10
-25.9352
 20
3.3458
 30
0.0
 10
-25.9352
 20
3.3458
 30
0.0
 10
-25.9352
 20
3.3458
 30
0.0
 10
-25.9352
 20
3.3458
 30
0.0
 10
-25.5814
 20
2.9199
 30
0.0
 10
-25.5814
 20
2.9199
 30
0.0
 10
-25.5814
 20
2.9199
 30
0.0
 10
-25.571
 20
3.0675
 30
0.0
 10
-25.5239
 20
3.1932
 30
0.0
 10
-25.4402
 20
3.2968
 30
0.0
 10
-25.4402
 20
3.2968
 30
0.0
 10
-25.3294
 20
3.4341
 30
0.0
 10
-25.1885
 20
3.5113
 30
0.0
 10
-25.0171
 20
3.5289
 30
0.0
 10
-25.0171
 20
3.5289
 30
0.0
 10
-24.8457
 20
3.5465
 30
0.0
 10
-24.6853
 20
3.495
 30
0.0
 10
-24.536
 20
3.3744
 30
0.0
 10
-24.536
 20
3.3744
 30
0.0
 10
-24.3937
 20
3.2595
 30
0.0
 10
-24.3044
 20
3.1185
 30
0.0
 10
-24.2676
 20
2.9521
 30
0.0
 10
-24.2676
 20
2.9521
 30
0.0
 10
-24.2222
 20
2.7486
 30
0.0
 10
-24.2696
 20
2.5595
 30
0.0
 10
-24.4103
 20
2.3854
 30
0.0
 10
-24.4103
 20
2.3854
 30
0.0
 10
-24.5258
 20
2.2423
 30
0.0
 10
-24.6599
 20
2.1577
 30
0.0
 10
-24.8131
 20
2.132
 30
0.0
 10
-24.8131
 20
2.132
 30
0.0
 10
-24.9662
 20
2.1064
 30
0.0
 10
-25.114
 20
2.1405
 30
0.0
 10
-25.2565
 20
2.2343
 30
0.0
  0
SPLINE
  5
80
330
1F
100
AcDbEntity
  8
VRSTVA_1
 62
   250
100
AcDbSpline
210
0.0
220
0.0
230
1.0
 70
    11
 71
     3
 72
    36
 73
    32
 74
     0
 42
0.0000000001
 43
0.0000000001
 40
0.0
 40
0.0
 40
0.0
 40
0.0
 40
0.1111111111111111
 40
0.1111111111111111
 40
0.1111111111111111
 40
0.1111111111111111
 40
0.2222222222222222
 40
0.2222222222222222
 40
0.2222222222222222
 40
0.2222222222222222
 40
0.3333333333333333
 40
0.3333333333333333
 40
0.3333333333333333
 40
0.3333333333333333
 40
0.4444444444444444
 40
0.4444444444444444
 40
0.4444444444444444
 40
0.4444444444444444
 40
0.5555555555555556
 40
0.5555555555555556
 40
0.5555555555555556
 40
0.5555555555555556
 40
0.6666666666666666
 40
0.6666666666666666
 40
0.6666666666666666
 40
0.6666666666666666
 40
0.7777777777777778
 40
0.7777777777777778
 40
0.7777777777777778
 40
0.7777777777777778
 40
1.0
 40
1.0
 40
1.0
 40
1.0
 10
-25.1232
 20
4.2203
 30
0.0
 10
-25.2052
 20
4.2865
 30
0.0
 10
-25.2518
 20
4.3725
 30
0.0
 10
-25.2626
 20
4.4774
 30
0.0
 10
-25.2626
 20
4.4774
 30
0.0
 10
-25.2735
 20
4.5823
 30
0.0
 10
-25.246
 20
4.6755
 30
0.0
 10
-25.1801
 20
4.7571
 30
0.0
 10
-25.1801
 20
4.7571
 30
0.0
 10
-25.1133
 20
4.8399
 30
0.0
 10
-25.0276
 20
4.8868
 30
0.0
 10
-24.9228
 20
4.8983
 30
0.0
 10
-24.9228
 20
4.8983
 30
0.0
 10
-24.8183
 20
4.9094
 30
0.0
 10
-24.7247
 20
4.8816
 30
0.0
 10
-24.6427
 20
4.8154
 30
0.0
 10
-24.6427
 20
4.8154
 30
0.0
 10
-24.5604
 20
4.7489
 30
0.0
 10
-24.5138
 20
4.6629
 30
0.0
 10
-24.5025
 20
4.5577
 30
0.0
 10
-24.5025
 20
4.5577
 30
0.0
 10
-24.4913
 20
4.4525
 30
0.0
 10
-24.5188
 20
4.3586
 30
0.0
 10
-24.585
 20
4.2767
 30
0.0
 10
-24.585
 20
4.2767
 30
0.0
 10
-24.6509
 20
4.1951
 30
0.0
 10
-24.7362
 20
4.1485
 30
0.0
 10
-24.841
 20
4.137
 30
0.0
 10
-24.841
 20
4.137
 30
0.0
 10
-24.9462
 20
4.1258
 30
0.0
 10
-25.0401
 20
4.1532
 30
0.0
 10
-25.1232
 20
4.2203
 30
0.0
  0
SPLINE
  5
81
330
1F
100
AcDbEntity
  8
VRSTVA_1
 62
   250
100
AcDbSpline
210
0.0
220
0.0
230
1.0
 70
    11
 71
     3
 72
    36
 73
    32
 74
     0
 42
0.0000000001
 43
0.0000000001
 40
0.0
 40
0.0
 40
0.0
 40
0.0
 40
0.1111111111111111
 40
0.1111111111111111
 40
0.1111111111111111
 40
0.1111111111111111
 40
0.2222222222222222
 40
0.2222222222222222
 40
0.2222222222222222
 40
0.2222222222222222
 40
0.3333333333333333
 40
0.3333333333333333
 40
0.3333333333333333
 40
0.3333333333333333
 40
0.4444444444444444
 40
0.4444444444444444
 40
0.4444444444444444
 40
0.4444444444444444
 40
0.5555555555555556
 40
0.5555555555555556
 40
0.5555555555555556
 40
0.5555555555555556
 40
0.6666666666666666
 40
0.6666666666666666
 40
0.6666666666666666
 40
0.6666666666666666
 40
0.7777777777777778
 40
0.7777777777777778
 40
0.7777777777777778
 40
0.7777777777777778
 40
1.0
 40
1.0
 40
1.0
 40
1.0
 10
-25.0289
 20
4.3371
 30
0.0
 10
-24.9788
 20
4.2966
 30
0.0
 10
-24.9215
 20
4.2799
 30
0.0
 10
-24.858
 20
4.2867
 30
0.0
 10
-24.858
 20
4.2867
 30
0.0
 10
-24.7938
 20
4.2936
 30
0.0
 10
-24.7417
 20
4.3222
 30
0.0
 10
-24.7015
 20
4.372
 30
0.0
 10
-24.7015
 20
4.372
 30
0.0
 10
-24.6616
 20
4.4214
 30
0.0
 10
-24.6449
 20
4.478
 30
0.0
 10
-24.6517
 20
4.5422
 30
0.0
 10
-24.6517
 20
4.5422
 30
0.0
 10
-24.6585
 20
4.6057
 30
0.0
 10
-24.6869
 20
4.6582
 30
0.0
 10
-24.737
 20
4.6986
 30
0.0
 10
-24.737
 20
4.6986
 30
0.0
 10
-24.7868
 20
4.7388
 30
0.0
 10
-24.8441
 20
4.7555
 30
0.0
 10
-24.9079
 20
4.749
 30
0.0
 10
-24.9079
 20
4.749
 30
0.0
 10
-24.9717
 20
4.7419
 30
0.0
 10
-25.0239
 20
4.7139
 30
0.0
 10
-25.0638
 20
4.6645
 30
0.0
 10
-25.0638
 20
4.6645
 30
0.0
 10
-25.104
 20
4.6147
 30
0.0
 10
-25.1207
 20
4.5574
 30
0.0
 10
-25.1142
 20
4.4936
 30
0.0
 10
-25.1142
 20
4.4936
 30
0.0
 10
-25.107
 20
4.4298
 30
0.0
 10
-25.0787
 20
4.3773
 30
0.0
 10
-25.0289
 20
4.3371
 30
0.0
  0
SPLINE
  5
82
330
1F
100
AcDbEntity
  8
VRSTVA_1
 62
   250
100
AcDbSpline
210
0.0
220
0.0
230
1.0
 70
    11
 71
     3
 72
    20
 73
    16
 74
     0
 42
0.0000000001
 43
0.0000000001
 40
0.0
 40
0.0
 40
0.0
 40
0.0
 40
0.2
 40
0.2
 40
0.2
 40
0.2
 40
0.4
 40
0.4
 40
0.4
 40
0.4
 40
0.6
 40
0.6
 40
0.6
 40
0.6
 40
1.0
 40
1.0
 40
1.0
 40
1.0
 10
-26.8324
 20
-0.9472
 30
0.0
 10
-26.8324
 20
-0.9472
 30
0.0
 10
-27.2734
 20
-4.0722
 30
0.0
 10
-27.2734
 20
-4.0722
 30
0.0
 10
-27.2734
 20
-4.0722
 30
0.0
 10
-27.2734
 20
-4.0722
 30
0.0
 10
-27.3714
 20
-4.0722
 30
0.0
 10
-27.3714
 20
-4.0722
 30
0.0
 10
-27.3714
 20
-4.0722
 30
0.0
 10
-27.3714
 20
-4.0722
 30
0.0
 10
-27.8417
 20
-0.9472
 30
0.0
 10
-27.8417
 20
-0.9472
 30
0.0
 10
-27.8417
 20
-0.9472
 30
0.0
 10
-27.8417
 20
-0.9472
 30
0.0
 10
-26.8324
 20
-0.9472
 30
0.0
 10
-26.8324
 20
-0.9472
 30
0.0
  0
SPLINE
  5
83
330
1F
100
AcDbEntity
  8
VRSTVA_1
 62
   250
100
AcDbSpline
210
0.0
220
0.0
230
1.0
 70
    11
 71
     3
 72
    20
 73
    16
 74
     0
 42
0.0000000001
 43
0.0000000001
 40
0.0
 40
0.0
 40
0.0
 40
0.0
 40
0.2
 40
0.2
 40
0.2
 40
0.2
 40
0.4
 40
0.4
 40
0.4
 40
0.4
 40
0.6
 40
0.6
 40
0.6
 40
0.6
 40
1.0
 40
1.0
 40
1.0
 40
1.0
 10
-23.9094
 20
5.6734
 30
0.0
 10
-23.9094
 20
5.6734
 30
0.0
 10
-21.3878
 20
7.5712
 30
0.0
 10
-21.3878
 20
7.5712
 30
0.0
 10
-21.3878
 20
7.5712
 30
0.0
 10
-21.3878
 20
7.5712
 30
0.0
 10
-21.3185
 20
7.502
 30
0.0
 10
-21.3185
 20
7.502
 30
0.0
 10
-21.3185
 20
7.502
 30
0.0
 10
-21.3185
 20
7.502
 30
0.0
 10
-23.1957
 20
4.9597
 30
0.0
 10
-23.1957
 20
4.9597
 30
0.0
 10
-23.1957
 20
4.9597
 30
0.0
 10
-23.1957
 20
4.9597
 30
0.0
 10
-23.9094
 20
5.6734
 30
0.0
 10
-23.9094
 20
5.6734
 30
0.0
  0
SPLINE
  5
84
330
1F
100
AcDbEntity
  8
VRSTVA_1
  6
NEW_LINE6
 62
   250
100
AcDbSpline
210
0.0
220
0.0
230
1.0
 70
    24
 71
     3
 72
     8
 73
     4
 74
     0
 42
0.0000000001
 43
0.0000000001
 40
0.0
 40
0.0
 40
0.0
 40
0.0
 40
1.0
 40
1.0
 40
1.0
 40
1.0
 10
-25.9216
 20
0.6023
 30
0.0
 10
-25.9216
 20
0.6023
 30
0.0
 10
-25.0007
 20
-0.3186
 30
0.0
 10
-25.0007
 20
-0.3186
 30
0.0
  0
SPLINE
  5
86
330
1F
100
AcDbEntity
  8
VRSTVA_1
 62
   250
100
AcDbSpline
210
0.0
220
0.0
230
1.0
 70
     8
 71
     3
 72
    20
 73
    16
 74
     0
 42
0.0000000001
 43
0.0000000001
 40
0.0
 40
0.0
 40
0.0
 40
0.0
 40
0.2
 40
0.2
 40
0.2
 40
0.2
 40
0.4
 40
0.4
 40
0.4
 40
0.4
 40
0.6
 40
0.6
 40
0.6
 40
0.6
 40
1.0
 40
1.0
 40
1.0
 40
1.0
 10
-27.3381
 20
-3.7967
 30
0.0
 10
-27.3381
 20
-3.7967
 30
0.0
 10
-27.3359
 20
-1.223
 30
0.0
 10
-27.3359
 20
-1.223
 30
0.0
 10
-27.3359
 20
-1.223
 30
0.0
 10
-27.3359
 20
-1.223
 30
0.0
 10
-27.2529
 20
-0.6036
 30
0.0
 10
-27.2529
 20
-0.6036
 30
0.0
 10
-27.2529
 20
-0.6036
 30
0.0
 10
-27.2529
 20
-0.6036
 30
0.0
 10
-27.0759
 20
-0.0583
 30
0.0
 10
-27.0759
 20
-0.0583
 30
0.0
 10
-27.0759
 20
-0.0583
 30
0.0
 10
-27.0759
 20
-0.0583
 30
0.0
 10
-26.8005
 20
0.4685
 30
0.0
 10
-26.8005
 20
0.4685
 30
0.0
  0
SPLINE
  5
87
330
1F
100
AcDbEntity
  8
VRSTVA_1
 62
   250
100
AcDbSpline
210
0.0
220
0.0
230
1.0
 70
    24
 71
     3
 72
     8
 73
     4
 74
     0
 42
0.0000000001
 43
0.0000000001
 40
0.0
 40
0.0
 40
0.0
 40
0.0
 40
1.0
 40
1.0
 40
1.0
 40
1.0
 10
-22.3797
 20
6.5295
 30
0.0
 10
-22.3797
 20
6.5295
 30
0.0
 10
-24.1719
 20
4.5091
 30
0.0
 10
-24.1719
 20
4.5091
 30
0.0
  0
ENDSEC
  0
SECTION
  2
OBJECTS
  0
DICTIONARY
  5
C
330
0
100
AcDbDictionary
  3
ACAD_GROUP
350
D
  3
ACAD_LAYOUT
350
1A
  3
ACAD_MATERIAL
350
3B
  3
ACAD_MLEADERSTYLE
350
AA
  3
ACAD_MLINESTYLE
350
17
  3
ACAD_PLOTSETTINGS
350
19
  3
ACAD_VISUALSTYLE
350
2A
  3
ACDBHEADERROUNDTRIPXREC
350
88
  3
ACDBVARIABLEDICTIONARY
350
A8
  0
DICTIONARY
  5
D
102
{ACAD_REACTORS
330
C
102
}
330
C
100
AcDbDictionary
  0
DICTIONARY
  5
1A
102
{ACAD_REACTORS
330
C
102
}
330
C
100
AcDbDictionary
  0
DICTIONARY
  5
3B
102
{ACAD_REACTORS
330
C
102
}
330
C
100
AcDbDictionary
  3
BYBLOCK
350
3D
  3
BYLAYER
350
3C
  3
GLOBAL
350
3E
  0
DICTIONARY
  5
AA
102
{ACAD_REACTORS
330
C
102
}
330
C
100
AcDbDictionary
  0
DICTIONARY
  5
17
102
{ACAD_REACTORS
330
C
102
}
330
C
100
AcDbDictionary
  3
STANDARD
350
18
  0
DICTIONARY
  5
19
102
{ACAD_REACTORS
330
C
102
}
330
C
100
AcDbDictionary
  0
DICTIONARY
  5
2A
102
{ACAD_REACTORS
330
C
102
}
330
C
100
AcDbDictionary
  3
2DWIREFRAME
350
2F
  3
3D_HIDDEN
350
31
  3
3DWIREFRAME
350
30
  3
BASIC
350
32
  3
BRIGHTEN
350
36
  3
COLORCHANGE
350
3A
  3
CONCEPTUAL
350
34
  3
DIM
350
35
  3
FACEPATTERN
350
39
  3
FLAT
350
2B
  3
FLATWITHEDGES
350
2C
  3
GOURAUD
350
2D
  3
GOURAUDWITHEDGES
350
2E
  3
LINEPATTERN
350
38
  3
REALISTIC
350
33
  3
THICKEN
350
37
  0
DICTIONARY
  5
88
102
{ACAD_REACTORS
330
C
102
}
330
C
100
AcDbDictionary
  3
CEPSNTYPE
350
91
  3
DIMSTYLEDATA
350
A7
  3
FINGERPRINTGUID
350
92
  3
HYPERLINKBASE
350
8B
  3
INSUNITS
350
90
  3
LAYOUTDICT
350
8D
  3
LWETCUNION
350
8F
  3
PLOTSETDICT
350
8E
  3
PSVPSCALE
350
94
  3
PUCSBASE
350
97
  3
PUCSORGBACK
350
9D
  3
PUCSORGBOTTOM
350
99
  3
PUCSORGFRONT
350
9C
  3
PUCSORGLEFT
350
9A
  3
PUCSORGRIGHT
350
9B
  3
PUCSORGTOP
350
98
  3
PUCSORTHOREF
350
95
  3
PUCSORTHOVIEW
350
96
  3
STYLESHEET
350
8C
  3
TSTACKALIGN
350
89
  3
TSTACKSIZE
350
8A
  3
UCSBASE
350
A0
  3
UCSORGBACK
350
A6
  3
UCSORGBOTTOM
350
A2
  3
UCSORGFRONT
350
A5
  3
UCSORGLEFT
350
A3
  3
UCSORGRIGHT
350
A4
  3
UCSORGTOP
350
A1
  3
UCSORTHOREF
350
9E
  3
UCSORTHOVIEW
350
9F
  3
VERSIONGUID
350
93
  0
DICTIONARY
  5
A8
102
{ACAD_REACTORS
330
C
102
}
330
C
100
AcDbDictionary
  3
DIMASSOC
350
AB
  3
HIDETEXT
350
AC
  0
MATERIAL
  5
3D
102
{ACAD_REACTORS
330
3B
102
}
102
{ACAD_XDICTIONARY
360
AF
102
}
330
3B
100
AcDbMaterial
  1
ByBlock
  0
MATERIAL
  5
3C
102
{ACAD_REACTORS
330
3B
102
}
102
{ACAD_XDICTIONARY
360
AD
102
}
330
3B
100
AcDbMaterial
  1
ByLayer
  0
MATERIAL
  5
3E
102
{ACAD_REACTORS
330
3B
102
}
102
{ACAD_XDICTIONARY
360
B1
102
}
330
3B
100
AcDbMaterial
  1
Global
  0
MLINESTYLE
  5
18
102
{ACAD_REACTORS
330
17
102
}
330
17
100
AcDbMlineStyle
  2
Standard
 70
     0
  3

 62
   256
 51
90.0
 52
90.0
 71
     2
 49
0.5
 62
   256
  6
BYLAYER
 49
-0.5
 62
   256
  6
BYLAYER
  0
ACAD_PROXY_OBJECT
  5
2F
102
{ACAD_REACTORS
330
2A
102
}
330
2A
100
AcDbProxyObject
 90
      499
 91
      501
 93
      436
310
42CC9915DA5C99599C985B595049028333333333333E3BF0000000000000FB0107901411070040501600405405064090741402480A0340
1001
ACAD
1000
AcDbSavedByObjectVersion
1070
     0
  0
ACAD_PROXY_OBJECT
  5
31
102
{ACAD_REACTORS
330
2A
102
}
330
2A
100
AcDbProxyObject
 90
      499
 91
      501
 93
      500
310
424CD108121A5919195B90640502408333333333333E3BF0000000000000FB01079024090700405020000000000001110200405405064090740C02480A0340
1001
ACAD
1000
AcDbSavedByObjectVersion
1070
     0
  0
ACAD_PROXY_OBJECT
  5
30
102
{ACAD_REACTORS
330
2A
102
}
330
2A
100
AcDbProxyObject
 90
      499
 91
      501
 93
      436
310
42CCD915DA5C99599C985B595059028333333333333E3BF0000000000000FB0107901411070040501600405405064090741402480A0340
1001
ACAD
1000
AcDbSavedByObjectVersion
1070
     0
  0
ACAD_PROXY_OBJECT
  5
32
102
{ACAD_REACTORS
330
2A
102
}
330
2A
100
AcDbProxyObject
 90
      499
 91
      501
 93
      388
310
4150985CDA58D07406404333333333333E3BF0000000000000FB0107A41107004050150841D405064090741402480A0350
1001
ACAD
1000
AcDbSavedByObjectVersion
1070
     0
  0
ACAD_PROXY_OBJECT
  5
36
102
{ACAD_REACTORS
330
2A
102
}
330
2A
100
AcDbProxyObject
 90
      499
 91
      501
 93
      428
310
42109C9A59DA1D195B90C409028333333333333E3BF0000000000000FB010790141107004050150841D405064090741402480A029950
1001
ACAD
1000
AcDbSavedByObjectVersion
1070
     0
  0
ACAD_PROXY_OBJECT
  5
3A
102
{ACAD_REACTORS
330
2A
102
}
330
2A
100
AcDbProxyObject
 90
      499
 91
      501
 93
      452
310
42D0DBDB1BDC90DA185B99D95104090240C333333333333E3BF0000000000000FB0108901411070040501508421405064090741402480A0350
1001
ACAD
1000
AcDbSavedByObjectVersion
1070
     0
  0
ACAD_PROXY_OBJECT
  5
34
102
{ACAD_REACTORS
330
2A
102
}
330
2A
100
AcDbProxyObject
 90
      499
 91
      501
 93
      500
310
4290DBDB98D95C1D1D585B10940D028333333333333E3BF0000000000000FB0107902409070040501000000000000111010841D405064090740C02480A0340
1001
ACAD
1000
AcDbSavedByObjectVersion
1070
     0
  0
ACAD_PROXY_OBJECT
  5
35
102
{ACAD_REACTORS
330
2A
102
}
330
2A
100
AcDbProxyObject
 90
      499
 91
      501
 93
      412
310
40D11A5B50B409028333333333333E3BF0000000000000FB010790141107004050150841D405064090741402480A02677FFFFFD0
1001
ACAD
1000
AcDbSavedByObjectVersion
1070
     0
  0
ACAD_PROXY_OBJECT
  5
39
102
{ACAD_REACTORS
330
2A
102
}
330
2A
100
AcDbProxyObject
 90
      499
 91
      501
 93
      444
310
42D19858D95C185D1D195C9B90F409028333333333333E3BF0000000000000FB010790141107004050150841D405064090741402480A0350
1001
ACAD
1000
AcDbSavedByObjectVersion
1070
     0
  0
ACAD_PROXY_OBJECT
  5
2B
102
{ACAD_REACTORS
330
2A
102
}
330
2A
100
AcDbProxyObject
 90
      499
 91
      501
 93
      388
310
41119B185D240901404333333333333E3BF0000000000000F9010740A41107004050150841D405064090741402480A1B50
1001
ACAD
1000
AcDbSavedByObjectVersion
1070
     0
  0
ACAD_PROXY_OBJECT
  5
2C
102
{ACAD_REACTORS
330
2A
102
}
330
2A
100
AcDbProxyObject
 90
      499
 91
      501
 93
      476
310
43519B185D15DA5D1A115919D95CD0140901404333333333333E3BF0000000000000F9010740901411070040501600405405064090741402480A1B50
1001
ACAD
1000
AcDbSavedByObjectVersion
1070
     0
  0
ACAD_PROXY_OBJECT
  5
2D
102
{ACAD_REACTORS
330
2A
102
}
330
2A
100
AcDbProxyObject
 90
      499
 91
      501
 93
      412
310
41D1DBDD5C985D5910240902404333333333333E3BF0000000000000F9010740A411070040501641D405064090741402480A1B50
1001
ACAD
1000
AcDbSavedByObjectVersion
1070
     0
  0
ACAD_PROXY_OBJECT
  5
2E
102
{ACAD_REACTORS
330
2A
102
}
330
2A
100
AcDbProxyObject
 90
      499
 91
      501
 93
      500
310
4411DBDD5C985D5915DA5D1A115919D95CD0340902404333333333333E3BF0000000000000F9010740901411070040501600405405064090741402480A1B50
1001
ACAD
1000
AcDbSavedByObjectVersion
1070
     0
  0
ACAD_PROXY_OBJECT
  5
38
102
{ACAD_REACTORS
330
2A
102
}
330
2A
100
AcDbProxyObject
 90
      499
 91
      501
 93
      444
310
42D31A5B995C185D1D195C9B90E409028333333333333E3BF0000000000000FB010790141107004050750841D405064090741402483A0350
1001
ACAD
1000
AcDbSavedByObjectVersion
1070
     0
  0
ACAD_PROXY_OBJECT
  5
33
102
{ACAD_REACTORS
330
2A
102
}
330
2A
100
AcDbProxyObject
 90
      499
 91
      501
 93
      420
310
425499585B1A5CDD1A58D08409028333333333333E3BF0000000000000FB01079019070040501508421405064090741402480A1B40
1001
ACAD
1000
AcDbSavedByObjectVersion
1070
     0
  0
ACAD_PROXY_OBJECT
  5
37
102
{ACAD_REACTORS
330
2A
102
}
330
2A
100
AcDbProxyObject
 90
      499
 91
      501
 93
      412
310
41D51A1A58DAD95B90D409028333333333333E3BF0000000000000FB010790141107004050150C41D405064090741402480A0350
1001
ACAD
1000
AcDbSavedByObjectVersion
1070
     0
  0
XRECORD
  5
91
102
{ACAD_REACTORS
330
88
102
}
330
88
100
AcDbXrecord
 90
        0
  0
XRECORD
  5
A7
102
{ACAD_REACTORS
330
88
102
}
330
88
100
AcDbXrecord
1000
DSTYLE
1002
{
1070
   340
340
11
1002
}
  0
XRECORD
  5
92
102
{ACAD_REACTORS
330
88
102
}
330
88
100
AcDbXrecord
  1
{C874B43A-5D00-4616-8B8A-566E8C473F57}
  0
XRECORD
  5
8B
102
{ACAD_REACTORS
330
88
102
}
330
88
100
AcDbXrecord
  1

  0
XRECORD
  5
90
102
{ACAD_REACTORS
330
88
102
}
330
88
100
AcDbXrecord
 90
        4
  0
XRECORD
  5
8D
102
{ACAD_REACTORS
330
88
102
}
330
88
100
AcDbXrecord
340
1A
  0
XRECORD
  5
8F
102
{ACAD_REACTORS
330
88
102
}
330
88
100
AcDbXrecord
 90
    10781
  0
XRECORD
  5
8E
102
{ACAD_REACTORS
330
88
102
}
330
88
100
AcDbXrecord
340
19
  0
XRECORD
  5
94
102
{ACAD_REACTORS
330
88
102
}
330
88
100
AcDbXrecord
 40
0.0
  0
XRECORD
  5
97
102
{ACAD_REACTORS
330
88
102
}
330
88
100
AcDbXrecord
340
0
  0
XRECORD
  5
9D
102
{ACAD_REACTORS
330
88
102
}
330
88
100
AcDbXrecord
 10
0.0
 20
0.0
 30
0.0
  0
XRECORD
  5
99
102
{ACAD_REACTORS
330
88
102
}
330
88
100
AcDbXrecord
 10
0.0
 20
0.0
 30
0.0
  0
XRECORD
  5
9C
102
{ACAD_REACTORS
330
88
102
}
330
88
100
AcDbXrecord
 10
0.0
 20
0.0
 30
0.0
  0
XRECORD
  5
9A
102
{ACAD_REACTORS
330
88
102
}
330
88
100
AcDbXrecord
 10
0.0
 20
0.0
 30
0.0
  0
XRECORD
  5
9B
102
{ACAD_REACTORS
330
88
102
}
330
88
100
AcDbXrecord
 10
0.0
 20
0.0
 30
0.0
  0
XRECORD
  5
98
102
{ACAD_REACTORS
330
88
102
}
330
88
100
AcDbXrecord
 10
0.0
 20
0.0
 30
0.0
  0
XRECORD
  5
95
102
{ACAD_REACTORS
330
88
102
}
330
88
100
AcDbXrecord
340
0
  0
XRECORD
  5
96
102
{ACAD_REACTORS
330
88
102
}
330
88
100
AcDbXrecord
 70
     0
  0
XRECORD
  5
8C
102
{ACAD_REACTORS
330
88
102
}
330
88
100
AcDbXrecord
  1

  0
XRECORD
  5
89
102
{ACAD_REACTORS
330
88
102
}
330
88
100
AcDbXrecord
 90
        1
  0
XRECORD
  5
8A
102
{ACAD_REACTORS
330
88
102
}
330
88
100
AcDbXrecord
 90
       70
  0
XRECORD
  5
A0
102
{ACAD_REACTORS
330
88
102
}
330
88
100
AcDbXrecord
340
0
  0
XRECORD
  5
A6
102
{ACAD_REACTORS
330
88
102
}
330
88
100
AcDbXrecord
 10
0.0
 20
0.0
 30
0.0
  0
XRECORD
  5
A2
102
{ACAD_REACTORS
330
88
102
}
330
88
100
AcDbXrecord
 10
0.0
 20
0.0
 30
0.0
  0
XRECORD
  5
A5
102
{ACAD_REACTORS
330
88
102
}
330
88
100
AcDbXrecord
 10
0.0
 20
0.0
 30
0.0
  0
XRECORD
  5
A3
102
{ACAD_REACTORS
330
88
102
}
330
88
100
AcDbXrecord
 10
0.0
 20
0.0
 30
0.0
  0
XRECORD
  5
A4
102
{ACAD_REACTORS
330
88
102
}
330
88
100
AcDbXrecord
 10
0.0
 20
0.0
 30
0.0
  0
XRECORD
  5
A1
102
{ACAD_REACTORS
330
88
102
}
330
88
100
AcDbXrecord
 10
0.0
 20
0.0
 30
0.0
  0
XRECORD
  5
9E
102
{ACAD_REACTORS
330
88
102
}
330
88
100
AcDbXrecord
340
0
  0
XRECORD
  5
9F
102
{ACAD_REACTORS
330
88
102
}
330
88
100
AcDbXrecord
 70
     0
  0
XRECORD
  5
93
102
{ACAD_REACTORS
330
88
102
}
330
88
100
AcDbXrecord
  1
{FAEB1C32-E019-11D5-929B-00C0DF256EC4}
  0
DICTIONARYVAR
  5
AB
102
{ACAD_REACTORS
330
A8
102
}
330
A8
100
DictionaryVariables
280
     0
  1
2
  0
DICTIONARYVAR
  5
AC
102
{ACAD_REACTORS
330
A8
102
}
330
A8
100
DictionaryVariables
280
     0
  1
1
  0
DICTIONARY
  5
AF
330
3D
100
AcDbDictionary
280
     1
  3
ACAD_XREC_ROUNDTRIP
360
B0
  0
DICTIONARY
  5
AD
330
3C
100
AcDbDictionary
280
     1
  3
ACAD_XREC_ROUNDTRIP
360
AE
  0
DICTIONARY
  5
B1
330
3E
100
AcDbDictionary
280
     1
  3
ACAD_XREC_ROUNDTRIP
360
B2
  0
XRECORD
  5
B0
102
{ACAD_REACTORS
330
AF
102
}
330
AF
100
AcDbXrecord
102
MATERIAL
148
0.0
149
0.0
149
0.0
 93
        0
 94
      127
282
     0
 72
     1
 77
     1
171
     1
175
     1
179
     1
273
     0
  0
XRECORD
  5
AE
102
{ACAD_REACTORS
330
AD
102
}
330
AD
100
AcDbXrecord
102
MATERIAL
148
0.0
149
0.0
149
0.0
 93
        0
 94
      127
282
     0
 72
     1
 77
     1
171
     1
175
     1
179
     1
273
     0
  0
XRECORD
  5
B2
102
{ACAD_REACTORS
330
B1
102
}
330
B1
100
AcDbXrecord
102
MATERIAL
148
0.0
149
0.0
149
0.0
 93
        0
 94
      127
282
     0
 72
     1
 77
     1
171
     1
175
     1
179
     1
273
     0
  0
ENDSEC
  0
EOF
