  0
SECTION
  2
HEADER
  9
$ACADVER
  1
AC1015
  9
$ACADMAINTVER
 70
    18
  9
$DWGCODEPAGE
  3
ANSI_1250
  9
$INSBASE
 10
0.0
 20
0.0
 30
0.0
  9
$EXTMIN
 10
82.661354
 20
129.088882
 30
0.0
  9
$EXTMAX
 10
146.864655
 20
192.660782
 30
0.0
  9
$LIMMIN
 10
0.0
 20
0.0
  9
$LIMMAX
 10
12.0
 20
9.0
  9
$ORTHOMODE
 70
     0
  9
$REGENMODE
 70
     1
  9
$FILLMODE
 70
     1
  9
$QTEXTMODE
 70
     0
  9
$MIRRTEXT
 70
     0
  9
$LTSCALE
 40
1.0
  9
$ATTMODE
 70
     1
  9
$TEXTSIZE
 40
0.2
  9
$TRACEWID
 40
0.05
  9
$TEXTSTYLE
  7
Standard
  9
$CLAYER
  8
0
  9
$CELTYPE
  6
ByLayer
  9
$CECOLOR
 62
   256
  9
$CELTSCALE
 40
1.0
  9
$DISPSILH
 70
     0
  9
$DIMSCALE
 40
1.0
  9
$DIMASZ
 40
0.18
  9
$DIMEXO
 40
0.0625
  9
$DIMDLI
 40
0.38
  9
$DIMRND
 40
0.0
  9
$DIMDLE
 40
0.0
  9
$DIMEXE
 40
0.18
  9
$DIMTP
 40
0.0
  9
$DIMTM
 40
0.0
  9
$DIMTXT
 40
0.18
  9
$DIMCEN
 40
0.09
  9
$DIMTSZ
 40
0.0
  9
$DIMTOL
 70
     0
  9
$DIMLIM
 70
     0
  9
$DIMTIH
 70
     1
  9
$DIMTOH
 70
     1
  9
$DIMSE1
 70
     0
  9
$DIMSE2
 70
     0
  9
$DIMTAD
 70
     0
  9
$DIMZIN
 70
     0
  9
$DIMBLK
  1

  9
$DIMASO
 70
     1
  9
$DIMSHO
 70
     1
  9
$DIMPOST
  1

  9
$DIMAPOST
  1

  9
$DIMALT
 70
     0
  9
$DIMALTD
 70
     2
  9
$DIMALTF
 40
25.4
  9
$DIMLFAC
 40
1.0
  9
$DIMTOFL
 70
     0
  9
$DIMTVP
 40
0.0
  9
$DIMTIX
 70
     0
  9
$DIMSOXD
 70
     0
  9
$DIMSAH
 70
     0
  9
$DIMBLK1
  1

  9
$DIMBLK2
  1

  9
$DIMSTYLE
  2
Standard
  9
$DIMCLRD
 70
     0
  9
$DIMCLRE
 70
     0
  9
$DIMCLRT
 70
     0
  9
$DIMTFAC
 40
1.0
  9
$DIMGAP
 40
0.09
  9
$DIMJUST
 70
     0
  9
$DIMSD1
 70
     0
  9
$DIMSD2
 70
     0
  9
$DIMTOLJ
 70
     1
  9
$DIMTZIN
 70
     0
  9
$DIMALTZ
 70
     0
  9
$DIMALTTZ
 70
     0
  9
$DIMUPT
 70
     0
  9
$DIMDEC
 70
     4
  9
$DIMTDEC
 70
     4
  9
$DIMALTU
 70
     2
  9
$DIMALTTD
 70
     2
  9
$DIMTXSTY
  7
Standard
  9
$DIMAUNIT
 70
     0
  9
$DIMADEC
 70
     0
  9
$DIMALTRND
 40
0.0
  9
$DIMAZIN
 70
     0
  9
$DIMDSEP
 70
    46
  9
$DIMATFIT
 70
     3
  9
$DIMFRAC
 70
     0
  9
$DIMLDRBLK
  1

  9
$DIMLUNIT
 70
     2
  9
$DIMLWD
 70
    -2
  9
$DIMLWE
 70
    -2
  9
$DIMTMOVE
 70
     0
  9
$LUNITS
 70
     2
  9
$LUPREC
 70
     4
  9
$SKETCHINC
 40
0.1
  9
$FILLETRAD
 40
0.0
  9
$AUNITS
 70
     0
  9
$AUPREC
 70
     0
  9
$MENU
  1
.
  9
$ELEVATION
 40
0.0
  9
$PELEVATION
 40
0.0
  9
$THICKNESS
 40
0.0
  9
$LIMCHECK
 70
     0
  9
$CHAMFERA
 40
0.0
  9
$CHAMFERB
 40
0.0
  9
$CHAMFERC
 40
0.0
  9
$CHAMFERD
 40
0.0
  9
$SKPOLY
 70
     0
  9
$TDCREATE
 40
2460230.554560185
  9
$TDUCREATE
 40
2460230.471226852
  9
$TDUPDATE
 40
2460230.554560185
  9
$TDUUPDATE
 40
2460230.471226852
  9
$TDINDWG
 40
0.0000000000
  9
$TDUSRTIMER
 40
0.0000000000
  9
$USRTIMER
 70
     1
  9
$ANGBASE
 50
0.0
  9
$ANGDIR
 70
     0
  9
$PDMODE
 70
     0
  9
$PDSIZE
 40
0.0
  9
$PLINEWID
 40
0.0
  9
$SPLFRAME
 70
     0
  9
$SPLINETYPE
 70
     6
  9
$SPLINESEGS
 70
     8
  9
$HANDSEED
  5
190
  9
$SURFTAB1
 70
     6
  9
$SURFTAB2
 70
     6
  9
$SURFTYPE
 70
     6
  9
$SURFU
 70
     6
  9
$SURFV
 70
     6
  9
$UCSBASE
  2

  9
$UCSNAME
  2

  9
$UCSORG
 10
0.0
 20
0.0
 30
0.0
  9
$UCSXDIR
 10
1.0
 20
0.0
 30
0.0
  9
$UCSYDIR
 10
0.0
 20
1.0
 30
0.0
  9
$UCSORTHOREF
  2

  9
$UCSORTHOVIEW
 70
     0
  9
$UCSORGTOP
 10
0.0
 20
0.0
 30
0.0
  9
$UCSORGBOTTOM
 10
0.0
 20
0.0
 30
0.0
  9
$UCSORGLEFT
 10
0.0
 20
0.0
 30
0.0
  9
$UCSORGRIGHT
 10
0.0
 20
0.0
 30
0.0
  9
$UCSORGFRONT
 10
0.0
 20
0.0
 30
0.0
  9
$UCSORGBACK
 10
0.0
 20
0.0
 30
0.0
  9
$PUCSBASE
  2

  9
$PUCSNAME
  2

  9
$PUCSORG
 10
0.0
 20
0.0
 30
0.0
  9
$PUCSXDIR
 10
1.0
 20
0.0
 30
0.0
  9
$PUCSYDIR
 10
0.0
 20
1.0
 30
0.0
  9
$PUCSORTHOREF
  2

  9
$PUCSORTHOVIEW
 70
     0
  9
$PUCSORGTOP
 10
0.0
 20
0.0
 30
0.0
  9
$PUCSORGBOTTOM
 10
0.0
 20
0.0
 30
0.0
  9
$PUCSORGLEFT
 10
0.0
 20
0.0
 30
0.0
  9
$PUCSORGRIGHT
 10
0.0
 20
0.0
 30
0.0
  9
$PUCSORGFRONT
 10
0.0
 20
0.0
 30
0.0
  9
$PUCSORGBACK
 10
0.0
 20
0.0
 30
0.0
  9
$USERI1
 70
     0
  9
$USERI2
 70
     0
  9
$USERI3
 70
     0
  9
$USERI4
 70
     0
  9
$USERI5
 70
     0
  9
$USERR1
 40
0.0
  9
$USERR2
 40
0.0
  9
$USERR3
 40
0.0
  9
$USERR4
 40
0.0
  9
$USERR5
 40
0.0
  9
$WORLDVIEW
 70
     1
  9
$SHADEDGE
 70
     3
  9
$SHADEDIF
 70
    70
  9
$TILEMODE
 70
     1
  9
$MAXACTVP
 70
    64
  9
$PINSBASE
 10
0.0
 20
0.0
 30
0.0
  9
$PLIMCHECK
 70
     0
  9
$PEXTMIN
 10
1.000000E+20
 20
1.000000E+20
 30
1.000000E+20
  9
$PEXTMAX
 10
-1.000000E+20
 20
-1.000000E+20
 30
-1.000000E+20
  9
$PLIMMIN
 10
0.0
 20
0.0
  9
$PLIMMAX
 10
12.0
 20
9.0
  9
$UNITMODE
 70
     0
  9
$VISRETAIN
 70
     1
  9
$PLINEGEN
 70
     0
  9
$PSLTSCALE
 70
     1
  9
$TREEDEPTH
 70
  3020
  9
$CMLSTYLE
  2
Standard
  9
$CMLJUST
 70
     0
  9
$CMLSCALE
 40
1.0
  9
$PROXYGRAPHICS
 70
     0
  9
$MEASUREMENT
 70
     0
  9
$CELWEIGHT
370
    -1
  9
$ENDCAPS
280
     0
  9
$JOINSTYLE
280
     0
  9
$LWDISPLAY
290
     0
  9
$INSUNITS
 70
     0
  9
$HYPERLINKBASE
  1

  9
$STYLESHEET
  1

  9
$XEDIT
290
     1
  9
$CEPSNTYPE
380
     0
  9
$PSTYLEMODE
290
     1
  9
$FINGERPRINTGUID
  2
{FD76EB9F-F57A-A24E-B104-57FFE911D42E}
  9
$VERSIONGUID
  2
{C5ABEBFA-4CE6-5649-8918-0882692C68D1}
  9
$EXTNAMES
290
     1
  9
$PSVPSCALE
 40
0.0
  9
$OLESTARTUP
290
     0
  0
ENDSEC
  0
SECTION
  2
CLASSES
  0
CLASS
  1
ACDBDICTIONARYWDFLT
  2
AcDbDictionaryWithDefault
  3
ObjectDBX Classes
 90
        0
280
     0
281
     0
  0
CLASS
  1
MATERIAL
  2
AcDbMaterial
  3
ObjectDBX Classes
 90
     1153
280
     0
281
     0
  0
CLASS
  1
VISUALSTYLE
  2
AcDbVisualStyle
  3
ObjectDBX Classes
 90
     4095
280
     0
281
     0
  0
CLASS
  1
SCALE
  2
AcDbScale
  3
ObjectDBX Classes
 90
     1153
280
     0
281
     0
  0
CLASS
  1
TABLESTYLE
  2
AcDbTableStyle
  3
ObjectDBX Classes
 90
     4095
280
     0
281
     0
  0
CLASS
  1
MLEADERSTYLE
  2
AcDbMLeaderStyle
  3
ACDB_MLEADERSTYLE_CLASS
 90
     4095
280
     0
281
     0
  0
CLASS
  1
ACDBSECTIONVIEWSTYLE
  2
AcDbSectionViewStyle
  3
ObjectDBX Classes
 90
     1025
280
     0
281
     0
  0
CLASS
  1
ACDBDETAILVIEWSTYLE
  2
AcDbDetailViewStyle
  3
ObjectDBX Classes
 90
     1025
280
     0
281
     0
  0
CLASS
  1
DICTIONARYVAR
  2
AcDbDictionaryVar
  3
ObjectDBX Classes
 90
        0
280
     0
281
     0
  0
CLASS
  1
CELLSTYLEMAP
  2
AcDbCellStyleMap
  3
ObjectDBX Classes
 90
     1152
280
     0
281
     0
  0
CLASS
  1
ACDBPLACEHOLDER
  2
AcDbPlaceHolder
  3
ObjectDBX Classes
 90
        0
280
     0
281
     0
  0
CLASS
  1
LAYOUT
  2
AcDbLayout
  3
ObjectDBX Classes
 90
        0
280
     0
281
     0
  0
ENDSEC
  0
SECTION
  2
TABLES
  0
TABLE
  2
VPORT
  5
8
330
0
100
AcDbSymbolTable
 70
     1
  0
VPORT
  5
57
330
8
100
AcDbSymbolTableRecord
100
AcDbViewportTableRecord
  2
*Active
 70
     0
 10
0.0
 20
0.0
 11
1.0
 21
1.0
 12
500.0
 22
500.0
 13
0.0
 23
0.0
 14
1.0
 24
1.0
 15
0.0
 25
0.0
 16
0.0
 26
0.0
 36
1.0
 17
0.0
 27
0.0
 37
0.0
 40
12.0
 41
1.0
 42
50.0
 43
0.0
 44
0.0
 50
0.0
 51
0.0
 71
     0
 72
   100
 73
     1
 74
     0
 75
     1
 76
     0
 77
     0
 78
     0
281
     0
 65
     1
110
0.0
120
0.0
130
0.0
111
1.0
121
0.0
131
0.0
112
0.0
122
1.0
132
0.0
 79
     0
146
0.0
  0
ENDTAB
  0
TABLE
  2
LTYPE
  5
5
330
0
100
AcDbSymbolTable
 70
    28
  0
LTYPE
  5
5B
330
5
100
AcDbSymbolTableRecord
100
AcDbLinetypeTableRecord
  2
ByBlock
 70
     0
  3

 72
    65
 73
     0
 40
0.0
  0
LTYPE
  5
5C
330
5
100
AcDbSymbolTableRecord
100
AcDbLinetypeTableRecord
  2
ByLayer
 70
     0
  3

 72
    65
 73
     0
 40
0.0
  0
LTYPE
  5
5D
330
5
100
AcDbSymbolTableRecord
100
AcDbLinetypeTableRecord
  2
Continuous
 70
     0
  3
Solid line
 72
    65
 73
     0
 40
0.0
  0
LTYPE
  5
7D
330
5
100
AcDbSymbolTableRecord
100
AcDbLinetypeTableRecord
  2
SOLID
 70
     0
  3

 72
    65
 73
     0
 40
0.0
  0
LTYPE
  5
7E
330
5
100
AcDbSymbolTableRecord
100
AcDbLinetypeTableRecord
  2
DASHED
 70
     0
  3

 72
    65
 73
     2
 40
10.0
 49
5.0
 74
     0
 49
-5.0
 74
     0
  0
LTYPE
  5
7F
330
5
100
AcDbSymbolTableRecord
100
AcDbLinetypeTableRecord
  2
CENTER_LINE
 70
     0
  3

 72
    65
 73
     4
 40
20.0
 49
10.0
 74
     0
 49
-2.0
 74
     0
 49
5.0
 74
     0
 49
-3.0
 74
     0
  0
LTYPE
  5
80
330
5
100
AcDbSymbolTableRecord
100
AcDbLinetypeTableRecord
  2
DOTTED
 70
     0
  3

 72
    65
 73
     2
 40
0.25
 49
0.0
 74
     0
 49
-0.25
 74
     0
  0
LTYPE
  5
81
330
5
100
AcDbSymbolTableRecord
100
AcDbLinetypeTableRecord
  2
DOT-DASHED
 70
     0
  3

 72
    65
 73
     4
 40
4.5
 49
3.0
 74
     0
 49
-0.5
 74
     0
 49
0.5
 74
     0
 49
-0.5
 74
     0
  0
LTYPE
  5
82
330
5
100
AcDbSymbolTableRecord
100
AcDbLinetypeTableRecord
  2
DASH-DOT-DOT
 70
     0
  3

 72
    65
 73
     6
 40
10.0
 49
5.0
 74
     0
 49
-1.0
 74
     0
 49
1.0
 74
     0
 49
-1.0
 74
     0
 49
1.0
 74
     0
 49
-1.0
 74
     0
  0
LTYPE
  5
83
330
5
100
AcDbSymbolTableRecord
100
AcDbLinetypeTableRecord
  2
START_ARROW
 70
     0
  3

 72
    65
 73
     0
 40
0.0
  0
LTYPE
  5
84
330
5
100
AcDbSymbolTableRecord
100
AcDbLinetypeTableRecord
  2
END_ARROW
 70
     0
  3

 72
    65
 73
     0
 40
0.0
  0
LTYPE
  5
85
330
5
100
AcDbSymbolTableRecord
100
AcDbLinetypeTableRecord
  2
END_DOT
 70
     0
  3

 72
    65
 73
     0
 40
0.0
  0
LTYPE
  5
86
330
5
100
AcDbSymbolTableRecord
100
AcDbLinetypeTableRecord
  2
ARROW
 70
     0
  3

 72
    65
 73
     0
 40
0.0
  0
LTYPE
  5
87
330
5
100
AcDbSymbolTableRecord
100
AcDbLinetypeTableRecord
  2
STITCH_LINE
 70
     0
  3

 72
    65
 73
     2
 40
6.0
 49
3.0
 74
     0
 49
-3.0
 74
     0
  0
LTYPE
  5
88
330
5
100
AcDbSymbolTableRecord
100
AcDbLinetypeTableRecord
  2
CENTER_LINE_2
 70
     0
  3

 72
    65
 73
     4
 40
17.0
 49
10.0
 74
     0
 49
-2.0
 74
     0
 49
3.0
 74
     0
 49
-2.0
 74
     0
  0
LTYPE
  5
89
330
5
100
AcDbSymbolTableRecord
100
AcDbLinetypeTableRecord
  2
HIDDEN_LINE
 70
     0
  3

 72
    65
 73
     2
 40
4.0
 49
2.0
 74
     0
 49
-2.0
 74
     0
  0
LTYPE
  5
8A
330
5
100
AcDbSymbolTableRecord
100
AcDbLinetypeTableRecord
  2
PHANTOM_LINE
 70
     0
  3

 72
    65
 73
     6
 40
21.0
 49
10.0
 74
     0
 49
-2.0
 74
     0
 49
3.0
 74
     0
 49
-1.0
 74
     0
 49
3.0
 74
     0
 49
-2.0
 74
     0
  0
LTYPE
  5
8B
330
5
100
AcDbSymbolTableRecord
100
AcDbLinetypeTableRecord
  2
BREAK_LINE_1
 70
     0
  3

 72
    65
 73
     0
 40
0.0
  0
LTYPE
  5
8C
330
5
100
AcDbSymbolTableRecord
100
AcDbLinetypeTableRecord
  2
BREAK_LINE_2
 70
     0
  3

 72
    65
 73
     0
 40
0.0
  0
LTYPE
  5
8D
330
5
100
AcDbSymbolTableRecord
100
AcDbLinetypeTableRecord
  2
OSA
 70
     0
  3

 72
    65
 73
     4
 40
12.0
 49
5.0
 74
     0
 49
-1.0
 74
     0
 49
5.0
 74
     0
 49
-1.0
 74
     0
  0
LTYPE
  5
8E
330
5
100
AcDbSymbolTableRecord
100
AcDbLinetypeTableRecord
  2
CARKOVANA
 70
     0
  3

 72
    65
 73
     2
 40
1.0
 49
0.5
 74
     0
 49
-0.5
 74
     0
  0
LTYPE
  5
8F
330
5
100
AcDbSymbolTableRecord
100
AcDbLinetypeTableRecord
  2
END-VELKA
 70
     0
  3

 72
    65
 73
     0
 40
0.0
  0
LTYPE
  5
90
330
5
100
AcDbSymbolTableRecord
100
AcDbLinetypeTableRecord
  2
START-VELKA
 70
     0
  3

 72
    65
 73
     0
 40
0.0
  0
LTYPE
  5
91
330
5
100
AcDbSymbolTableRecord
100
AcDbLinetypeTableRecord
  2
0_2-0_2-0_2
 70
     0
  3

 72
    65
 73
     3
 40
0.5334
 49
0.1524
 74
     0
 49
-0.1524
 74
     0
 49
0.2286
 74
     0
  0
LTYPE
  5
92
330
5
100
AcDbSymbolTableRecord
100
AcDbLinetypeTableRecord
  2
0_3-0_3-0_2-0_1-0_2
 70
     0
  3

 72
    65
 73
     5
 40
1.048914
 49
0.308504
 74
     0
 49
-0.308504
 74
     0
 49
0.185102
 74
     0
 49
-0.061701
 74
     0
 49
0.185102
 74
     0
  0
LTYPE
  5
93
330
5
100
AcDbSymbolTableRecord
100
AcDbLinetypeTableRecord
  2
0_1-0_1-0_2
 70
     0
  3

 72
    65
 73
     3
 40
0.381
 49
0.0762
 74
     0
 49
-0.0762
 74
     0
 49
0.2286
 74
     0
  0
LTYPE
  5
94
330
5
100
AcDbSymbolTableRecord
100
AcDbLinetypeTableRecord
  2
0_8-0_8-0_4
 70
     0
  3

 72
    65
 73
     3
 40
1.905
 49
0.762
 74
     0
 49
-0.762
 74
     0
 49
0.381
 74
     0
  0
LTYPE
  5
95
330
5
100
AcDbSymbolTableRecord
100
AcDbLinetypeTableRecord
  2
0_4-0_4-0_2
 70
     0
  3

 72
    65
 73
     3
 40
0.9906
 49
0.381
 74
     0
 49
-0.381
 74
     0
 49
0.2286
 74
     0
  0
LTYPE
  5
96
330
5
100
AcDbSymbolTableRecord
100
AcDbLinetypeTableRecord
  2
0_5-0_5-0_5
 70
     0
  3

 72
    65
 73
     3
 40
1.499447
 49
0.499816
 74
     0
 49
-0.499816
 74
     0
 49
0.499816
 74
     0
  0
LTYPE
  5
97
330
5
100
AcDbSymbolTableRecord
100
AcDbLinetypeTableRecord
  2
0_7-0_7-0_4-0_1-0_4
 70
     0
  3

 72
    65
 73
     5
 40
2.398677
 49
0.705485
 74
     0
 49
-0.705485
 74
     0
 49
0.423298
 74
     0
 49
-0.141111
 74
     0
 49
0.423298
 74
     0
  0
ENDTAB
  0
TABLE
  2
LAYER
  5
2
330
0
100
AcDbSymbolTable
 70
     5
  0
LAYER
  5
54
330
2
100
AcDbSymbolTableRecord
100
AcDbLayerTableRecord
  2
0
 70
     0
 62
     7
  6
Continuous
370
    -3
390
F
  0
LAYER
  5
79
330
2
100
AcDbSymbolTableRecord
100
AcDbLayerTableRecord
  2
STANDARD_LAYER
 70
     0
 62
     7
  6
Continuous
370
    -3
390
F
  0
LAYER
  5
7A
330
2
100
AcDbSymbolTableRecord
100
AcDbLayerTableRecord
  2
TITULNI
 70
     0
 62
     7
  6
Continuous
370
    -3
390
F
  0
LAYER
  5
7B
330
2
100
AcDbSymbolTableRecord
100
AcDbLayerTableRecord
  2
OKRAJE
 70
     0
 62
     7
  6
Continuous
370
    -3
390
F
  0
LAYER
  5
7C
330
2
100
AcDbSymbolTableRecord
100
AcDbLayerTableRecord
  2
ILUSTRACE
 70
     0
 62
     7
  6
Continuous
370
    -3
390
F
  0
ENDTAB
  0
TABLE
  2
STYLE
  5
3
330
0
100
AcDbSymbolTable
 70
     2
  0
STYLE
  5
55
330
3
100
AcDbSymbolTableRecord
100
AcDbTextStyleTableRecord
  2
Standard
 70
     0
 40
0.0
 41
1.0
 50
0.0
 71
     0
 42
0.2
  3
txt
  4

  0
STYLE
  5
5A
330
3
100
AcDbSymbolTableRecord
100
AcDbTextStyleTableRecord
  2
Annotative
 70
     0
 40
0.0
 41
1.0
 50
0.0
 71
     0
 42
0.2
  3
txt
  4

1001
AcadAnnotative
1000
AnnotativeData
1002
{
1070
     1
1070
     1
1002
}
  0
ENDTAB
  0
TABLE
  2
VIEW
  5
6
330
0
100
AcDbSymbolTable
 70
     0
  0
ENDTAB
  0
TABLE
  2
UCS
  5
7
330
0
100
AcDbSymbolTable
 70
     1
  0
UCS
  5
78
330
7
100
AcDbSymbolTableRecord
100
AcDbUCSTableRecord
  2
ISODRAW_7_3
 70
     0
 10
0.0
 20
0.0
 30
0.0
 11
1.0
 21
0.0
 31
0.0
 12
0.0
 22
1.0
 32
0.0
 79
     0
146
0.0
  0
ENDTAB
  0
TABLE
  2
APPID
  5
9
330
0
100
AcDbSymbolTable
 70
     3
  0
APPID
  5
56
330
9
100
AcDbSymbolTableRecord
100
AcDbRegAppTableRecord
  2
ACAD
 70
     0
  0
APPID
  5
5E
330
9
100
AcDbSymbolTableRecord
100
AcDbRegAppTableRecord
  2
AcadAnnotative
 70
     0
  0
APPID
  5
183
330
9
100
AcDbSymbolTableRecord
100
AcDbRegAppTableRecord
  2
ACAD_MLEADERVER
 70
     0
  0
ENDTAB
  0
TABLE
  2
DIMSTYLE
  5
A
330
0
100
AcDbSymbolTable
 70
     2
100
AcDbDimStyleTable
 71
     0
  0
DIMSTYLE
105
58
330
A
100
AcDbSymbolTableRecord
100
AcDbDimStyleTableRecord
  2
Standard
 70
     0
340
55
  0
DIMSTYLE
105
59
330
A
100
AcDbSymbolTableRecord
100
AcDbDimStyleTableRecord
  2
Annotative
 70
     0
340
55
1001
AcadAnnotative
1000
AnnotativeData
1002
{
1070
     1
1070
     1
1002
}
  0
ENDTAB
  0
TABLE
  2
BLOCK_RECORD
  5
1
330
0
100
AcDbSymbolTable
 70
     1
  0
BLOCK_RECORD
  5
70
330
1
100
AcDbSymbolTableRecord
100
AcDbBlockTableRecord
  2
*Model_Space
340
73
  0
BLOCK_RECORD
  5
6C
330
1
100
AcDbSymbolTableRecord
100
AcDbBlockTableRecord
  2
*Paper_Space
340
6F
  0
BLOCK_RECORD
  5
74
330
1
100
AcDbSymbolTableRecord
100
AcDbBlockTableRecord
  2
*Paper_Space0
340
77
  0
ENDTAB
  0
ENDSEC
  0
SECTION
  2
BLOCKS
  0
BLOCK
  5
71
330
70
100
AcDbEntity
  8
0
100
AcDbBlockBegin
  2
*Model_Space
 70
     0
 10
0.0
 20
0.0
 30
0.0
  3
*Model_Space
  1

  0
ENDBLK
  5
72
330
70
100
AcDbEntity
  8
0
100
AcDbBlockEnd
  0
BLOCK
  5
6D
330
6C
100
AcDbEntity
 67
     1
  8
0
100
AcDbBlockBegin
  2
*Paper_Space
 70
     0
 10
0.0
 20
0.0
 30
0.0
  3
*Paper_Space
  1

  0
ENDBLK
  5
6E
330
6C
100
AcDbEntity
 67
     1
  8
0
100
AcDbBlockEnd
  0
BLOCK
  5
75
330
74
100
AcDbEntity
 67
     1
  8
0
100
AcDbBlockBegin
  2
*Paper_Space0
 70
     0
 10
0.0
 20
0.0
 30
0.0
  3
*Paper_Space0
  1

  0
ENDBLK
  5
76
330
74
100
AcDbEntity
 67
     1
  8
0
100
AcDbBlockEnd
  0
ENDSEC
  0
SECTION
  2
ENTITIES
  0
SPLINE
  5
98
330
70
100
AcDbEntity
  8
ILUSTRACE
  6
SOLID
 62
    74
100
AcDbSpline
210
0.0
220
0.0
230
1.0
 70
    31
 71
     3
 72
    11
 73
     7
 74
     0
 42
0.001
 43
0.0000000001
 40
0.0
 40
0.0
 40
0.0
 40
0.0
 40
1.0
 40
1.0
 40
1.0
 40
2.0
 40
2.0
 40
2.0
 40
2.0
 10
91.72658538818359
 20
185.7988739013672
 30
0.0
 41
1.0
 10
91.72658538818359
 20
185.7988739013672
 30
0.0
 41
1.0
 10
91.69585418701172
 20
185.4468536376953
 30
0.0
 41
1.0
 10
91.69585418701172
 20
185.4468536376953
 30
0.0
 41
1.0
 10
91.69585418701172
 20
185.4468536376953
 30
0.0
 41
1.0
 10
91.72658538818359
 20
185.7988739013672
 30
0.0
 41
1.0
 10
91.72658538818359
 20
185.7988739013672
 30
0.0
 41
1.0
  0
SPLINE
  5
99
330
70
100
AcDbEntity
  8
ILUSTRACE
  6
SOLID
 62
    74
100
AcDbSpline
210
0.0
220
0.0
230
1.0
 70
    31
 71
     3
 72
    11
 73
     7
 74
     0
 42
0.001
 43
0.0000000001
 40
0.0
 40
0.0
 40
0.0
 40
0.0
 40
1.0
 40
1.0
 40
1.0
 40
2.0
 40
2.0
 40
2.0
 40
2.0
 10
97.07306671142578
 20
182.1729888916015
 30
0.0
 41
1.0
 10
97.07306671142578
 20
182.1729888916015
 30
0.0
 41
1.0
 10
97.07306671142578
 20
183.3341827392578
 30
0.0
 41
1.0
 10
97.07306671142578
 20
183.3341827392578
 30
0.0
 41
1.0
 10
97.07306671142578
 20
183.3341827392578
 30
0.0
 41
1.0
 10
97.07306671142578
 20
182.1729888916015
 30
0.0
 41
1.0
 10
97.07306671142578
 20
182.1729888916015
 30
0.0
 41
1.0
  0
SPLINE
  5
9A
330
70
100
AcDbEntity
  8
ILUSTRACE
  6
SOLID
 62
    74
100
AcDbSpline
210
0.0
220
0.0
230
1.0
 70
    31
 71
     3
 72
    11
 73
     7
 74
     0
 42
0.001
 43
0.0000000001
 40
0.0
 40
0.0
 40
0.0
 40
0.0
 40
1.0
 40
1.0
 40
1.0
 40
2.0
 40
2.0
 40
2.0
 40
2.0
 10
101.5728607177734
 20
162.5768890380859
 30
0.0
 41
1.0
 10
101.5728607177734
 20
162.5768890380859
 30
0.0
 41
1.0
 10
101.410758972168
 20
181.1568756103515
 30
0.0
 41
1.0
 10
101.410758972168
 20
181.1568756103515
 30
0.0
 41
1.0
 10
101.410758972168
 20
181.1568756103515
 30
0.0
 41
1.0
 10
101.5728607177734
 20
162.5768890380859
 30
0.0
 41
1.0
 10
101.5728607177734
 20
162.5768890380859
 30
0.0
 41
1.0
  0
SPLINE
  5
9B
330
70
100
AcDbEntity
  8
ILUSTRACE
  6
SOLID
 62
    74
100
AcDbSpline
210
0.0
220
0.0
230
1.0
 70
    31
 71
     3
 72
    11
 73
     7
 74
     0
 42
0.001
 43
0.0000000001
 40
0.0
 40
0.0
 40
0.0
 40
0.0
 40
1.0
 40
1.0
 40
1.0
 40
2.0
 40
2.0
 40
2.0
 40
2.0
 10
97.07306671142578
 20
182.1729888916015
 30
0.0
 41
1.0
 10
97.07306671142578
 20
182.1729888916015
 30
0.0
 41
1.0
 10
97.34527587890625
 20
181.1568756103515
 30
0.0
 41
1.0
 10
97.34527587890625
 20
181.1568756103515
 30
0.0
 41
1.0
 10
97.34527587890625
 20
181.1568756103515
 30
0.0
 41
1.0
 10
97.07306671142578
 20
182.1729888916015
 30
0.0
 41
1.0
 10
97.07306671142578
 20
182.1729888916015
 30
0.0
 41
1.0
  0
SPLINE
  5
9C
330
70
100
AcDbEntity
  8
ILUSTRACE
  6
SOLID
 62
    74
100
AcDbSpline
210
0.0
220
0.0
230
1.0
 70
    31
 71
     3
 72
    11
 73
     7
 74
     0
 42
0.001
 43
0.0000000001
 40
0.0
 40
0.0
 40
0.0
 40
0.0
 40
1.0
 40
1.0
 40
1.0
 40
2.0
 40
2.0
 40
2.0
 40
2.0
 10
120.0077590942383
 20
182.1729888916015
 30
0.0
 41
1.0
 10
120.0077590942383
 20
182.1729888916015
 30
0.0
 41
1.0
 10
119.735481262207
 20
181.1568756103515
 30
0.0
 41
1.0
 10
119.735481262207
 20
181.1568756103515
 30
0.0
 41
1.0
 10
119.735481262207
 20
181.1568756103515
 30
0.0
 41
1.0
 10
120.0077590942383
 20
182.1729888916015
 30
0.0
 41
1.0
 10
120.0077590942383
 20
182.1729888916015
 30
0.0
 41
1.0
  0
SPLINE
  5
9D
330
70
100
AcDbEntity
  8
ILUSTRACE
  6
SOLID
 62
    74
100
AcDbSpline
210
0.0
220
0.0
230
1.0
 70
    31
 71
     3
 72
    11
 73
     7
 74
     0
 42
0.001
 43
0.0000000001
 40
0.0
 40
0.0
 40
0.0
 40
0.0
 40
1.0
 40
1.0
 40
1.0
 40
2.0
 40
2.0
 40
2.0
 40
2.0
 10
101.5728607177734
 20
162.5768890380859
 30
0.0
 41
1.0
 10
101.5728607177734
 20
162.5768890380859
 30
0.0
 41
1.0
 10
115.5079727172851
 20
162.5768890380859
 30
0.0
 41
1.0
 10
115.5079727172851
 20
162.5768890380859
 30
0.0
 41
1.0
 10
115.5079727172851
 20
162.5768890380859
 30
0.0
 41
1.0
 10
101.5728607177734
 20
162.5768890380859
 30
0.0
 41
1.0
 10
101.5728607177734
 20
162.5768890380859
 30
0.0
 41
1.0
  0
SPLINE
  5
9E
330
70
100
AcDbEntity
  8
ILUSTRACE
  6
SOLID
 62
    74
100
AcDbSpline
210
0.0
220
0.0
230
1.0
 70
    31
 71
     3
 72
    11
 73
     7
 74
     0
 42
0.001
 43
0.0000000001
 40
0.0
 40
0.0
 40
0.0
 40
0.0
 40
1.0
 40
1.0
 40
1.0
 40
2.0
 40
2.0
 40
2.0
 40
2.0
 10
115.5079727172851
 20
162.5768890380859
 30
0.0
 41
1.0
 10
115.5079727172851
 20
162.5768890380859
 30
0.0
 41
1.0
 10
115.6700744628906
 20
181.1568756103515
 30
0.0
 41
1.0
 10
115.6700744628906
 20
181.1568756103515
 30
0.0
 41
1.0
 10
115.6700744628906
 20
181.1568756103515
 30
0.0
 41
1.0
 10
115.5079727172851
 20
162.5768890380859
 30
0.0
 41
1.0
 10
115.5079727172851
 20
162.5768890380859
 30
0.0
 41
1.0
  0
SPLINE
  5
9F
330
70
100
AcDbEntity
  8
ILUSTRACE
  6
SOLID
 62
    74
100
AcDbSpline
210
0.0
220
0.0
230
1.0
 70
    31
 71
     3
 72
    11
 73
     7
 74
     0
 42
0.001
 43
0.0000000001
 40
0.0
 40
0.0
 40
0.0
 40
0.0
 40
1.0
 40
1.0
 40
1.0
 40
2.0
 40
2.0
 40
2.0
 40
2.0
 10
120.0077590942383
 20
182.1729888916015
 30
0.0
 41
1.0
 10
120.0077590942383
 20
182.1729888916015
 30
0.0
 41
1.0
 10
120.0077590942383
 20
183.3341827392578
 30
0.0
 41
1.0
 10
120.0077590942383
 20
183.3341827392578
 30
0.0
 41
1.0
 10
120.0077590942383
 20
183.3341827392578
 30
0.0
 41
1.0
 10
120.0077590942383
 20
182.1729888916015
 30
0.0
 41
1.0
 10
120.0077590942383
 20
182.1729888916015
 30
0.0
 41
1.0
  0
SPLINE
  5
A0
330
70
100
AcDbEntity
  8
ILUSTRACE
  6
SOLID
 62
    74
100
AcDbSpline
210
0.0
220
0.0
230
1.0
 70
    31
 71
     3
 72
    11
 73
     7
 74
     0
 42
0.001
 43
0.0000000001
 40
0.0
 40
0.0
 40
0.0
 40
0.0
 40
1.0
 40
1.0
 40
1.0
 40
2.0
 40
2.0
 40
2.0
 40
2.0
 10
125.3541717529297
 20
185.7988739013672
 30
0.0
 41
1.0
 10
125.3541717529297
 20
185.7988739013672
 30
0.0
 41
1.0
 10
125.3849716186523
 20
185.4468536376953
 30
0.0
 41
1.0
 10
125.3849716186523
 20
185.4468536376953
 30
0.0
 41
1.0
 10
125.3849716186523
 20
185.4468536376953
 30
0.0
 41
1.0
 10
125.3541717529297
 20
185.7988739013672
 30
0.0
 41
1.0
 10
125.3541717529297
 20
185.7988739013672
 30
0.0
 41
1.0
  0
SPLINE
  5
A1
330
70
100
AcDbEntity
  8
ILUSTRACE
  6
SOLID
 62
    74
100
AcDbSpline
210
0.0
220
0.0
230
1.0
 70
    31
 71
     3
 72
    11
 73
     7
 74
     0
 42
0.001
 43
0.0000000001
 40
0.0
 40
0.0
 40
0.0
 40
0.0
 40
1.0
 40
1.0
 40
1.0
 40
2.0
 40
2.0
 40
2.0
 40
2.0
 10
119.735481262207
 20
181.1568756103515
 30
0.0
 41
1.0
 10
119.735481262207
 20
181.1568756103515
 30
0.0
 41
1.0
 10
97.34527587890625
 20
181.1568756103515
 30
0.0
 41
1.0
 10
97.34527587890625
 20
181.1568756103515
 30
0.0
 41
1.0
 10
97.34527587890625
 20
181.1568756103515
 30
0.0
 41
1.0
 10
119.735481262207
 20
181.1568756103515
 30
0.0
 41
1.0
 10
119.735481262207
 20
181.1568756103515
 30
0.0
 41
1.0
  0
SPLINE
  5
A2
330
70
100
AcDbEntity
  8
ILUSTRACE
  6
SOLID
 62
    74
100
AcDbSpline
210
0.0
220
0.0
230
1.0
 70
    31
 71
     3
 72
    11
 73
     7
 74
     0
 42
0.001
 43
0.0000000001
 40
0.0
 40
0.0
 40
0.0
 40
0.0
 40
1.0
 40
1.0
 40
1.0
 40
2.0
 40
2.0
 40
2.0
 40
2.0
 10
97.07306671142578
 20
182.1729888916015
 30
0.0
 41
1.0
 10
97.07306671142578
 20
182.1729888916015
 30
0.0
 41
1.0
 10
120.0077590942383
 20
182.1729888916015
 30
0.0
 41
1.0
 10
120.0077590942383
 20
182.1729888916015
 30
0.0
 41
1.0
 10
120.0077590942383
 20
182.1729888916015
 30
0.0
 41
1.0
 10
97.07306671142578
 20
182.1729888916015
 30
0.0
 41
1.0
 10
97.07306671142578
 20
182.1729888916015
 30
0.0
 41
1.0
  0
SPLINE
  5
A3
330
70
100
AcDbEntity
  8
ILUSTRACE
  6
SOLID
 62
    74
100
AcDbSpline
210
0.0
220
0.0
230
1.0
 70
    31
 71
     3
 72
    11
 73
     7
 74
     0
 42
0.001
 43
0.0000000001
 40
0.0
 40
0.0
 40
0.0
 40
0.0
 40
1.0
 40
1.0
 40
1.0
 40
2.0
 40
2.0
 40
2.0
 40
2.0
 10
97.07306671142578
 20
183.3341827392578
 30
0.0
 41
1.0
 10
97.07306671142578
 20
183.3341827392578
 30
0.0
 41
1.0
 10
120.0077590942383
 20
183.3341827392578
 30
0.0
 41
1.0
 10
120.0077590942383
 20
183.3341827392578
 30
0.0
 41
1.0
 10
120.0077590942383
 20
183.3341827392578
 30
0.0
 41
1.0
 10
97.07306671142578
 20
183.3341827392578
 30
0.0
 41
1.0
 10
97.07306671142578
 20
183.3341827392578
 30
0.0
 41
1.0
  0
SPLINE
  5
A4
330
70
100
AcDbEntity
  8
ILUSTRACE
  6
SOLID
 62
    74
100
AcDbSpline
210
0.0
220
0.0
230
1.0
 70
    31
 71
     3
 72
    11
 73
     7
 74
     0
 42
0.001
 43
0.0000000001
 40
0.0
 40
0.0
 40
0.0
 40
0.0
 40
1.0
 40
1.0
 40
1.0
 40
2.0
 40
2.0
 40
2.0
 40
2.0
 10
95.18997955322266
 20
183.6245880126953
 30
0.0
 41
1.0
 10
95.18997955322266
 20
183.6245880126953
 30
0.0
 41
1.0
 10
105.6332626342773
 20
183.6245880126953
 30
0.0
 41
1.0
 10
105.6332626342773
 20
183.6245880126953
 30
0.0
 41
1.0
 10
105.6332626342773
 20
183.6245880126953
 30
0.0
 41
1.0
 10
95.18997955322266
 20
183.6245880126953
 30
0.0
 41
1.0
 10
95.18997955322266
 20
183.6245880126953
 30
0.0
 41
1.0
  0
SPLINE
  5
A5
330
70
100
AcDbEntity
  8
ILUSTRACE
  6
SOLID
 62
    74
100
AcDbSpline
210
0.0
220
0.0
230
1.0
 70
    31
 71
     3
 72
    11
 73
     7
 74
     0
 42
0.001
 43
0.0000000001
 40
0.0
 40
0.0
 40
0.0
 40
0.0
 40
1.0
 40
1.0
 40
1.0
 40
2.0
 40
2.0
 40
2.0
 40
2.0
 10
106.4493713378906
 20
183.6245880126953
 30
0.0
 41
1.0
 10
106.4493713378906
 20
183.6245880126953
 30
0.0
 41
1.0
 10
110.6314926147461
 20
183.6245880126953
 30
0.0
 41
1.0
 10
110.6314926147461
 20
183.6245880126953
 30
0.0
 41
1.0
 10
110.6314926147461
 20
183.6245880126953
 30
0.0
 41
1.0
 10
106.4493713378906
 20
183.6245880126953
 30
0.0
 41
1.0
 10
106.4493713378906
 20
183.6245880126953
 30
0.0
 41
1.0
  0
SPLINE
  5
A6
330
70
100
AcDbEntity
  8
ILUSTRACE
  6
SOLID
 62
    74
100
AcDbSpline
210
0.0
220
0.0
230
1.0
 70
    31
 71
     3
 72
    11
 73
     7
 74
     0
 42
0.001
 43
0.0000000001
 40
0.0
 40
0.0
 40
0.0
 40
0.0
 40
1.0
 40
1.0
 40
1.0
 40
2.0
 40
2.0
 40
2.0
 40
2.0
 10
111.4475708007812
 20
183.6245880126953
 30
0.0
 41
1.0
 10
111.4475708007812
 20
183.6245880126953
 30
0.0
 41
1.0
 10
121.8907699584961
 20
183.6245880126953
 30
0.0
 41
1.0
 10
121.8907699584961
 20
183.6245880126953
 30
0.0
 41
1.0
 10
121.8907699584961
 20
183.6245880126953
 30
0.0
 41
1.0
 10
111.4475708007812
 20
183.6245880126953
 30
0.0
 41
1.0
 10
111.4475708007812
 20
183.6245880126953
 30
0.0
 41
1.0
  0
SPLINE
  5
A7
330
70
100
AcDbEntity
  8
ILUSTRACE
  6
SOLID
 62
    74
100
AcDbSpline
210
0.0
220
0.0
230
1.0
 70
    31
 71
     3
 72
    11
 73
     7
 74
     0
 42
0.001
 43
0.0000000001
 40
0.0
 40
0.0
 40
0.0
 40
0.0
 40
1.0
 40
1.0
 40
1.0
 40
2.0
 40
2.0
 40
2.0
 40
2.0
 10
125.3849716186523
 20
185.4468536376953
 30
0.0
 41
1.0
 10
125.3849716186523
 20
185.4468536376953
 30
0.0
 41
1.0
 10
91.69585418701172
 20
185.4468536376953
 30
0.0
 41
1.0
 10
91.69585418701172
 20
185.4468536376953
 30
0.0
 41
1.0
 10
91.69585418701172
 20
185.4468536376953
 30
0.0
 41
1.0
 10
125.3849716186523
 20
185.4468536376953
 30
0.0
 41
1.0
 10
125.3849716186523
 20
185.4468536376953
 30
0.0
 41
1.0
  0
SPLINE
  5
A8
330
70
100
AcDbEntity
  8
ILUSTRACE
  6
SOLID
 62
    74
100
AcDbSpline
210
0.0
220
0.0
230
1.0
 70
    31
 71
     3
 72
    11
 73
     7
 74
     0
 42
0.001
 43
0.0000000001
 40
0.0
 40
0.0
 40
0.0
 40
0.0
 40
1.0
 40
1.0
 40
1.0
 40
2.0
 40
2.0
 40
2.0
 40
2.0
 10
92.44396209716796
 20
186.5808715820312
 30
0.0
 41
1.0
 10
92.44396209716796
 20
186.5808715820312
 30
0.0
 41
1.0
 10
124.6367645263672
 20
186.5808715820312
 30
0.0
 41
1.0
 10
124.6367645263672
 20
186.5808715820312
 30
0.0
 41
1.0
 10
124.6367645263672
 20
186.5808715820312
 30
0.0
 41
1.0
 10
92.44396209716796
 20
186.5808715820312
 30
0.0
 41
1.0
 10
92.44396209716796
 20
186.5808715820312
 30
0.0
 41
1.0
  0
SPLINE
  5
A9
330
70
100
AcDbEntity
  8
ILUSTRACE
  6
SOLID
 62
    74
100
AcDbSpline
210
0.0
220
0.0
230
1.0
 70
    12
 71
     3
 72
     8
 73
     4
 74
     0
 42
0.001
 43
0.0000000001
 40
0.0
 40
0.0
 40
0.0
 40
0.0
 40
1.0
 40
1.0
 40
1.0
 40
1.0
 10
125.3541717529297
 20
185.7988739013672
 30
0.0
 41
1.0
 10
125.3197708129883
 20
186.1919708251953
 30
0.0
 41
1.0
 10
125.0254516601562
 20
186.5127716064453
 30
0.0
 41
1.0
 10
124.6367645263672
 20
186.5808715820312
 30
0.0
 41
1.0
  0
SPLINE
  5
AA
330
70
100
AcDbEntity
  8
ILUSTRACE
  6
SOLID
 62
    74
100
AcDbSpline
210
0.0
220
0.0
230
1.0
 70
    12
 71
     3
 72
     8
 73
     4
 74
     0
 42
0.001
 43
0.0000000001
 40
0.0
 40
0.0
 40
0.0
 40
0.0
 40
1.0
 40
1.0
 40
1.0
 40
1.0
 10
92.44396209716796
 20
186.5808715820312
 30
0.0
 41
1.0
 10
92.0553741455078
 20
186.5127716064453
 30
0.0
 41
1.0
 10
91.76097869873046
 20
186.1919708251953
 30
0.0
 41
1.0
 10
91.72658538818359
 20
185.7988739013672
 30
0.0
 41
1.0
  0
SPLINE
  5
AB
330
70
100
AcDbEntity
  8
ILUSTRACE
  6
SOLID
 62
    74
100
AcDbSpline
210
0.0
220
0.0
230
1.0
 70
    12
 71
     3
 72
     8
 73
     4
 74
     0
 42
0.001
 43
0.0000000001
 40
0.0
 40
0.0
 40
0.0
 40
0.0
 40
1.0
 40
1.0
 40
1.0
 40
1.0
 10
124.6367645263672
 20
186.5808715820312
 30
0.0
 41
1.0
 10
113.9868621826172
 20
188.4453735351562
 30
0.0
 41
1.0
 10
103.0939636230469
 20
188.4453735351562
 30
0.0
 41
1.0
 10
92.44396209716796
 20
186.5808715820312
 30
0.0
 41
1.0
  0
SPLINE
  5
AC
330
70
100
AcDbEntity
  8
ILUSTRACE
  6
SOLID
 62
    74
100
AcDbSpline
210
0.0
220
0.0
230
1.0
 70
    12
 71
     3
 72
    11
 73
     7
 74
     0
 42
0.001
 43
0.0000000001
 40
0.0
 40
0.0
 40
0.0
 40
0.0
 40
1.0
 40
1.0
 40
1.0
 40
2.0
 40
2.0
 40
2.0
 40
2.0
 10
115.8003845214844
 20
183.3341827392578
 30
0.0
 41
1.0
 10
115.7042541503906
 20
183.5129699707031
 30
0.0
 41
1.0
 10
115.5176696777344
 20
183.6245880126953
 30
0.0
 41
1.0
 10
115.3147888183593
 20
183.6245880126953
 30
0.0
 41
1.0
 10
115.1117630004883
 20
183.6245880126953
 30
0.0
 41
1.0
 10
114.925178527832
 20
183.5129699707031
 30
0.0
 41
1.0
 10
114.8290786743164
 20
183.3341827392578
 30
0.0
 41
1.0
  0
SPLINE
  5
AD
330
70
100
AcDbEntity
  8
ILUSTRACE
  6
SOLID
 62
    74
100
AcDbSpline
210
0.0
220
0.0
230
1.0
 70
    12
 71
     3
 72
    11
 73
     7
 74
     0
 42
0.001
 43
0.0000000001
 40
0.0
 40
0.0
 40
0.0
 40
0.0
 40
1.0
 40
1.0
 40
1.0
 40
2.0
 40
2.0
 40
2.0
 40
2.0
 10
109.0259552001953
 20
183.3341827392578
 30
0.0
 41
1.0
 10
108.9298629760742
 20
183.5129699707031
 30
0.0
 41
1.0
 10
108.7433853149414
 20
183.6245880126953
 30
0.0
 41
1.0
 10
108.5403594970703
 20
183.6245880126953
 30
0.0
 41
1.0
 10
108.3374786376953
 20
183.6245880126953
 30
0.0
 41
1.0
 10
108.1508636474609
 20
183.5129699707031
 30
0.0
 41
1.0
 10
108.0548706054687
 20
183.3341827392578
 30
0.0
 41
1.0
  0
SPLINE
  5
AE
330
70
100
AcDbEntity
  8
ILUSTRACE
  6
SOLID
 62
    74
100
AcDbSpline
210
0.0
220
0.0
230
1.0
 70
    12
 71
     3
 72
    11
 73
     7
 74
     0
 42
0.001
 43
0.0000000001
 40
0.0
 40
0.0
 40
0.0
 40
0.0
 40
1.0
 40
1.0
 40
1.0
 40
2.0
 40
2.0
 40
2.0
 40
2.0
 10
102.2516708374023
 20
183.3341827392578
 30
0.0
 41
1.0
 10
102.1556854248047
 20
183.5129699707031
 30
0.0
 41
1.0
 10
101.9690704345703
 20
183.6245880126953
 30
0.0
 41
1.0
 10
101.7660751342773
 20
183.6245880126953
 30
0.0
 41
1.0
 10
101.5631561279297
 20
183.6245880126953
 30
0.0
 41
1.0
 10
101.3765716552734
 20
183.5129699707031
 30
0.0
 41
1.0
 10
101.2804794311523
 20
183.3341827392578
 30
0.0
 41
1.0
  0
SPLINE
  5
AF
330
70
100
AcDbEntity
  8
ILUSTRACE
  6
SOLID
 62
    74
100
AcDbSpline
210
0.0
220
0.0
230
1.0
 70
    12
 71
     3
 72
    11
 73
     7
 74
     0
 42
0.001
 43
0.0000000001
 40
0.0
 40
0.0
 40
0.0
 40
0.0
 40
1.0
 40
1.0
 40
1.0
 40
2.0
 40
2.0
 40
2.0
 40
2.0
 10
99.44567871093751
 20
183.3341827392578
 30
0.0
 41
1.0
 10
99.34958648681641
 20
183.5129699707031
 30
0.0
 41
1.0
 10
99.16307067871095
 20
183.6245880126953
 30
0.0
 41
1.0
 10
98.96007537841796
 20
183.6245880126953
 30
0.0
 41
1.0
 10
98.7570571899414
 20
183.6245880126953
 30
0.0
 41
1.0
 10
98.57057952880859
 20
183.5129699707031
 30
0.0
 41
1.0
 10
98.47447967529298
 20
183.3341827392578
 30
0.0
 41
1.0
  0
SPLINE
  5
B0
330
70
100
AcDbEntity
  8
ILUSTRACE
  6
SOLID
 62
    74
100
AcDbSpline
210
0.0
220
0.0
230
1.0
 70
    12
 71
     3
 72
    11
 73
     7
 74
     0
 42
0.001
 43
0.0000000001
 40
0.0
 40
0.0
 40
0.0
 40
0.0
 40
1.0
 40
1.0
 40
1.0
 40
2.0
 40
2.0
 40
2.0
 40
2.0
 10
118.6063842773437
 20
183.3341827392578
 30
0.0
 41
1.0
 10
118.5102844238281
 20
183.5129699707031
 30
0.0
 41
1.0
 10
118.3237762451172
 20
183.6245880126953
 30
0.0
 41
1.0
 10
118.1207809448242
 20
183.6245880126953
 30
0.0
 41
1.0
 10
117.9177627563476
 20
183.6245880126953
 30
0.0
 41
1.0
 10
117.7311782836914
 20
183.5129699707031
 30
0.0
 41
1.0
 10
117.6351852416992
 20
183.3341827392578
 30
0.0
 41
1.0
  0
SPLINE
  5
B1
330
70
100
AcDbEntity
  8
ILUSTRACE
  6
SOLID
 62
    74
100
AcDbSpline
210
0.0
220
0.0
230
1.0
 70
    12
 71
     3
 72
    14
 73
    10
 74
     0
 42
0.001
 43
0.0000000001
 40
0.0
 40
0.0
 40
0.0
 40
0.0
 40
1.0
 40
1.0
 40
1.0
 40
2.0
 40
2.0
 40
2.0
 40
3.0
 40
3.0
 40
3.0
 40
3.0
 10
120.4183959960937
 20
185.4468536376953
 30
0.0
 41
1.0
 10
120.4183959960937
 20
185.4468536376953
 30
0.0
 41
1.0
 10
120.3995819091797
 20
185.2227783203125
 30
0.0
 41
1.0
 10
120.3995819091797
 20
185.2227783203125
 30
0.0
 41
1.0
 10
120.3995819091797
 20
185.2227783203125
 30
0.0
 41
1.0
 10
120.3321685791015
 20
184.4225769042969
 30
0.0
 41
1.0
 10
120.3321685791015
 20
184.4225769042969
 30
0.0
 41
1.0
 10
120.3321685791015
 20
184.4225769042969
 30
0.0
 41
1.0
 10
120.2650756835937
 20
183.6245880126953
 30
0.0
 41
1.0
 10
120.2650756835937
 20
183.6245880126953
 30
0.0
 41
1.0
  0
SPLINE
  5
B2
330
70
100
AcDbEntity
  8
ILUSTRACE
  6
SOLID
 62
    74
100
AcDbSpline
210
0.0
220
0.0
230
1.0
 70
    12
 71
     3
 72
    14
 73
    10
 74
     0
 42
0.001
 43
0.0000000001
 40
0.0
 40
0.0
 40
0.0
 40
0.0
 40
1.0
 40
1.0
 40
1.0
 40
2.0
 40
2.0
 40
2.0
 40
3.0
 40
3.0
 40
3.0
 40
3.0
 10
115.6046676635742
 20
185.4468536376953
 30
0.0
 41
1.0
 10
115.6046676635742
 20
185.4468536376953
 30
0.0
 41
1.0
 10
115.5914688110351
 20
185.2227783203125
 30
0.0
 41
1.0
 10
115.5914688110351
 20
185.2227783203125
 30
0.0
 41
1.0
 10
115.5914688110351
 20
185.2227783203125
 30
0.0
 41
1.0
 10
115.5445861816406
 20
184.4225769042969
 30
0.0
 41
1.0
 10
115.5445861816406
 20
184.4225769042969
 30
0.0
 41
1.0
 10
115.5445861816406
 20
184.4225769042969
 30
0.0
 41
1.0
 10
115.4977722167968
 20
183.6245880126953
 30
0.0
 41
1.0
 10
115.4977722167968
 20
183.6245880126953
 30
0.0
 41
1.0
  0
SPLINE
  5
B3
330
70
100
AcDbEntity
  8
ILUSTRACE
  6
SOLID
 62
    74
100
AcDbSpline
210
0.0
220
0.0
230
1.0
 70
    12
 71
     3
 72
    14
 73
    10
 74
     0
 42
0.001
 43
0.0000000001
 40
0.0
 40
0.0
 40
0.0
 40
0.0
 40
1.0
 40
1.0
 40
1.0
 40
2.0
 40
2.0
 40
2.0
 40
3.0
 40
3.0
 40
3.0
 40
3.0
 10
96.66236877441406
 20
185.4468536376953
 30
0.0
 41
1.0
 10
96.66236877441406
 20
185.4468536376953
 30
0.0
 41
1.0
 10
96.6812744140625
 20
185.2227783203125
 30
0.0
 41
1.0
 10
96.6812744140625
 20
185.2227783203125
 30
0.0
 41
1.0
 10
96.6812744140625
 20
185.2227783203125
 30
0.0
 41
1.0
 10
96.74858093261718
 20
184.4225769042969
 30
0.0
 41
1.0
 10
96.74858093261718
 20
184.4225769042969
 30
0.0
 41
1.0
 10
96.74858093261718
 20
184.4225769042969
 30
0.0
 41
1.0
 10
96.81575012207032
 20
183.6245880126953
 30
0.0
 41
1.0
 10
96.81575012207032
 20
183.6245880126953
 30
0.0
 41
1.0
  0
SPLINE
  5
B4
330
70
100
AcDbEntity
  8
ILUSTRACE
  6
SOLID
 62
    74
100
AcDbSpline
210
0.0
220
0.0
230
1.0
 70
    12
 71
     3
 72
    11
 73
     7
 74
     0
 42
0.001
 43
0.0000000001
 40
0.0
 40
0.0
 40
0.0
 40
0.0
 40
1.0
 40
1.0
 40
1.0
 40
2.0
 40
2.0
 40
2.0
 40
2.0
 10
110.5227508544922
 20
185.4468536376953
 30
0.0
 41
1.0
 10
110.5227508544922
 20
185.4468536376953
 30
0.0
 41
1.0
 10
110.5458679199218
 20
185.0609893798828
 30
0.0
 41
1.0
 10
110.5458679199218
 20
185.0609893798828
 30
0.0
 41
1.0
 10
110.5458679199218
 20
185.0609893798828
 30
0.0
 41
1.0
 10
110.6487731933593
 20
183.3341827392578
 30
0.0
 41
1.0
 10
110.6487731933593
 20
183.3341827392578
 30
0.0
 41
1.0
  0
SPLINE
  5
B5
330
70
100
AcDbEntity
  8
ILUSTRACE
  6
SOLID
 62
    74
100
AcDbSpline
210
0.0
220
0.0
230
1.0
 70
    12
 71
     3
 72
    11
 73
     7
 74
     0
 42
0.001
 43
0.0000000001
 40
0.0
 40
0.0
 40
0.0
 40
0.0
 40
1.0
 40
1.0
 40
1.0
 40
2.0
 40
2.0
 40
2.0
 40
2.0
 10
106.5579528808594
 20
185.4468536376953
 30
0.0
 41
1.0
 10
106.5579528808594
 20
185.4468536376953
 30
0.0
 41
1.0
 10
106.5349578857422
 20
185.0609893798828
 30
0.0
 41
1.0
 10
106.5349578857422
 20
185.0609893798828
 30
0.0
 41
1.0
 10
106.5349578857422
 20
185.0609893798828
 30
0.0
 41
1.0
 10
106.4320602416992
 20
183.3341827392578
 30
0.0
 41
1.0
 10
106.4320602416992
 20
183.3341827392578
 30
0.0
 41
1.0
  0
SPLINE
  5
B6
330
70
100
AcDbEntity
  8
ILUSTRACE
  6
SOLID
 62
    74
100
AcDbSpline
210
0.0
220
0.0
230
1.0
 70
    12
 71
     3
 72
    14
 73
    10
 74
     0
 42
0.001
 43
0.0000000001
 40
0.0
 40
0.0
 40
0.0
 40
0.0
 40
1.0
 40
1.0
 40
1.0
 40
2.0
 40
2.0
 40
2.0
 40
3.0
 40
3.0
 40
3.0
 40
3.0
 10
101.4761581420898
 20
185.4468536376953
 30
0.0
 41
1.0
 10
101.4761581420898
 20
185.4468536376953
 30
0.0
 41
1.0
 10
101.4892807006836
 20
185.2227783203125
 30
0.0
 41
1.0
 10
101.4892807006836
 20
185.2227783203125
 30
0.0
 41
1.0
 10
101.4892807006836
 20
185.2227783203125
 30
0.0
 41
1.0
 10
101.5362777709961
 20
184.4225769042969
 30
0.0
 41
1.0
 10
101.5362777709961
 20
184.4225769042969
 30
0.0
 41
1.0
 10
101.5362777709961
 20
184.4225769042969
 30
0.0
 41
1.0
 10
101.5830535888672
 20
183.6245880126953
 30
0.0
 41
1.0
 10
101.5830535888672
 20
183.6245880126953
 30
0.0
 41
1.0
  0
SPLINE
  5
B7
330
70
100
AcDbEntity
  8
ILUSTRACE
  6
SOLID
 62
    74
100
AcDbSpline
210
0.0
220
0.0
230
1.0
 70
    12
 71
     3
 72
    14
 73
    10
 74
     0
 42
0.001
 43
0.0000000001
 40
0.0
 40
0.0
 40
0.0
 40
0.0
 40
1.0
 40
1.0
 40
1.0
 40
2.0
 40
2.0
 40
2.0
 40
3.0
 40
3.0
 40
3.0
 40
3.0
 10
95.03126525878906
 20
185.4468536376953
 30
0.0
 41
1.0
 10
95.03126525878906
 20
185.4468536376953
 30
0.0
 41
1.0
 10
95.05077362060546
 20
185.2227783203125
 30
0.0
 41
1.0
 10
95.05077362060546
 20
185.2227783203125
 30
0.0
 41
1.0
 10
95.05077362060546
 20
185.2227783203125
 30
0.0
 41
1.0
 10
95.12048339843749
 20
184.4225769042969
 30
0.0
 41
1.0
 10
95.12048339843749
 20
184.4225769042969
 30
0.0
 41
1.0
 10
95.12048339843749
 20
184.4225769042969
 30
0.0
 41
1.0
 10
95.18997955322266
 20
183.6245880126953
 30
0.0
 41
1.0
 10
95.18997955322266
 20
183.6245880126953
 30
0.0
 41
1.0
  0
SPLINE
  5
B8
330
70
100
AcDbEntity
  8
ILUSTRACE
  6
SOLID
 62
    74
100
AcDbSpline
210
0.0
220
0.0
230
1.0
 70
    12
 71
     3
 72
    11
 73
     7
 74
     0
 42
0.001
 43
0.0000000001
 40
0.0
 40
0.0
 40
0.0
 40
0.0
 40
1.0
 40
1.0
 40
1.0
 40
2.0
 40
2.0
 40
2.0
 40
2.0
 10
107.7919769287109
 20
185.4468536376953
 30
0.0
 41
1.0
 10
107.7919769287109
 20
185.4468536376953
 30
0.0
 41
1.0
 10
107.8086624145508
 20
184.5882720947265
 30
0.0
 41
1.0
 10
107.8086624145508
 20
184.5882720947265
 30
0.0
 41
1.0
 10
107.8086624145508
 20
184.5882720947265
 30
0.0
 41
1.0
 10
107.8274612426758
 20
183.6245880126953
 30
0.0
 41
1.0
 10
107.8274612426758
 20
183.6245880126953
 30
0.0
 41
1.0
  0
SPLINE
  5
B9
330
70
100
AcDbEntity
  8
ILUSTRACE
  6
SOLID
 62
    74
100
AcDbSpline
210
0.0
220
0.0
230
1.0
 70
    12
 71
     3
 72
    11
 73
     7
 74
     0
 42
0.001
 43
0.0000000001
 40
0.0
 40
0.0
 40
0.0
 40
0.0
 40
1.0
 40
1.0
 40
1.0
 40
2.0
 40
2.0
 40
2.0
 40
2.0
 10
109.2533569335937
 20
183.6245880126953
 30
0.0
 41
1.0
 10
109.2533569335937
 20
183.6245880126953
 30
0.0
 41
1.0
 10
109.2721633911132
 20
184.5882720947265
 30
0.0
 41
1.0
 10
109.2721633911132
 20
184.5882720947265
 30
0.0
 41
1.0
 10
109.2721633911132
 20
184.5882720947265
 30
0.0
 41
1.0
 10
109.2888793945312
 20
185.4468536376953
 30
0.0
 41
1.0
 10
109.2888793945312
 20
185.4468536376953
 30
0.0
 41
1.0
  0
SPLINE
  5
BA
330
70
100
AcDbEntity
  8
ILUSTRACE
  6
SOLID
 62
    74
100
AcDbSpline
210
0.0
220
0.0
230
1.0
 70
    12
 71
     3
 72
    14
 73
    10
 74
     0
 42
0.001
 43
0.0000000001
 40
0.0
 40
0.0
 40
0.0
 40
0.0
 40
1.0
 40
1.0
 40
1.0
 40
2.0
 40
2.0
 40
2.0
 40
3.0
 40
3.0
 40
3.0
 40
3.0
 10
122.0494537353515
 20
185.4468536376953
 30
0.0
 41
1.0
 10
122.0494537353515
 20
185.4468536376953
 30
0.0
 41
1.0
 10
122.0299835205078
 20
185.2227783203125
 30
0.0
 41
1.0
 10
122.0299835205078
 20
185.2227783203125
 30
0.0
 41
1.0
 10
122.0299835205078
 20
185.2227783203125
 30
0.0
 41
1.0
 10
121.9602813720703
 20
184.4225769042969
 30
0.0
 41
1.0
 10
121.9602813720703
 20
184.4225769042969
 30
0.0
 41
1.0
 10
121.9602813720703
 20
184.4225769042969
 30
0.0
 41
1.0
 10
121.8907699584961
 20
183.6245880126953
 30
0.0
 41
1.0
 10
121.8907699584961
 20
183.6245880126953
 30
0.0
 41
1.0
  0
SPLINE
  5
BB
330
70
100
AcDbEntity
  8
ILUSTRACE
  6
SOLID
 62
    74
100
AcDbSpline
210
0.0
220
0.0
230
1.0
 70
    28
 71
     3
 72
     8
 73
     4
 74
     0
 42
0.001
 43
0.0000000001
 40
0.0
 40
0.0
 40
0.0
 40
0.0
 40
1.0
 40
1.0
 40
1.0
 40
1.0
 10
111.4475708007812
 20
183.6245880126953
 30
0.0
 41
1.0
 10
111.4475708007812
 20
183.6245880126953
 30
0.0
 41
1.0
 10
111.4520797729492
 20
183.3341827392578
 30
0.0
 41
1.0
 10
111.4520797729492
 20
183.3341827392578
 30
0.0
 41
1.0
  0
SPLINE
  5
BC
330
70
100
AcDbEntity
  8
ILUSTRACE
  6
SOLID
 62
    74
100
AcDbSpline
210
0.0
220
0.0
230
1.0
 70
    28
 71
     3
 72
     8
 73
     4
 74
     0
 42
0.001
 43
0.0000000001
 40
0.0
 40
0.0
 40
0.0
 40
0.0
 40
1.0
 40
1.0
 40
1.0
 40
1.0
 10
105.6332626342773
 20
183.6245880126953
 30
0.0
 41
1.0
 10
105.6332626342773
 20
183.6245880126953
 30
0.0
 41
1.0
 10
105.6287841796875
 20
183.3341827392578
 30
0.0
 41
1.0
 10
105.6287841796875
 20
183.3341827392578
 30
0.0
 41
1.0
  0
SPLINE
  5
BD
330
70
100
AcDbEntity
  8
ILUSTRACE
  6
SOLID
 62
    75
100
AcDbSpline
210
0.0
220
0.0
230
1.0
 70
    31
 71
     3
 72
    11
 73
     7
 74
     0
 42
0.001
 43
0.0000000001
 40
0.0
 40
0.0
 40
0.0
 40
0.0
 40
1.0
 40
1.0
 40
1.0
 40
2.0
 40
2.0
 40
2.0
 40
2.0
 10
128.7883605957031
 20
145.2432861328125
 30
0.0
 41
1.0
 10
128.7883605957031
 20
145.2432861328125
 30
0.0
 41
1.0
 10
135.9934387207031
 20
145.2432861328125
 30
0.0
 41
1.0
 10
135.9934387207031
 20
145.2432861328125
 30
0.0
 41
1.0
 10
135.9934387207031
 20
145.2432861328125
 30
0.0
 41
1.0
 10
128.7883605957031
 20
145.2432861328125
 30
0.0
 41
1.0
 10
128.7883605957031
 20
145.2432861328125
 30
0.0
 41
1.0
  0
SPLINE
  5
BE
330
70
100
AcDbEntity
  8
ILUSTRACE
  6
SOLID
 62
    75
100
AcDbSpline
210
0.0
220
0.0
230
1.0
 70
    31
 71
     3
 72
    11
 73
     7
 74
     0
 42
0.001
 43
0.0000000001
 40
0.0
 40
0.0
 40
0.0
 40
0.0
 40
1.0
 40
1.0
 40
1.0
 40
2.0
 40
2.0
 40
2.0
 40
2.0
 10
129.0231628417968
 20
133.4654846191406
 30
0.0
 41
1.0
 10
129.0231628417968
 20
133.4654846191406
 30
0.0
 41
1.0
 10
136.0343627929687
 20
133.4654846191406
 30
0.0
 41
1.0
 10
136.0343627929687
 20
133.4654846191406
 30
0.0
 41
1.0
 10
136.0343627929687
 20
133.4654846191406
 30
0.0
 41
1.0
 10
129.0231628417968
 20
133.4654846191406
 30
0.0
 41
1.0
 10
129.0231628417968
 20
133.4654846191406
 30
0.0
 41
1.0
  0
SPLINE
  5
BF
330
70
100
AcDbEntity
  8
ILUSTRACE
  6
SOLID
 62
    75
100
AcDbSpline
210
0.0
220
0.0
230
1.0
 70
    31
 71
     3
 72
    11
 73
     7
 74
     0
 42
0.001
 43
0.0000000001
 40
0.0
 40
0.0
 40
0.0
 40
0.0
 40
1.0
 40
1.0
 40
1.0
 40
2.0
 40
2.0
 40
2.0
 40
2.0
 10
96.54507446289063
 20
129.9789733886719
 30
0.0
 41
1.0
 10
96.54507446289063
 20
129.9789733886719
 30
0.0
 41
1.0
 10
85.20947265625
 20
129.9789733886719
 30
0.0
 41
1.0
 10
85.20947265625
 20
129.9789733886719
 30
0.0
 41
1.0
 10
85.20947265625
 20
129.9789733886719
 30
0.0
 41
1.0
 10
96.54507446289063
 20
129.9789733886719
 30
0.0
 41
1.0
 10
96.54507446289063
 20
129.9789733886719
 30
0.0
 41
1.0
  0
SPLINE
  5
C0
330
70
100
AcDbEntity
  8
ILUSTRACE
  6
SOLID
 62
    75
100
AcDbSpline
210
0.0
220
0.0
230
1.0
 70
    31
 71
     3
 72
    11
 73
     7
 74
     0
 42
0.001
 43
0.0000000001
 40
0.0
 40
0.0
 40
0.0
 40
0.0
 40
1.0
 40
1.0
 40
1.0
 40
2.0
 40
2.0
 40
2.0
 40
2.0
 10
90.84495544433593
 20
154.2962646484375
 30
0.0
 41
1.0
 10
90.84495544433593
 20
154.2962646484375
 30
0.0
 41
1.0
 10
84.99466705322266
 20
154.2962646484375
 30
0.0
 41
1.0
 10
84.99466705322266
 20
154.2962646484375
 30
0.0
 41
1.0
 10
84.99466705322266
 20
154.2962646484375
 30
0.0
 41
1.0
 10
90.84495544433593
 20
154.2962646484375
 30
0.0
 41
1.0
 10
90.84495544433593
 20
154.2962646484375
 30
0.0
 41
1.0
  0
SPLINE
  5
C1
330
70
100
AcDbEntity
  8
ILUSTRACE
  6
SOLID
 62
    75
100
AcDbSpline
210
0.0
220
0.0
230
1.0
 70
    31
 71
     3
 72
    11
 73
     7
 74
     0
 42
0.001
 43
0.0000000001
 40
0.0
 40
0.0
 40
0.0
 40
0.0
 40
1.0
 40
1.0
 40
1.0
 40
2.0
 40
2.0
 40
2.0
 40
2.0
 10
90.90605926513672
 20
152.3949737548828
 30
0.0
 41
1.0
 10
90.90605926513672
 20
152.3949737548828
 30
0.0
 41
1.0
 10
89.2060546875
 20
152.3949737548828
 30
0.0
 41
1.0
 10
89.2060546875
 20
152.3949737548828
 30
0.0
 41
1.0
 10
89.2060546875
 20
152.3949737548828
 30
0.0
 41
1.0
 10
90.90605926513672
 20
152.3949737548828
 30
0.0
 41
1.0
 10
90.90605926513672
 20
152.3949737548828
 30
0.0
 41
1.0
  0
SPLINE
  5
C2
330
70
100
AcDbEntity
  8
ILUSTRACE
  6
SOLID
 62
    75
100
AcDbSpline
210
0.0
220
0.0
230
1.0
 70
    31
 71
     3
 72
    11
 73
     7
 74
     0
 42
0.001
 43
0.0000000001
 40
0.0
 40
0.0
 40
0.0
 40
0.0
 40
1.0
 40
1.0
 40
1.0
 40
2.0
 40
2.0
 40
2.0
 40
2.0
 10
125.4536590576172
 20
186.763671875
 30
0.0
 41
1.0
 10
125.4536590576172
 20
186.763671875
 30
0.0
 41
1.0
 10
125.4536590576172
 20
189.6694793701172
 30
0.0
 41
1.0
 10
125.4536590576172
 20
189.6694793701172
 30
0.0
 41
1.0
 10
125.4536590576172
 20
189.6694793701172
 30
0.0
 41
1.0
 10
125.4536590576172
 20
186.763671875
 30
0.0
 41
1.0
 10
125.4536590576172
 20
186.763671875
 30
0.0
 41
1.0
  0
SPLINE
  5
C3
330
70
100
AcDbEntity
  8
ILUSTRACE
  6
SOLID
 62
    75
100
AcDbSpline
210
0.0
220
0.0
230
1.0
 70
    31
 71
     3
 72
    11
 73
     7
 74
     0
 42
0.001
 43
0.0000000001
 40
0.0
 40
0.0
 40
0.0
 40
0.0
 40
1.0
 40
1.0
 40
1.0
 40
2.0
 40
2.0
 40
2.0
 40
2.0
 10
91.75476837158203
 20
186.6314849853515
 30
0.0
 41
1.0
 10
91.75476837158203
 20
186.6314849853515
 30
0.0
 41
1.0
 10
91.75476837158203
 20
189.8925628662109
 30
0.0
 41
1.0
 10
91.75476837158203
 20
189.8925628662109
 30
0.0
 41
1.0
 10
91.75476837158203
 20
189.8925628662109
 30
0.0
 41
1.0
 10
91.75476837158203
 20
186.6314849853515
 30
0.0
 41
1.0
 10
91.75476837158203
 20
186.6314849853515
 30
0.0
 41
1.0
  0
SPLINE
  5
C4
330
70
100
AcDbEntity
  8
ILUSTRACE
  6
SOLID
 62
    74
100
AcDbSpline
210
0.0
220
0.0
230
1.0
 70
    31
 71
     3
 72
    11
 73
     7
 74
     0
 42
0.001
 43
0.0000000001
 40
0.0
 40
0.0
 40
0.0
 40
0.0
 40
1.0
 40
1.0
 40
1.0
 40
2.0
 40
2.0
 40
2.0
 40
2.0
 10
98.54747009277344
 20
129.9789733886719
 30
0.0
 41
1.0
 10
98.54747009277344
 20
129.9789733886719
 30
0.0
 41
1.0
 10
118.6609497070312
 20
129.9789733886719
 30
0.0
 41
1.0
 10
118.6609497070312
 20
129.9789733886719
 30
0.0
 41
1.0
 10
118.6609497070312
 20
129.9789733886719
 30
0.0
 41
1.0
 10
98.54747009277344
 20
129.9789733886719
 30
0.0
 41
1.0
 10
98.54747009277344
 20
129.9789733886719
 30
0.0
 41
1.0
  0
SPLINE
  5
C5
330
70
100
AcDbEntity
  8
ILUSTRACE
  6
SOLID
 62
    74
100
AcDbSpline
210
0.0
220
0.0
230
1.0
 70
    31
 71
     3
 72
    11
 73
     7
 74
     0
 42
0.001
 43
0.0000000001
 40
0.0
 40
0.0
 40
0.0
 40
0.0
 40
1.0
 40
1.0
 40
1.0
 40
2.0
 40
2.0
 40
2.0
 40
2.0
 10
127.3548812866211
 20
131.297378540039
 30
0.0
 41
1.0
 10
127.3548812866211
 20
131.297378540039
 30
0.0
 41
1.0
 10
123.8391647338867
 20
131.297378540039
 30
0.0
 41
1.0
 10
123.8391647338867
 20
131.297378540039
 30
0.0
 41
1.0
 10
123.8391647338867
 20
131.297378540039
 30
0.0
 41
1.0
 10
127.3548812866211
 20
131.297378540039
 30
0.0
 41
1.0
 10
127.3548812866211
 20
131.297378540039
 30
0.0
 41
1.0
  0
SPLINE
  5
C6
330
70
100
AcDbEntity
  8
ILUSTRACE
  6
SOLID
 62
    74
100
AcDbSpline
210
0.0
220
0.0
230
1.0
 70
    31
 71
     3
 72
    11
 73
     7
 74
     0
 42
0.001
 43
0.0000000001
 40
0.0
 40
0.0
 40
0.0
 40
0.0
 40
1.0
 40
1.0
 40
1.0
 40
2.0
 40
2.0
 40
2.0
 40
2.0
 10
127.9408798217773
 20
131.4438934326172
 30
0.0
 41
1.0
 10
127.9408798217773
 20
131.4438934326172
 30
0.0
 41
1.0
 10
127.3548812866211
 20
131.4438934326172
 30
0.0
 41
1.0
 10
127.3548812866211
 20
131.4438934326172
 30
0.0
 41
1.0
 10
127.3548812866211
 20
131.4438934326172
 30
0.0
 41
1.0
 10
127.9408798217773
 20
131.4438934326172
 30
0.0
 41
1.0
 10
127.9408798217773
 20
131.4438934326172
 30
0.0
 41
1.0
  0
SPLINE
  5
C7
330
70
100
AcDbEntity
  8
ILUSTRACE
  6
SOLID
 62
    74
100
AcDbSpline
210
0.0
220
0.0
230
1.0
 70
    31
 71
     3
 72
    11
 73
     7
 74
     0
 42
0.001
 43
0.0000000001
 40
0.0
 40
0.0
 40
0.0
 40
0.0
 40
1.0
 40
1.0
 40
1.0
 40
2.0
 40
2.0
 40
2.0
 40
2.0
 10
126.7689819335937
 20
131.4656829833984
 30
0.0
 41
1.0
 10
126.7689819335937
 20
131.4656829833984
 30
0.0
 41
1.0
 10
124.7180786132812
 20
131.4656829833984
 30
0.0
 41
1.0
 10
124.7180786132812
 20
131.4656829833984
 30
0.0
 41
1.0
 10
124.7180786132812
 20
131.4656829833984
 30
0.0
 41
1.0
 10
126.7689819335937
 20
131.4656829833984
 30
0.0
 41
1.0
 10
126.7689819335937
 20
131.4656829833984
 30
0.0
 41
1.0
  0
SPLINE
  5
C8
330
70
100
AcDbEntity
  8
ILUSTRACE
  6
SOLID
 62
    74
100
AcDbSpline
210
0.0
220
0.0
230
1.0
 70
    31
 71
     3
 72
    11
 73
     7
 74
     0
 42
0.001
 43
0.0000000001
 40
0.0
 40
0.0
 40
0.0
 40
0.0
 40
1.0
 40
1.0
 40
1.0
 40
2.0
 40
2.0
 40
2.0
 40
2.0
 10
123.282485961914
 20
132.3960723876953
 30
0.0
 41
1.0
 10
123.282485961914
 20
132.3960723876953
 30
0.0
 41
1.0
 10
123.8391647338867
 20
132.3960723876953
 30
0.0
 41
1.0
 10
123.8391647338867
 20
132.3960723876953
 30
0.0
 41
1.0
 10
123.8391647338867
 20
132.3960723876953
 30
0.0
 41
1.0
 10
123.282485961914
 20
132.3960723876953
 30
0.0
 41
1.0
 10
123.282485961914
 20
132.3960723876953
 30
0.0
 41
1.0
  0
SPLINE
  5
C9
330
70
100
AcDbEntity
  8
ILUSTRACE
  6
SOLID
 62
    74
100
AcDbSpline
210
0.0
220
0.0
230
1.0
 70
    31
 71
     3
 72
    11
 73
     7
 74
     0
 42
0.001
 43
0.0000000001
 40
0.0
 40
0.0
 40
0.0
 40
0.0
 40
1.0
 40
1.0
 40
1.0
 40
2.0
 40
2.0
 40
2.0
 40
2.0
 10
121.7791595458984
 20
132.9154663085937
 30
0.0
 41
1.0
 10
121.7791595458984
 20
132.9154663085937
 30
0.0
 41
1.0
 10
123.282485961914
 20
132.9154663085937
 30
0.0
 41
1.0
 10
123.282485961914
 20
132.9154663085937
 30
0.0
 41
1.0
 10
123.282485961914
 20
132.9154663085937
 30
0.0
 41
1.0
 10
121.7791595458984
 20
132.9154663085937
 30
0.0
 41
1.0
 10
121.7791595458984
 20
132.9154663085937
 30
0.0
 41
1.0
  0
SPLINE
  5
CA
330
70
100
AcDbEntity
  8
ILUSTRACE
  6
SOLID
 62
    74
100
AcDbSpline
210
0.0
220
0.0
230
1.0
 70
    31
 71
     3
 72
    11
 73
     7
 74
     0
 42
0.001
 43
0.0000000001
 40
0.0
 40
0.0
 40
0.0
 40
0.0
 40
1.0
 40
1.0
 40
1.0
 40
2.0
 40
2.0
 40
2.0
 40
2.0
 10
124.7180786132812
 20
133.2579803466797
 30
0.0
 41
1.0
 10
124.7180786132812
 20
133.2579803466797
 30
0.0
 41
1.0
 10
126.7689819335937
 20
133.2579803466797
 30
0.0
 41
1.0
 10
126.7689819335937
 20
133.2579803466797
 30
0.0
 41
1.0
 10
126.7689819335937
 20
133.2579803466797
 30
0.0
 41
1.0
 10
124.7180786132812
 20
133.2579803466797
 30
0.0
 41
1.0
 10
124.7180786132812
 20
133.2579803466797
 30
0.0
 41
1.0
  0
SPLINE
  5
CB
330
70
100
AcDbEntity
  8
ILUSTRACE
  6
SOLID
 62
    74
100
AcDbSpline
210
0.0
220
0.0
230
1.0
 70
    31
 71
     3
 72
    11
 73
     7
 74
     0
 42
0.001
 43
0.0000000001
 40
0.0
 40
0.0
 40
0.0
 40
0.0
 40
1.0
 40
1.0
 40
1.0
 40
2.0
 40
2.0
 40
2.0
 40
2.0
 10
124.7180786132812
 20
134.086685180664
 30
0.0
 41
1.0
 10
124.7180786132812
 20
134.086685180664
 30
0.0
 41
1.0
 10
126.7689819335937
 20
134.086685180664
 30
0.0
 41
1.0
 10
126.7689819335937
 20
134.086685180664
 30
0.0
 41
1.0
 10
126.7689819335937
 20
134.086685180664
 30
0.0
 41
1.0
 10
124.7180786132812
 20
134.086685180664
 30
0.0
 41
1.0
 10
124.7180786132812
 20
134.086685180664
 30
0.0
 41
1.0
  0
SPLINE
  5
CC
330
70
100
AcDbEntity
  8
ILUSTRACE
  6
SOLID
 62
    74
100
AcDbSpline
210
0.0
220
0.0
230
1.0
 70
    31
 71
     3
 72
    11
 73
     7
 74
     0
 42
0.001
 43
0.0000000001
 40
0.0
 40
0.0
 40
0.0
 40
0.0
 40
1.0
 40
1.0
 40
1.0
 40
2.0
 40
2.0
 40
2.0
 40
2.0
 10
91.31845092773437
 20
151.3664855957031
 30
0.0
 41
1.0
 10
91.31845092773437
 20
151.3664855957031
 30
0.0
 41
1.0
 10
91.31845092773437
 20
152.391860961914
 30
0.0
 41
1.0
 10
91.31845092773437
 20
152.391860961914
 30
0.0
 41
1.0
 10
91.31845092773437
 20
152.391860961914
 30
0.0
 41
1.0
 10
91.31845092773437
 20
151.3664855957031
 30
0.0
 41
1.0
 10
91.31845092773437
 20
151.3664855957031
 30
0.0
 41
1.0
  0
SPLINE
  5
CD
330
70
100
AcDbEntity
  8
ILUSTRACE
  6
SOLID
 62
    74
100
AcDbSpline
210
0.0
220
0.0
230
1.0
 70
    31
 71
     3
 72
    11
 73
     7
 74
     0
 42
0.001
 43
0.0000000001
 40
0.0
 40
0.0
 40
0.0
 40
0.0
 40
1.0
 40
1.0
 40
1.0
 40
2.0
 40
2.0
 40
2.0
 40
2.0
 10
91.75798034667968
 20
152.391860961914
 30
0.0
 41
1.0
 10
91.75798034667968
 20
152.391860961914
 30
0.0
 41
1.0
 10
91.75798034667968
 20
154.2962646484375
 30
0.0
 41
1.0
 10
91.75798034667968
 20
154.2962646484375
 30
0.0
 41
1.0
 10
91.75798034667968
 20
154.2962646484375
 30
0.0
 41
1.0
 10
91.75798034667968
 20
152.391860961914
 30
0.0
 41
1.0
 10
91.75798034667968
 20
152.391860961914
 30
0.0
 41
1.0
  0
SPLINE
  5
CE
330
70
100
AcDbEntity
  8
ILUSTRACE
  6
SOLID
 62
    74
100
AcDbSpline
210
0.0
220
0.0
230
1.0
 70
    31
 71
     3
 72
    11
 73
     7
 74
     0
 42
0.001
 43
0.0000000001
 40
0.0
 40
0.0
 40
0.0
 40
0.0
 40
1.0
 40
1.0
 40
1.0
 40
2.0
 40
2.0
 40
2.0
 40
2.0
 10
91.90444946289062
 20
161.0347747802734
 30
0.0
 41
1.0
 10
91.90444946289062
 20
161.0347747802734
 30
0.0
 41
1.0
 10
91.90444946289062
 20
161.3277740478515
 30
0.0
 41
1.0
 10
91.90444946289062
 20
161.3277740478515
 30
0.0
 41
1.0
 10
91.90444946289062
 20
161.3277740478515
 30
0.0
 41
1.0
 10
91.90444946289062
 20
161.0347747802734
 30
0.0
 41
1.0
 10
91.90444946289062
 20
161.0347747802734
 30
0.0
 41
1.0
  0
SPLINE
  5
CF
330
70
100
AcDbEntity
  8
ILUSTRACE
  6
SOLID
 62
    74
100
AcDbSpline
210
0.0
220
0.0
230
1.0
 70
    31
 71
     3
 72
    11
 73
     7
 74
     0
 42
0.001
 43
0.0000000001
 40
0.0
 40
0.0
 40
0.0
 40
0.0
 40
1.0
 40
1.0
 40
1.0
 40
2.0
 40
2.0
 40
2.0
 40
2.0
 10
124.7180786132812
 20
138.7683715820312
 30
0.0
 41
1.0
 10
124.7180786132812
 20
138.7683715820312
 30
0.0
 41
1.0
 10
126.7689819335937
 20
138.7683715820312
 30
0.0
 41
1.0
 10
126.7689819335937
 20
138.7683715820312
 30
0.0
 41
1.0
 10
126.7689819335937
 20
138.7683715820312
 30
0.0
 41
1.0
 10
124.7180786132812
 20
138.7683715820312
 30
0.0
 41
1.0
 10
124.7180786132812
 20
138.7683715820312
 30
0.0
 41
1.0
  0
SPLINE
  5
D0
330
70
100
AcDbEntity
  8
ILUSTRACE
  6
SOLID
 62
    74
100
AcDbSpline
210
0.0
220
0.0
230
1.0
 70
    31
 71
     3
 72
    11
 73
     7
 74
     0
 42
0.001
 43
0.0000000001
 40
0.0
 40
0.0
 40
0.0
 40
0.0
 40
1.0
 40
1.0
 40
1.0
 40
2.0
 40
2.0
 40
2.0
 40
2.0
 10
124.7180786132812
 20
139.9402923583984
 30
0.0
 41
1.0
 10
124.7180786132812
 20
139.9402923583984
 30
0.0
 41
1.0
 10
126.7689819335937
 20
139.9402923583984
 30
0.0
 41
1.0
 10
126.7689819335937
 20
139.9402923583984
 30
0.0
 41
1.0
 10
126.7689819335937
 20
139.9402923583984
 30
0.0
 41
1.0
 10
124.7180786132812
 20
139.9402923583984
 30
0.0
 41
1.0
 10
124.7180786132812
 20
139.9402923583984
 30
0.0
 41
1.0
  0
SPLINE
  5
D1
330
70
100
AcDbEntity
  8
ILUSTRACE
  6
SOLID
 62
    74
100
AcDbSpline
210
0.0
220
0.0
230
1.0
 70
    31
 71
     3
 72
    11
 73
     7
 74
     0
 42
0.001
 43
0.0000000001
 40
0.0
 40
0.0
 40
0.0
 40
0.0
 40
1.0
 40
1.0
 40
1.0
 40
2.0
 40
2.0
 40
2.0
 40
2.0
 10
92.9599609375
 20
150.8431701660156
 30
0.0
 41
1.0
 10
92.9599609375
 20
150.8431701660156
 30
0.0
 41
1.0
 10
95.11236572265625
 20
148.0355987548828
 30
0.0
 41
1.0
 10
95.11236572265625
 20
148.0355987548828
 30
0.0
 41
1.0
 10
95.11236572265625
 20
148.0355987548828
 30
0.0
 41
1.0
 10
92.9599609375
 20
150.8431701660156
 30
0.0
 41
1.0
 10
92.9599609375
 20
150.8431701660156
 30
0.0
 41
1.0
  0
SPLINE
  5
D2
330
70
100
AcDbEntity
  8
ILUSTRACE
  6
SOLID
 62
    74
100
AcDbSpline
210
0.0
220
0.0
230
1.0
 70
    31
 71
     3
 72
    11
 73
     7
 74
     0
 42
0.001
 43
0.0000000001
 40
0.0
 40
0.0
 40
0.0
 40
0.0
 40
1.0
 40
1.0
 40
1.0
 40
2.0
 40
2.0
 40
2.0
 40
2.0
 10
95.1087646484375
 20
148.040283203125
 30
0.0
 41
1.0
 10
95.1087646484375
 20
148.040283203125
 30
0.0
 41
1.0
 10
95.42016601562499
 20
144.481460571289
 30
0.0
 41
1.0
 10
95.42016601562499
 20
144.481460571289
 30
0.0
 41
1.0
 10
95.42016601562499
 20
144.481460571289
 30
0.0
 41
1.0
 10
95.1087646484375
 20
148.040283203125
 30
0.0
 41
1.0
 10
95.1087646484375
 20
148.040283203125
 30
0.0
 41
1.0
  0
SPLINE
  5
D3
330
70
100
AcDbEntity
  8
ILUSTRACE
  6
SOLID
 62
    74
100
AcDbSpline
210
0.0
220
0.0
230
1.0
 70
    31
 71
     3
 72
    11
 73
     7
 74
     0
 42
0.001
 43
0.0000000001
 40
0.0
 40
0.0
 40
0.0
 40
0.0
 40
1.0
 40
1.0
 40
1.0
 40
2.0
 40
2.0
 40
2.0
 40
2.0
 10
95.42016601562499
 20
133.1062774658203
 30
0.0
 41
1.0
 10
95.42016601562499
 20
133.1062774658203
 30
0.0
 41
1.0
 10
95.42016601562499
 20
144.481460571289
 30
0.0
 41
1.0
 10
95.42016601562499
 20
144.481460571289
 30
0.0
 41
1.0
 10
95.42016601562499
 20
144.481460571289
 30
0.0
 41
1.0
 10
95.42016601562499
 20
133.1062774658203
 30
0.0
 41
1.0
 10
95.42016601562499
 20
133.1062774658203
 30
0.0
 41
1.0
  0
SPLINE
  5
D4
330
70
100
AcDbEntity
  8
ILUSTRACE
  6
SOLID
 62
    74
100
AcDbSpline
210
0.0
220
0.0
230
1.0
 70
    31
 71
     3
 72
    11
 73
     7
 74
     0
 42
0.001
 43
0.0000000001
 40
0.0
 40
0.0
 40
0.0
 40
0.0
 40
1.0
 40
1.0
 40
1.0
 40
2.0
 40
2.0
 40
2.0
 40
2.0
 10
96.15267181396484
 20
154.2962646484375
 30
0.0
 41
1.0
 10
96.15267181396484
 20
154.2962646484375
 30
0.0
 41
1.0
 10
96.15267181396484
 20
158.3979797363281
 30
0.0
 41
1.0
 10
96.15267181396484
 20
158.3979797363281
 30
0.0
 41
1.0
 10
96.15267181396484
 20
158.3979797363281
 30
0.0
 41
1.0
 10
96.15267181396484
 20
154.2962646484375
 30
0.0
 41
1.0
 10
96.15267181396484
 20
154.2962646484375
 30
0.0
 41
1.0
  0
SPLINE
  5
D5
330
70
100
AcDbEntity
  8
ILUSTRACE
  6
SOLID
 62
    74
100
AcDbSpline
210
0.0
220
0.0
230
1.0
 70
    31
 71
     3
 72
    11
 73
     7
 74
     0
 42
0.001
 43
0.0000000001
 40
0.0
 40
0.0
 40
0.0
 40
0.0
 40
1.0
 40
1.0
 40
1.0
 40
2.0
 40
2.0
 40
2.0
 40
2.0
 10
124.7180786132812
 20
144.622085571289
 30
0.0
 41
1.0
 10
124.7180786132812
 20
144.622085571289
 30
0.0
 41
1.0
 10
126.7689819335937
 20
144.622085571289
 30
0.0
 41
1.0
 10
126.7689819335937
 20
144.622085571289
 30
0.0
 41
1.0
 10
126.7689819335937
 20
144.622085571289
 30
0.0
 41
1.0
 10
124.7180786132812
 20
144.622085571289
 30
0.0
 41
1.0
 10
124.7180786132812
 20
144.622085571289
 30
0.0
 41
1.0
  0
SPLINE
  5
D6
330
70
100
AcDbEntity
  8
ILUSTRACE
  6
SOLID
 62
    74
100
AcDbSpline
210
0.0
220
0.0
230
1.0
 70
    31
 71
     3
 72
    11
 73
     7
 74
     0
 42
0.001
 43
0.0000000001
 40
0.0
 40
0.0
 40
0.0
 40
0.0
 40
1.0
 40
1.0
 40
1.0
 40
2.0
 40
2.0
 40
2.0
 40
2.0
 10
96.15267181396484
 20
158.3979797363281
 30
0.0
 41
1.0
 10
96.15267181396484
 20
158.3979797363281
 30
0.0
 41
1.0
 10
95.97078704833984
 20
159.429458618164
 30
0.0
 41
1.0
 10
95.97078704833984
 20
159.429458618164
 30
0.0
 41
1.0
 10
95.97078704833984
 20
159.429458618164
 30
0.0
 41
1.0
 10
96.15267181396484
 20
158.3979797363281
 30
0.0
 41
1.0
 10
96.15267181396484
 20
158.3979797363281
 30
0.0
 41
1.0
  0
SPLINE
  5
D7
330
70
100
AcDbEntity
  8
ILUSTRACE
  6
SOLID
 62
    74
100
AcDbSpline
210
0.0
220
0.0
230
1.0
 70
    31
 71
     3
 72
    11
 73
     7
 74
     0
 42
0.001
 43
0.0000000001
 40
0.0
 40
0.0
 40
0.0
 40
0.0
 40
1.0
 40
1.0
 40
1.0
 40
2.0
 40
2.0
 40
2.0
 40
2.0
 10
124.7180786132812
 20
145.45068359375
 30
0.0
 41
1.0
 10
124.7180786132812
 20
145.45068359375
 30
0.0
 41
1.0
 10
126.7689819335937
 20
145.45068359375
 30
0.0
 41
1.0
 10
126.7689819335937
 20
145.45068359375
 30
0.0
 41
1.0
 10
126.7689819335937
 20
145.45068359375
 30
0.0
 41
1.0
 10
124.7180786132812
 20
145.45068359375
 30
0.0
 41
1.0
 10
124.7180786132812
 20
145.45068359375
 30
0.0
 41
1.0
  0
SPLINE
  5
D8
330
70
100
AcDbEntity
  8
ILUSTRACE
  6
SOLID
 62
    74
100
AcDbSpline
210
0.0
220
0.0
230
1.0
 70
    31
 71
     3
 72
    11
 73
     7
 74
     0
 42
0.001
 43
0.0000000001
 40
0.0
 40
0.0
 40
0.0
 40
0.0
 40
1.0
 40
1.0
 40
1.0
 40
2.0
 40
2.0
 40
2.0
 40
2.0
 10
121.9021759033203
 20
145.7998657226562
 30
0.0
 41
1.0
 10
121.9021759033203
 20
145.7998657226562
 30
0.0
 41
1.0
 10
123.282485961914
 20
145.7998657226562
 30
0.0
 41
1.0
 10
123.282485961914
 20
145.7998657226562
 30
0.0
 41
1.0
 10
123.282485961914
 20
145.7998657226562
 30
0.0
 41
1.0
 10
121.9021759033203
 20
145.7998657226562
 30
0.0
 41
1.0
 10
121.9021759033203
 20
145.7998657226562
 30
0.0
 41
1.0
  0
SPLINE
  5
D9
330
70
100
AcDbEntity
  8
ILUSTRACE
  6
SOLID
 62
    74
100
AcDbSpline
210
0.0
220
0.0
230
1.0
 70
    31
 71
     3
 72
    11
 73
     7
 74
     0
 42
0.001
 43
0.0000000001
 40
0.0
 40
0.0
 40
0.0
 40
0.0
 40
1.0
 40
1.0
 40
1.0
 40
2.0
 40
2.0
 40
2.0
 40
2.0
 10
123.282485961914
 20
146.3125915527343
 30
0.0
 41
1.0
 10
123.282485961914
 20
146.3125915527343
 30
0.0
 41
1.0
 10
123.8391647338867
 20
146.3125915527343
 30
0.0
 41
1.0
 10
123.8391647338867
 20
146.3125915527343
 30
0.0
 41
1.0
 10
123.8391647338867
 20
146.3125915527343
 30
0.0
 41
1.0
 10
123.282485961914
 20
146.3125915527343
 30
0.0
 41
1.0
 10
123.282485961914
 20
146.3125915527343
 30
0.0
 41
1.0
  0
SPLINE
  5
DA
330
70
100
AcDbEntity
  8
ILUSTRACE
  6
SOLID
 62
    74
100
AcDbSpline
210
0.0
220
0.0
230
1.0
 70
    31
 71
     3
 72
    11
 73
     7
 74
     0
 42
0.001
 43
0.0000000001
 40
0.0
 40
0.0
 40
0.0
 40
0.0
 40
1.0
 40
1.0
 40
1.0
 40
2.0
 40
2.0
 40
2.0
 40
2.0
 10
125.5573806762695
 20
151.0734710693359
 30
0.0
 41
1.0
 10
125.5573806762695
 20
151.0734710693359
 30
0.0
 41
1.0
 10
124.2480697631836
 20
150.8425750732422
 30
0.0
 41
1.0
 10
124.2480697631836
 20
150.8425750732422
 30
0.0
 41
1.0
 10
124.2480697631836
 20
150.8425750732422
 30
0.0
 41
1.0
 10
125.5573806762695
 20
151.0734710693359
 30
0.0
 41
1.0
 10
125.5573806762695
 20
151.0734710693359
 30
0.0
 41
1.0
  0
SPLINE
  5
DB
330
70
100
AcDbEntity
  8
ILUSTRACE
  6
SOLID
 62
    74
100
AcDbSpline
210
0.0
220
0.0
230
1.0
 70
    31
 71
     3
 72
    11
 73
     7
 74
     0
 42
0.001
 43
0.0000000001
 40
0.0
 40
0.0
 40
0.0
 40
0.0
 40
1.0
 40
1.0
 40
1.0
 40
2.0
 40
2.0
 40
2.0
 40
2.0
 10
126.7689819335937
 20
147.2430725097656
 30
0.0
 41
1.0
 10
126.7689819335937
 20
147.2430725097656
 30
0.0
 41
1.0
 10
124.7180786132812
 20
147.2430725097656
 30
0.0
 41
1.0
 10
124.7180786132812
 20
147.2430725097656
 30
0.0
 41
1.0
 10
124.7180786132812
 20
147.2430725097656
 30
0.0
 41
1.0
 10
126.7689819335937
 20
147.2430725097656
 30
0.0
 41
1.0
 10
126.7689819335937
 20
147.2430725097656
 30
0.0
 41
1.0
  0
SPLINE
  5
DC
330
70
100
AcDbEntity
  8
ILUSTRACE
  6
SOLID
 62
    74
100
AcDbSpline
210
0.0
220
0.0
230
1.0
 70
    31
 71
     3
 72
    11
 73
     7
 74
     0
 42
0.001
 43
0.0000000001
 40
0.0
 40
0.0
 40
0.0
 40
0.0
 40
1.0
 40
1.0
 40
1.0
 40
2.0
 40
2.0
 40
2.0
 40
2.0
 10
127.9408798217773
 20
147.2647705078125
 30
0.0
 41
1.0
 10
127.9408798217773
 20
147.2647705078125
 30
0.0
 41
1.0
 10
127.3548812866211
 20
147.2647705078125
 30
0.0
 41
1.0
 10
127.3548812866211
 20
147.2647705078125
 30
0.0
 41
1.0
 10
127.3548812866211
 20
147.2647705078125
 30
0.0
 41
1.0
 10
127.9408798217773
 20
147.2647705078125
 30
0.0
 41
1.0
 10
127.9408798217773
 20
147.2647705078125
 30
0.0
 41
1.0
  0
SPLINE
  5
DD
330
70
100
AcDbEntity
  8
ILUSTRACE
  6
SOLID
 62
    74
100
AcDbSpline
210
0.0
220
0.0
230
1.0
 70
    31
 71
     3
 72
    11
 73
     7
 74
     0
 42
0.001
 43
0.0000000001
 40
0.0
 40
0.0
 40
0.0
 40
0.0
 40
1.0
 40
1.0
 40
1.0
 40
2.0
 40
2.0
 40
2.0
 40
2.0
 10
127.3548812866211
 20
147.4112854003906
 30
0.0
 41
1.0
 10
127.3548812866211
 20
147.4112854003906
 30
0.0
 41
1.0
 10
123.8391647338867
 20
147.4112854003906
 30
0.0
 41
1.0
 10
123.8391647338867
 20
147.4112854003906
 30
0.0
 41
1.0
 10
123.8391647338867
 20
147.4112854003906
 30
0.0
 41
1.0
 10
127.3548812866211
 20
147.4112854003906
 30
0.0
 41
1.0
 10
127.3548812866211
 20
147.4112854003906
 30
0.0
 41
1.0
  0
SPLINE
  5
DE
330
70
100
AcDbEntity
  8
ILUSTRACE
  6
SOLID
 62
    74
100
AcDbSpline
210
0.0
220
0.0
230
1.0
 70
    31
 71
     3
 72
    11
 73
     7
 74
     0
 42
0.001
 43
0.0000000001
 40
0.0
 40
0.0
 40
0.0
 40
0.0
 40
1.0
 40
1.0
 40
1.0
 40
2.0
 40
2.0
 40
2.0
 40
2.0
 10
91.65105438232421
 20
151.0734710693359
 30
0.0
 41
1.0
 10
91.65105438232421
 20
151.0734710693359
 30
0.0
 41
1.0
 10
92.9603500366211
 20
150.8425750732422
 30
0.0
 41
1.0
 10
92.9603500366211
 20
150.8425750732422
 30
0.0
 41
1.0
 10
92.9603500366211
 20
150.8425750732422
 30
0.0
 41
1.0
 10
91.65105438232421
 20
151.0734710693359
 30
0.0
 41
1.0
 10
91.65105438232421
 20
151.0734710693359
 30
0.0
 41
1.0
  0
SPLINE
  5
DF
330
70
100
AcDbEntity
  8
ILUSTRACE
  6
SOLID
 62
    74
100
AcDbSpline
210
0.0
220
0.0
230
1.0
 70
    31
 71
     3
 72
    11
 73
     7
 74
     0
 42
0.001
 43
0.0000000001
 40
0.0
 40
0.0
 40
0.0
 40
0.0
 40
1.0
 40
1.0
 40
1.0
 40
2.0
 40
2.0
 40
2.0
 40
2.0
 10
122.9761734008789
 20
150.6188812255859
 30
0.0
 41
1.0
 10
122.9761734008789
 20
150.6188812255859
 30
0.0
 41
1.0
 10
108.8972625732422
 20
150.6188812255859
 30
0.0
 41
1.0
 10
108.8972625732422
 20
150.6188812255859
 30
0.0
 41
1.0
 10
108.8972625732422
 20
150.6188812255859
 30
0.0
 41
1.0
 10
122.9761734008789
 20
150.6188812255859
 30
0.0
 41
1.0
 10
122.9761734008789
 20
150.6188812255859
 30
0.0
 41
1.0
  0
SPLINE
  5
E0
330
70
100
AcDbEntity
  8
ILUSTRACE
  6
SOLID
 62
    74
100
AcDbSpline
210
0.0
220
0.0
230
1.0
 70
    31
 71
     3
 72
    11
 73
     7
 74
     0
 42
0.001
 43
0.0000000001
 40
0.0
 40
0.0
 40
0.0
 40
0.0
 40
1.0
 40
1.0
 40
1.0
 40
2.0
 40
2.0
 40
2.0
 40
2.0
 10
108.3112640380859
 20
150.6188812255859
 30
0.0
 41
1.0
 10
108.3112640380859
 20
150.6188812255859
 30
0.0
 41
1.0
 10
94.23226165771485
 20
150.6188812255859
 30
0.0
 41
1.0
 10
94.23226165771485
 20
150.6188812255859
 30
0.0
 41
1.0
 10
94.23226165771485
 20
150.6188812255859
 30
0.0
 41
1.0
 10
108.3112640380859
 20
150.6188812255859
 30
0.0
 41
1.0
 10
108.3112640380859
 20
150.6188812255859
 30
0.0
 41
1.0
  0
SPLINE
  5
E1
330
70
100
AcDbEntity
  8
ILUSTRACE
  6
SOLID
 62
    74
100
AcDbSpline
210
0.0
220
0.0
230
1.0
 70
    31
 71
     3
 72
    11
 73
     7
 74
     0
 42
0.001
 43
0.0000000001
 40
0.0
 40
0.0
 40
0.0
 40
0.0
 40
1.0
 40
1.0
 40
1.0
 40
2.0
 40
2.0
 40
2.0
 40
2.0
 10
125.8899688720703
 20
151.3664855957031
 30
0.0
 41
1.0
 10
125.8899688720703
 20
151.3664855957031
 30
0.0
 41
1.0
 10
91.31845092773437
 20
151.3664855957031
 30
0.0
 41
1.0
 10
91.31845092773437
 20
151.3664855957031
 30
0.0
 41
1.0
 10
91.31845092773437
 20
151.3664855957031
 30
0.0
 41
1.0
 10
125.8899688720703
 20
151.3664855957031
 30
0.0
 41
1.0
 10
125.8899688720703
 20
151.3664855957031
 30
0.0
 41
1.0
  0
SPLINE
  5
E2
330
70
100
AcDbEntity
  8
ILUSTRACE
  6
SOLID
 62
    74
100
AcDbSpline
210
0.0
220
0.0
230
1.0
 70
    31
 71
     3
 72
    11
 73
     7
 74
     0
 42
0.001
 43
0.0000000001
 40
0.0
 40
0.0
 40
0.0
 40
0.0
 40
1.0
 40
1.0
 40
1.0
 40
2.0
 40
2.0
 40
2.0
 40
2.0
 10
91.31845092773437
 20
152.391860961914
 30
0.0
 41
1.0
 10
91.31845092773437
 20
152.391860961914
 30
0.0
 41
1.0
 10
125.8899688720703
 20
152.391860961914
 30
0.0
 41
1.0
 10
125.8899688720703
 20
152.391860961914
 30
0.0
 41
1.0
 10
125.8899688720703
 20
152.391860961914
 30
0.0
 41
1.0
 10
91.31845092773437
 20
152.391860961914
 30
0.0
 41
1.0
 10
91.31845092773437
 20
152.391860961914
 30
0.0
 41
1.0
  0
SPLINE
  5
E3
330
70
100
AcDbEntity
  8
ILUSTRACE
  6
SOLID
 62
    74
100
AcDbSpline
210
0.0
220
0.0
230
1.0
 70
    31
 71
     3
 72
    11
 73
     7
 74
     0
 42
0.001
 43
0.0000000001
 40
0.0
 40
0.0
 40
0.0
 40
0.0
 40
1.0
 40
1.0
 40
1.0
 40
2.0
 40
2.0
 40
2.0
 40
2.0
 10
93.42675781249999
 20
160.1558685302734
 30
0.0
 41
1.0
 10
93.42675781249999
 20
160.1558685302734
 30
0.0
 41
1.0
 10
91.90444946289062
 20
161.0347747802734
 30
0.0
 41
1.0
 10
91.90444946289062
 20
161.0347747802734
 30
0.0
 41
1.0
 10
91.90444946289062
 20
161.0347747802734
 30
0.0
 41
1.0
 10
93.42675781249999
 20
160.1558685302734
 30
0.0
 41
1.0
 10
93.42675781249999
 20
160.1558685302734
 30
0.0
 41
1.0
  0
SPLINE
  5
E4
330
70
100
AcDbEntity
  8
ILUSTRACE
  6
SOLID
 62
    74
100
AcDbSpline
210
0.0
220
0.0
230
1.0
 70
    31
 71
     3
 72
    11
 73
     7
 74
     0
 42
0.001
 43
0.0000000001
 40
0.0
 40
0.0
 40
0.0
 40
0.0
 40
1.0
 40
1.0
 40
1.0
 40
2.0
 40
2.0
 40
2.0
 40
2.0
 10
91.75798034667968
 20
154.2962646484375
 30
0.0
 41
1.0
 10
91.75798034667968
 20
154.2962646484375
 30
0.0
 41
1.0
 10
125.4504852294922
 20
154.2962646484375
 30
0.0
 41
1.0
 10
125.4504852294922
 20
154.2962646484375
 30
0.0
 41
1.0
 10
125.4504852294922
 20
154.2962646484375
 30
0.0
 41
1.0
 10
91.75798034667968
 20
154.2962646484375
 30
0.0
 41
1.0
 10
91.75798034667968
 20
154.2962646484375
 30
0.0
 41
1.0
  0
SPLINE
  5
E5
330
70
100
AcDbEntity
  8
ILUSTRACE
  6
SOLID
 62
    74
100
AcDbSpline
210
0.0
220
0.0
230
1.0
 70
    31
 71
     3
 72
    11
 73
     7
 74
     0
 42
0.001
 43
0.0000000001
 40
0.0
 40
0.0
 40
0.0
 40
0.0
 40
1.0
 40
1.0
 40
1.0
 40
2.0
 40
2.0
 40
2.0
 40
2.0
 10
108.3112640380859
 20
150.8439788818359
 30
0.0
 41
1.0
 10
108.3112640380859
 20
150.8439788818359
 30
0.0
 41
1.0
 10
108.3112640380859
 20
147.9591827392578
 30
0.0
 41
1.0
 10
108.3112640380859
 20
147.9591827392578
 30
0.0
 41
1.0
 10
108.3112640380859
 20
147.9591827392578
 30
0.0
 41
1.0
 10
108.3112640380859
 20
150.8439788818359
 30
0.0
 41
1.0
 10
108.3112640380859
 20
150.8439788818359
 30
0.0
 41
1.0
  0
SPLINE
  5
E6
330
70
100
AcDbEntity
  8
ILUSTRACE
  6
SOLID
 62
    74
100
AcDbSpline
210
0.0
220
0.0
230
1.0
 70
    31
 71
     3
 72
    11
 73
     7
 74
     0
 42
0.001
 43
0.0000000001
 40
0.0
 40
0.0
 40
0.0
 40
0.0
 40
1.0
 40
1.0
 40
1.0
 40
2.0
 40
2.0
 40
2.0
 40
2.0
 10
108.8972625732422
 20
150.8439788818359
 30
0.0
 41
1.0
 10
108.8972625732422
 20
150.8439788818359
 30
0.0
 41
1.0
 10
108.8972625732422
 20
147.9591827392578
 30
0.0
 41
1.0
 10
108.8972625732422
 20
147.9591827392578
 30
0.0
 41
1.0
 10
108.8972625732422
 20
147.9591827392578
 30
0.0
 41
1.0
 10
108.8972625732422
 20
150.8439788818359
 30
0.0
 41
1.0
 10
108.8972625732422
 20
150.8439788818359
 30
0.0
 41
1.0
  0
SPLINE
  5
E7
330
70
100
AcDbEntity
  8
ILUSTRACE
  6
SOLID
 62
    74
100
AcDbSpline
210
0.0
220
0.0
230
1.0
 70
    31
 71
     3
 72
    11
 73
     7
 74
     0
 42
0.001
 43
0.0000000001
 40
0.0
 40
0.0
 40
0.0
 40
0.0
 40
1.0
 40
1.0
 40
1.0
 40
2.0
 40
2.0
 40
2.0
 40
2.0
 10
93.42675781249999
 20
160.1558685302734
 30
0.0
 41
1.0
 10
93.42675781249999
 20
160.1558685302734
 30
0.0
 41
1.0
 10
123.7816696166992
 20
160.1558685302734
 30
0.0
 41
1.0
 10
123.7816696166992
 20
160.1558685302734
 30
0.0
 41
1.0
 10
123.7816696166992
 20
160.1558685302734
 30
0.0
 41
1.0
 10
93.42675781249999
 20
160.1558685302734
 30
0.0
 41
1.0
 10
93.42675781249999
 20
160.1558685302734
 30
0.0
 41
1.0
  0
SPLINE
  5
E8
330
70
100
AcDbEntity
  8
ILUSTRACE
  6
SOLID
 62
    74
100
AcDbSpline
210
0.0
220
0.0
230
1.0
 70
    31
 71
     3
 72
    11
 73
     7
 74
     0
 42
0.001
 43
0.0000000001
 40
0.0
 40
0.0
 40
0.0
 40
0.0
 40
1.0
 40
1.0
 40
1.0
 40
2.0
 40
2.0
 40
2.0
 40
2.0
 10
91.90444946289062
 20
161.3277740478515
 30
0.0
 41
1.0
 10
91.90444946289062
 20
161.3277740478515
 30
0.0
 41
1.0
 10
125.3040771484375
 20
161.3277740478515
 30
0.0
 41
1.0
 10
125.3040771484375
 20
161.3277740478515
 30
0.0
 41
1.0
 10
125.3040771484375
 20
161.3277740478515
 30
0.0
 41
1.0
 10
91.90444946289062
 20
161.3277740478515
 30
0.0
 41
1.0
 10
91.90444946289062
 20
161.3277740478515
 30
0.0
 41
1.0
  0
SPLINE
  5
E9
330
70
100
AcDbEntity
  8
ILUSTRACE
  6
SOLID
 62
    74
100
AcDbSpline
210
0.0
220
0.0
230
1.0
 70
    31
 71
     3
 72
    11
 73
     7
 74
     0
 42
0.001
 43
0.0000000001
 40
0.0
 40
0.0
 40
0.0
 40
0.0
 40
1.0
 40
1.0
 40
1.0
 40
2.0
 40
2.0
 40
2.0
 40
2.0
 10
123.7816696166992
 20
160.1558685302734
 30
0.0
 41
1.0
 10
123.7816696166992
 20
160.1558685302734
 30
0.0
 41
1.0
 10
125.3040771484375
 20
161.0347747802734
 30
0.0
 41
1.0
 10
125.3040771484375
 20
161.0347747802734
 30
0.0
 41
1.0
 10
125.3040771484375
 20
161.0347747802734
 30
0.0
 41
1.0
 10
123.7816696166992
 20
160.1558685302734
 30
0.0
 41
1.0
 10
123.7816696166992
 20
160.1558685302734
 30
0.0
 41
1.0
  0
SPLINE
  5
EA
330
70
100
AcDbEntity
  8
ILUSTRACE
  6
SOLID
 62
    74
100
AcDbSpline
210
0.0
220
0.0
230
1.0
 70
    31
 71
     3
 72
    11
 73
     7
 74
     0
 42
0.001
 43
0.0000000001
 40
0.0
 40
0.0
 40
0.0
 40
0.0
 40
1.0
 40
1.0
 40
1.0
 40
2.0
 40
2.0
 40
2.0
 40
2.0
 10
121.0558547973633
 20
154.2962646484375
 30
0.0
 41
1.0
 10
121.0558547973633
 20
154.2962646484375
 30
0.0
 41
1.0
 10
121.0558547973633
 20
158.3979797363281
 30
0.0
 41
1.0
 10
121.0558547973633
 20
158.3979797363281
 30
0.0
 41
1.0
 10
121.0558547973633
 20
158.3979797363281
 30
0.0
 41
1.0
 10
121.0558547973633
 20
154.2962646484375
 30
0.0
 41
1.0
 10
121.0558547973633
 20
154.2962646484375
 30
0.0
 41
1.0
  0
SPLINE
  5
EB
330
70
100
AcDbEntity
  8
ILUSTRACE
  6
SOLID
 62
    74
100
AcDbSpline
210
0.0
220
0.0
230
1.0
 70
    31
 71
     3
 72
    11
 73
     7
 74
     0
 42
0.001
 43
0.0000000001
 40
0.0
 40
0.0
 40
0.0
 40
0.0
 40
1.0
 40
1.0
 40
1.0
 40
2.0
 40
2.0
 40
2.0
 40
2.0
 10
121.0558547973633
 20
158.3979797363281
 30
0.0
 41
1.0
 10
121.0558547973633
 20
158.3979797363281
 30
0.0
 41
1.0
 10
121.237678527832
 20
159.429458618164
 30
0.0
 41
1.0
 10
121.237678527832
 20
159.429458618164
 30
0.0
 41
1.0
 10
121.237678527832
 20
159.429458618164
 30
0.0
 41
1.0
 10
121.0558547973633
 20
158.3979797363281
 30
0.0
 41
1.0
 10
121.0558547973633
 20
158.3979797363281
 30
0.0
 41
1.0
  0
SPLINE
  5
EC
330
70
100
AcDbEntity
  8
ILUSTRACE
  6
SOLID
 62
    74
100
AcDbSpline
210
0.0
220
0.0
230
1.0
 70
    31
 71
     3
 72
    11
 73
     7
 74
     0
 42
0.001
 43
0.0000000001
 40
0.0
 40
0.0
 40
0.0
 40
0.0
 40
1.0
 40
1.0
 40
1.0
 40
2.0
 40
2.0
 40
2.0
 40
2.0
 10
123.282485961914
 20
146.3125915527343
 30
0.0
 41
1.0
 10
123.282485961914
 20
146.3125915527343
 30
0.0
 41
1.0
 10
123.282485961914
 20
132.3960723876953
 30
0.0
 41
1.0
 10
123.282485961914
 20
132.3960723876953
 30
0.0
 41
1.0
 10
123.282485961914
 20
132.3960723876953
 30
0.0
 41
1.0
 10
123.282485961914
 20
146.3125915527343
 30
0.0
 41
1.0
 10
123.282485961914
 20
146.3125915527343
 30
0.0
 41
1.0
  0
SPLINE
  5
ED
330
70
100
AcDbEntity
  8
ILUSTRACE
  6
SOLID
 62
    74
100
AcDbSpline
210
0.0
220
0.0
230
1.0
 70
    31
 71
     3
 72
    11
 73
     7
 74
     0
 42
0.001
 43
0.0000000001
 40
0.0
 40
0.0
 40
0.0
 40
0.0
 40
1.0
 40
1.0
 40
1.0
 40
2.0
 40
2.0
 40
2.0
 40
2.0
 10
122.0995864868164
 20
148.040283203125
 30
0.0
 41
1.0
 10
122.0995864868164
 20
148.040283203125
 30
0.0
 41
1.0
 10
121.9035873413086
 20
145.799087524414
 30
0.0
 41
1.0
 10
121.9035873413086
 20
145.799087524414
 30
0.0
 41
1.0
 10
121.9035873413086
 20
145.799087524414
 30
0.0
 41
1.0
 10
122.0995864868164
 20
148.040283203125
 30
0.0
 41
1.0
 10
122.0995864868164
 20
148.040283203125
 30
0.0
 41
1.0
  0
SPLINE
  5
EE
330
70
100
AcDbEntity
  8
ILUSTRACE
  6
SOLID
 62
    74
100
AcDbSpline
210
0.0
220
0.0
230
1.0
 70
    31
 71
     3
 72
    11
 73
     7
 74
     0
 42
0.001
 43
0.0000000001
 40
0.0
 40
0.0
 40
0.0
 40
0.0
 40
1.0
 40
1.0
 40
1.0
 40
2.0
 40
2.0
 40
2.0
 40
2.0
 10
123.8391647338867
 20
147.4112854003906
 30
0.0
 41
1.0
 10
123.8391647338867
 20
147.4112854003906
 30
0.0
 41
1.0
 10
123.8391647338867
 20
131.297378540039
 30
0.0
 41
1.0
 10
123.8391647338867
 20
131.297378540039
 30
0.0
 41
1.0
 10
123.8391647338867
 20
131.297378540039
 30
0.0
 41
1.0
 10
123.8391647338867
 20
147.4112854003906
 30
0.0
 41
1.0
 10
123.8391647338867
 20
147.4112854003906
 30
0.0
 41
1.0
  0
SPLINE
  5
EF
330
70
100
AcDbEntity
  8
ILUSTRACE
  6
SOLID
 62
    74
100
AcDbSpline
210
0.0
220
0.0
230
1.0
 70
    31
 71
     3
 72
    11
 73
     7
 74
     0
 42
0.001
 43
0.0000000001
 40
0.0
 40
0.0
 40
0.0
 40
0.0
 40
1.0
 40
1.0
 40
1.0
 40
2.0
 40
2.0
 40
2.0
 40
2.0
 10
124.7180786132812
 20
147.3899688720703
 30
0.0
 41
1.0
 10
124.7180786132812
 20
147.3899688720703
 30
0.0
 41
1.0
 10
124.7180786132812
 20
145.45068359375
 30
0.0
 41
1.0
 10
124.7180786132812
 20
145.45068359375
 30
0.0
 41
1.0
 10
124.7180786132812
 20
145.45068359375
 30
0.0
 41
1.0
 10
124.7180786132812
 20
147.3899688720703
 30
0.0
 41
1.0
 10
124.7180786132812
 20
147.3899688720703
 30
0.0
 41
1.0
  0
SPLINE
  5
F0
330
70
100
AcDbEntity
  8
ILUSTRACE
  6
SOLID
 62
    74
100
AcDbSpline
210
0.0
220
0.0
230
1.0
 70
    31
 71
     3
 72
    11
 73
     7
 74
     0
 42
0.001
 43
0.0000000001
 40
0.0
 40
0.0
 40
0.0
 40
0.0
 40
1.0
 40
1.0
 40
1.0
 40
2.0
 40
2.0
 40
2.0
 40
2.0
 10
124.7180786132812
 20
144.622085571289
 30
0.0
 41
1.0
 10
124.7180786132812
 20
144.622085571289
 30
0.0
 41
1.0
 10
124.7180786132812
 20
139.9402923583984
 30
0.0
 41
1.0
 10
124.7180786132812
 20
139.9402923583984
 30
0.0
 41
1.0
 10
124.7180786132812
 20
139.9402923583984
 30
0.0
 41
1.0
 10
124.7180786132812
 20
144.622085571289
 30
0.0
 41
1.0
 10
124.7180786132812
 20
144.622085571289
 30
0.0
 41
1.0
  0
SPLINE
  5
F1
330
70
100
AcDbEntity
  8
ILUSTRACE
  6
SOLID
 62
    74
100
AcDbSpline
210
0.0
220
0.0
230
1.0
 70
    31
 71
     3
 72
    11
 73
     7
 74
     0
 42
0.001
 43
0.0000000001
 40
0.0
 40
0.0
 40
0.0
 40
0.0
 40
1.0
 40
1.0
 40
1.0
 40
2.0
 40
2.0
 40
2.0
 40
2.0
 10
124.7180786132812
 20
138.7683715820312
 30
0.0
 41
1.0
 10
124.7180786132812
 20
138.7683715820312
 30
0.0
 41
1.0
 10
124.7180786132812
 20
134.086685180664
 30
0.0
 41
1.0
 10
124.7180786132812
 20
134.086685180664
 30
0.0
 41
1.0
 10
124.7180786132812
 20
134.086685180664
 30
0.0
 41
1.0
 10
124.7180786132812
 20
138.7683715820312
 30
0.0
 41
1.0
 10
124.7180786132812
 20
138.7683715820312
 30
0.0
 41
1.0
  0
SPLINE
  5
F2
330
70
100
AcDbEntity
  8
ILUSTRACE
  6
SOLID
 62
    74
100
AcDbSpline
210
0.0
220
0.0
230
1.0
 70
    31
 71
     3
 72
    11
 73
     7
 74
     0
 42
0.001
 43
0.0000000001
 40
0.0
 40
0.0
 40
0.0
 40
0.0
 40
1.0
 40
1.0
 40
1.0
 40
2.0
 40
2.0
 40
2.0
 40
2.0
 10
124.7180786132812
 20
133.2579803466797
 30
0.0
 41
1.0
 10
124.7180786132812
 20
133.2579803466797
 30
0.0
 41
1.0
 10
124.7180786132812
 20
131.3187866210937
 30
0.0
 41
1.0
 10
124.7180786132812
 20
131.3187866210937
 30
0.0
 41
1.0
 10
124.7180786132812
 20
131.3187866210937
 30
0.0
 41
1.0
 10
124.7180786132812
 20
133.2579803466797
 30
0.0
 41
1.0
 10
124.7180786132812
 20
133.2579803466797
 30
0.0
 41
1.0
  0
SPLINE
  5
F3
330
70
100
AcDbEntity
  8
ILUSTRACE
  6
SOLID
 62
    74
100
AcDbSpline
210
0.0
220
0.0
230
1.0
 70
    31
 71
     3
 72
    11
 73
     7
 74
     0
 42
0.001
 43
0.0000000001
 40
0.0
 40
0.0
 40
0.0
 40
0.0
 40
1.0
 40
1.0
 40
1.0
 40
2.0
 40
2.0
 40
2.0
 40
2.0
 10
125.3040771484375
 20
161.0347747802734
 30
0.0
 41
1.0
 10
125.3040771484375
 20
161.0347747802734
 30
0.0
 41
1.0
 10
125.3040771484375
 20
161.3277740478515
 30
0.0
 41
1.0
 10
125.3040771484375
 20
161.3277740478515
 30
0.0
 41
1.0
 10
125.3040771484375
 20
161.3277740478515
 30
0.0
 41
1.0
 10
125.3040771484375
 20
161.0347747802734
 30
0.0
 41
1.0
 10
125.3040771484375
 20
161.0347747802734
 30
0.0
 41
1.0
  0
SPLINE
  5
F4
330
70
100
AcDbEntity
  8
ILUSTRACE
  6
SOLID
 62
    74
100
AcDbSpline
210
0.0
220
0.0
230
1.0
 70
    31
 71
     3
 72
    11
 73
     7
 74
     0
 42
0.001
 43
0.0000000001
 40
0.0
 40
0.0
 40
0.0
 40
0.0
 40
1.0
 40
1.0
 40
1.0
 40
2.0
 40
2.0
 40
2.0
 40
2.0
 10
125.4504852294922
 20
152.391860961914
 30
0.0
 41
1.0
 10
125.4504852294922
 20
152.391860961914
 30
0.0
 41
1.0
 10
125.4504852294922
 20
154.2962646484375
 30
0.0
 41
1.0
 10
125.4504852294922
 20
154.2962646484375
 30
0.0
 41
1.0
 10
125.4504852294922
 20
154.2962646484375
 30
0.0
 41
1.0
 10
125.4504852294922
 20
152.391860961914
 30
0.0
 41
1.0
 10
125.4504852294922
 20
152.391860961914
 30
0.0
 41
1.0
  0
SPLINE
  5
F5
330
70
100
AcDbEntity
  8
ILUSTRACE
  6
SOLID
 62
    74
100
AcDbSpline
210
0.0
220
0.0
230
1.0
 70
    31
 71
     3
 72
    11
 73
     7
 74
     0
 42
0.001
 43
0.0000000001
 40
0.0
 40
0.0
 40
0.0
 40
0.0
 40
1.0
 40
1.0
 40
1.0
 40
2.0
 40
2.0
 40
2.0
 40
2.0
 10
122.0960540771484
 20
148.0355987548828
 30
0.0
 41
1.0
 10
122.0960540771484
 20
148.0355987548828
 30
0.0
 41
1.0
 10
124.2485656738281
 20
150.8431701660156
 30
0.0
 41
1.0
 10
124.2485656738281
 20
150.8431701660156
 30
0.0
 41
1.0
 10
124.2485656738281
 20
150.8431701660156
 30
0.0
 41
1.0
 10
122.0960540771484
 20
148.0355987548828
 30
0.0
 41
1.0
 10
122.0960540771484
 20
148.0355987548828
 30
0.0
 41
1.0
  0
SPLINE
  5
F6
330
70
100
AcDbEntity
  8
ILUSTRACE
  6
SOLID
 62
    74
100
AcDbSpline
210
0.0
220
0.0
230
1.0
 70
    31
 71
     3
 72
    11
 73
     7
 74
     0
 42
0.001
 43
0.0000000001
 40
0.0
 40
0.0
 40
0.0
 40
0.0
 40
1.0
 40
1.0
 40
1.0
 40
2.0
 40
2.0
 40
2.0
 40
2.0
 10
125.8899688720703
 20
151.3664855957031
 30
0.0
 41
1.0
 10
125.8899688720703
 20
151.3664855957031
 30
0.0
 41
1.0
 10
125.8899688720703
 20
152.391860961914
 30
0.0
 41
1.0
 10
125.8899688720703
 20
152.391860961914
 30
0.0
 41
1.0
 10
125.8899688720703
 20
152.391860961914
 30
0.0
 41
1.0
 10
125.8899688720703
 20
151.3664855957031
 30
0.0
 41
1.0
 10
125.8899688720703
 20
151.3664855957031
 30
0.0
 41
1.0
  0
SPLINE
  5
F7
330
70
100
AcDbEntity
  8
ILUSTRACE
  6
SOLID
 62
    74
100
AcDbSpline
210
0.0
220
0.0
230
1.0
 70
    31
 71
     3
 72
    11
 73
     7
 74
     0
 42
0.001
 43
0.0000000001
 40
0.0
 40
0.0
 40
0.0
 40
0.0
 40
1.0
 40
1.0
 40
1.0
 40
2.0
 40
2.0
 40
2.0
 40
2.0
 10
127.3548812866211
 20
147.4112854003906
 30
0.0
 41
1.0
 10
127.3548812866211
 20
147.4112854003906
 30
0.0
 41
1.0
 10
127.3548812866211
 20
147.2647705078125
 30
0.0
 41
1.0
 10
127.3548812866211
 20
147.2647705078125
 30
0.0
 41
1.0
 10
127.3548812866211
 20
147.2647705078125
 30
0.0
 41
1.0
 10
127.3548812866211
 20
147.4112854003906
 30
0.0
 41
1.0
 10
127.3548812866211
 20
147.4112854003906
 30
0.0
 41
1.0
  0
SPLINE
  5
F8
330
70
100
AcDbEntity
  8
ILUSTRACE
  6
SOLID
 62
    74
100
AcDbSpline
210
0.0
220
0.0
230
1.0
 70
    31
 71
     3
 72
    11
 73
     7
 74
     0
 42
0.001
 43
0.0000000001
 40
0.0
 40
0.0
 40
0.0
 40
0.0
 40
1.0
 40
1.0
 40
1.0
 40
2.0
 40
2.0
 40
2.0
 40
2.0
 10
127.3548812866211
 20
131.297378540039
 30
0.0
 41
1.0
 10
127.3548812866211
 20
131.297378540039
 30
0.0
 41
1.0
 10
127.3548812866211
 20
131.4438934326172
 30
0.0
 41
1.0
 10
127.3548812866211
 20
131.4438934326172
 30
0.0
 41
1.0
 10
127.3548812866211
 20
131.4438934326172
 30
0.0
 41
1.0
 10
127.3548812866211
 20
131.297378540039
 30
0.0
 41
1.0
 10
127.3548812866211
 20
131.297378540039
 30
0.0
 41
1.0
  0
SPLINE
  5
F9
330
70
100
AcDbEntity
  8
ILUSTRACE
  6
SOLID
 62
    74
100
AcDbSpline
210
0.0
220
0.0
230
1.0
 70
    31
 71
     3
 72
    11
 73
     7
 74
     0
 42
0.001
 43
0.0000000001
 40
0.0
 40
0.0
 40
0.0
 40
0.0
 40
1.0
 40
1.0
 40
1.0
 40
2.0
 40
2.0
 40
2.0
 40
2.0
 10
128.5267639160156
 20
132.0298919677734
 30
0.0
 41
1.0
 10
128.5267639160156
 20
132.0298919677734
 30
0.0
 41
1.0
 10
128.5267639160156
 20
146.6788787841797
 30
0.0
 41
1.0
 10
128.5267639160156
 20
146.6788787841797
 30
0.0
 41
1.0
 10
128.5267639160156
 20
146.6788787841797
 30
0.0
 41
1.0
 10
128.5267639160156
 20
132.0298919677734
 30
0.0
 41
1.0
 10
128.5267639160156
 20
132.0298919677734
 30
0.0
 41
1.0
  0
SPLINE
  5
FA
330
70
100
AcDbEntity
  8
ILUSTRACE
  6
SOLID
 62
    74
100
AcDbSpline
210
0.0
220
0.0
230
1.0
 70
    31
 71
     3
 72
    11
 73
     7
 74
     0
 42
0.001
 43
0.0000000001
 40
0.0
 40
0.0
 40
0.0
 40
0.0
 40
1.0
 40
1.0
 40
1.0
 40
2.0
 40
2.0
 40
2.0
 40
2.0
 10
120.6273727416992
 20
130.6759643554687
 30
0.0
 41
1.0
 10
120.6273727416992
 20
130.6759643554687
 30
0.0
 41
1.0
 10
123.282485961914
 20
132.8186645507812
 30
0.0
 41
1.0
 10
123.282485961914
 20
132.8186645507812
 30
0.0
 41
1.0
 10
123.282485961914
 20
132.8186645507812
 30
0.0
 41
1.0
 10
120.6273727416992
 20
130.6759643554687
 30
0.0
 41
1.0
 10
120.6273727416992
 20
130.6759643554687
 30
0.0
 41
1.0
  0
SPLINE
  5
FB
330
70
100
AcDbEntity
  8
ILUSTRACE
  6
SOLID
 62
    74
100
AcDbSpline
210
0.0
220
0.0
230
1.0
 70
    12
 71
     3
 72
    11
 73
     7
 74
     0
 42
0.001
 43
0.0000000001
 40
0.0
 40
0.0
 40
0.0
 40
0.0
 40
1.0
 40
1.0
 40
1.0
 40
2.0
 40
2.0
 40
2.0
 40
2.0
 10
126.7689819335937
 20
138.7683715820312
 30
0.0
 41
1.0
 10
127.0925521850586
 20
138.7683715820312
 30
0.0
 41
1.0
 10
127.3548812866211
 20
139.03076171875
 30
0.0
 41
1.0
 10
127.3548812866211
 20
139.3543701171875
 30
0.0
 41
1.0
 10
127.3548812866211
 20
139.6779632568359
 30
0.0
 41
1.0
 10
127.0925521850586
 20
139.9402923583984
 30
0.0
 41
1.0
 10
126.7689819335937
 20
139.9402923583984
 30
0.0
 41
1.0
  0
SPLINE
  5
FC
330
70
100
AcDbEntity
  8
ILUSTRACE
  6
SOLID
 62
    74
100
AcDbSpline
210
0.0
220
0.0
230
1.0
 70
    12
 71
     3
 72
     8
 73
     4
 74
     0
 42
0.001
 43
0.0000000001
 40
0.0
 40
0.0
 40
0.0
 40
0.0
 40
1.0
 40
1.0
 40
1.0
 40
1.0
 10
127.9408798217773
 20
131.4438934326172
 30
0.0
 41
1.0
 10
128.2644805908203
 20
131.4438934326172
 30
0.0
 41
1.0
 10
128.5267639160156
 20
131.7062835693359
 30
0.0
 41
1.0
 10
128.5267639160156
 20
132.0298919677734
 30
0.0
 41
1.0
  0
SPLINE
  5
FD
330
70
100
AcDbEntity
  8
ILUSTRACE
  6
SOLID
 62
    74
100
AcDbSpline
210
0.0
220
0.0
230
1.0
 70
    12
 71
     3
 72
     8
 73
     4
 74
     0
 42
0.001
 43
0.0000000001
 40
0.0
 40
0.0
 40
0.0
 40
0.0
 40
1.0
 40
1.0
 40
1.0
 40
1.0
 10
128.5267639160156
 20
146.6788787841797
 30
0.0
 41
1.0
 10
128.5267639160156
 20
147.0024871826172
 30
0.0
 41
1.0
 10
128.2644805908203
 20
147.2647705078125
 30
0.0
 41
1.0
 10
127.9408798217773
 20
147.2647705078125
 30
0.0
 41
1.0
  0
SPLINE
  5
FE
330
70
100
AcDbEntity
  8
ILUSTRACE
  6
SOLID
 62
    74
100
AcDbSpline
210
0.0
220
0.0
230
1.0
 70
    12
 71
     3
 72
     8
 73
     4
 74
     0
 42
0.001
 43
0.0000000001
 40
0.0
 40
0.0
 40
0.0
 40
0.0
 40
1.0
 40
1.0
 40
1.0
 40
1.0
 10
95.97078704833984
 20
159.429458618164
 30
0.0
 41
1.0
 10
95.89665985107421
 20
159.8495941162109
 30
0.0
 41
1.0
 10
95.53167724609375
 20
160.1558685302734
 30
0.0
 41
1.0
 10
95.10517120361328
 20
160.1558685302734
 30
0.0
 41
1.0
  0
SPLINE
  5
FF
330
70
100
AcDbEntity
  8
ILUSTRACE
  6
SOLID
 62
    74
100
AcDbSpline
210
0.0
220
0.0
230
1.0
 70
    12
 71
     3
 72
     8
 73
     4
 74
     0
 42
0.001
 43
0.0000000001
 40
0.0
 40
0.0
 40
0.0
 40
0.0
 40
1.0
 40
1.0
 40
1.0
 40
1.0
 10
122.1032485961914
 20
160.1558685302734
 30
0.0
 41
1.0
 10
121.6767807006836
 20
160.1558685302734
 30
0.0
 41
1.0
 10
121.3117599487304
 20
159.8495941162109
 30
0.0
 41
1.0
 10
121.237678527832
 20
159.429458618164
 30
0.0
 41
1.0
  0
SPLINE
  5
100
330
70
100
AcDbEntity
  8
ILUSTRACE
  6
SOLID
 62
    74
100
AcDbSpline
210
0.0
220
0.0
230
1.0
 70
    12
 71
     3
 72
     8
 73
     4
 74
     0
 42
0.001
 43
0.0000000001
 40
0.0
 40
0.0
 40
0.0
 40
0.0
 40
1.0
 40
1.0
 40
1.0
 40
1.0
 10
91.31845092773437
 20
151.3664855957031
 30
0.0
 41
1.0
 10
91.31845092773437
 20
151.2046661376953
 30
0.0
 41
1.0
 10
91.44969177246094
 20
151.0734710693359
 30
0.0
 41
1.0
 10
91.6114730834961
 20
151.0734710693359
 30
0.0
 41
1.0
  0
SPLINE
  5
101
330
70
100
AcDbEntity
  8
ILUSTRACE
  6
SOLID
 62
    74
100
AcDbSpline
210
0.0
220
0.0
230
1.0
 70
    12
 71
     3
 72
     8
 73
     4
 74
     0
 42
0.001
 43
0.0000000001
 40
0.0
 40
0.0
 40
0.0
 40
0.0
 40
1.0
 40
1.0
 40
1.0
 40
1.0
 10
125.5969543457031
 20
151.0734710693359
 30
0.0
 41
1.0
 10
125.7587738037109
 20
151.0734710693359
 30
0.0
 41
1.0
 10
125.8899688720703
 20
151.2046661376953
 30
0.0
 41
1.0
 10
125.8899688720703
 20
151.3664855957031
 30
0.0
 41
1.0
  0
SPLINE
  5
102
330
70
100
AcDbEntity
  8
ILUSTRACE
  6
SOLID
 62
    74
100
AcDbSpline
210
0.0
220
0.0
230
1.0
 70
    12
 71
     3
 72
     8
 73
     4
 74
     0
 42
0.001
 43
0.0000000001
 40
0.0
 40
0.0
 40
0.0
 40
0.0
 40
1.0
 40
1.0
 40
1.0
 40
1.0
 10
95.42016601562499
 20
133.1062774658203
 30
0.0
 41
1.0
 10
95.42016601562499
 20
131.3791961669922
 30
0.0
 41
1.0
 10
96.82026672363281
 20
129.9789733886719
 30
0.0
 41
1.0
 10
98.54747009277344
 20
129.9789733886719
 30
0.0
 41
1.0
  0
SPLINE
  5
103
330
70
100
AcDbEntity
  8
ILUSTRACE
  6
SOLID
 62
    74
100
AcDbSpline
210
0.0
220
0.0
230
1.0
 70
    12
 71
     3
 72
     8
 73
     4
 74
     0
 42
0.001
 43
0.0000000001
 40
0.0
 40
0.0
 40
0.0
 40
0.0
 40
1.0
 40
1.0
 40
1.0
 40
1.0
 10
118.6609497070312
 20
129.9789733886719
 30
0.0
 41
1.0
 10
119.3760681152344
 20
129.9789733886719
 30
0.0
 41
1.0
 10
120.0694580078125
 20
130.2240905761719
 30
0.0
 41
1.0
 10
120.6257858276367
 20
130.6732788085937
 30
0.0
 41
1.0
  0
SPLINE
  5
104
330
70
100
AcDbEntity
  8
ILUSTRACE
  6
SOLID
 62
    74
100
AcDbSpline
210
0.0
220
0.0
230
1.0
 70
    12
 71
     3
 72
    23
 73
    19
 74
     0
 42
0.001
 43
0.0000000001
 40
0.0
 40
0.0
 40
0.0
 40
0.0
 40
1.0
 40
1.0
 40
1.0
 40
2.0
 40
2.0
 40
2.0
 40
3.0
 40
3.0
 40
3.0
 40
4.0
 40
4.0
 40
4.0
 40
5.0
 40
5.0
 40
5.0
 40
6.0
 40
6.0
 40
6.0
 40
6.0
 10
127.3548812866211
 20
145.0514831542968
 30
0.0
 41
1.0
 10
127.3548812866211
 20
145.0514831542968
 30
0.0
 41
1.0
 10
127.3349838256836
 20
145.1575927734375
 30
0.0
 41
1.0
 10
127.3349838256836
 20
145.1575927734375
 30
0.0
 41
1.0
 10
127.3349838256836
 20
145.1575927734375
 30
0.0
 41
1.0
 10
127.2764587402344
 20
145.2547912597656
 30
0.0
 41
1.0
 10
127.2764587402344
 20
145.2547912597656
 30
0.0
 41
1.0
 10
127.2764587402344
 20
145.2547912597656
 30
0.0
 41
1.0
 10
127.1832580566406
 20
145.3368835449218
 30
0.0
 41
1.0
 10
127.1832580566406
 20
145.3368835449218
 30
0.0
 41
1.0
 10
127.1832580566406
 20
145.3368835449218
 30
0.0
 41
1.0
 10
127.0617523193359
 20
145.3989715576172
 30
0.0
 41
1.0
 10
127.0617523193359
 20
145.3989715576172
 30
0.0
 41
1.0
 10
127.0617523193359
 20
145.3989715576172
 30
0.0
 41
1.0
 10
126.9203643798828
 20
145.4375915527343
 30
0.0
 41
1.0
 10
126.9203643798828
 20
145.4375915527343
 30
0.0
 41
1.0
 10
126.9203643798828
 20
145.4375915527343
 30
0.0
 41
1.0
 10
126.7689819335937
 20
145.45068359375
 30
0.0
 41
1.0
 10
126.7689819335937
 20
145.45068359375
 30
0.0
 41
1.0
  0
SPLINE
  5
105
330
70
100
AcDbEntity
  8
ILUSTRACE
  6
SOLID
 62
    74
100
AcDbSpline
210
0.0
220
0.0
230
1.0
 70
    12
 71
     3
 72
    23
 73
    19
 74
     0
 42
0.001
 43
0.0000000001
 40
0.0
 40
0.0
 40
0.0
 40
0.0
 40
1.0
 40
1.0
 40
1.0
 40
2.0
 40
2.0
 40
2.0
 40
3.0
 40
3.0
 40
3.0
 40
4.0
 40
4.0
 40
4.0
 40
5.0
 40
5.0
 40
5.0
 40
6.0
 40
6.0
 40
6.0
 40
6.0
 10
127.3548812866211
 20
133.6572875976562
 30
0.0
 41
1.0
 10
127.3548812866211
 20
133.6572875976562
 30
0.0
 41
1.0
 10
127.3349838256836
 20
133.5511779785156
 30
0.0
 41
1.0
 10
127.3349838256836
 20
133.5511779785156
 30
0.0
 41
1.0
 10
127.3349838256836
 20
133.5511779785156
 30
0.0
 41
1.0
 10
127.2764587402344
 20
133.4539794921875
 30
0.0
 41
1.0
 10
127.2764587402344
 20
133.4539794921875
 30
0.0
 41
1.0
 10
127.2764587402344
 20
133.4539794921875
 30
0.0
 41
1.0
 10
127.1832580566406
 20
133.3717803955078
 30
0.0
 41
1.0
 10
127.1832580566406
 20
133.3717803955078
 30
0.0
 41
1.0
 10
127.1832580566406
 20
133.3717803955078
 30
0.0
 41
1.0
 10
127.0617523193359
 20
133.3096923828125
 30
0.0
 41
1.0
 10
127.0617523193359
 20
133.3096923828125
 30
0.0
 41
1.0
 10
127.0617523193359
 20
133.3096923828125
 30
0.0
 41
1.0
 10
126.9203643798828
 20
133.2710723876953
 30
0.0
 41
1.0
 10
126.9203643798828
 20
133.2710723876953
 30
0.0
 41
1.0
 10
126.9203643798828
 20
133.2710723876953
 30
0.0
 41
1.0
 10
126.7689819335937
 20
133.2579803466797
 30
0.0
 41
1.0
 10
126.7689819335937
 20
133.2579803466797
 30
0.0
 41
1.0
  0
SPLINE
  5
106
330
70
100
AcDbEntity
  8
ILUSTRACE
  6
SOLID
 62
    74
100
AcDbSpline
210
0.0
220
0.0
230
1.0
 70
    12
 71
     3
 72
    26
 73
    22
 74
     0
 42
0.001
 43
0.0000000001
 40
0.0
 40
0.0
 40
0.0
 40
0.0
 40
1.0
 40
1.0
 40
1.0
 40
2.0
 40
2.0
 40
2.0
 40
3.0
 40
3.0
 40
3.0
 40
4.0
 40
4.0
 40
4.0
 40
5.0
 40
5.0
 40
5.0
 40
6.0
 40
6.0
 40
6.0
 40
7.0
 40
7.0
 40
7.0
 40
7.0
 10
126.7689819335937
 20
147.2430725097656
 30
0.0
 41
1.0
 10
126.7689819335937
 20
147.2430725097656
 30
0.0
 41
1.0
 10
126.898567199707
 20
147.2440643310546
 30
0.0
 41
1.0
 10
126.898567199707
 20
147.2440643310546
 30
0.0
 41
1.0
 10
126.898567199707
 20
147.2440643310546
 30
0.0
 41
1.0
 10
127.0241928100586
 20
147.2471771240234
 30
0.0
 41
1.0
 10
127.0241928100586
 20
147.2471771240234
 30
0.0
 41
1.0
 10
127.0241928100586
 20
147.2471771240234
 30
0.0
 41
1.0
 10
127.1352767944336
 20
147.2515716552734
 30
0.0
 41
1.0
 10
127.1352767944336
 20
147.2515716552734
 30
0.0
 41
1.0
 10
127.1352767944336
 20
147.2515716552734
 30
0.0
 41
1.0
 10
127.226577758789
 20
147.2562713623046
 30
0.0
 41
1.0
 10
127.226577758789
 20
147.2562713623046
 30
0.0
 41
1.0
 10
127.226577758789
 20
147.2562713623046
 30
0.0
 41
1.0
 10
127.2970657348633
 20
147.2606811523437
 30
0.0
 41
1.0
 10
127.2970657348633
 20
147.2606811523437
 30
0.0
 41
1.0
 10
127.2970657348633
 20
147.2606811523437
 30
0.0
 41
1.0
 10
127.3406677246093
 20
147.2637786865234
 30
0.0
 41
1.0
 10
127.3406677246093
 20
147.2637786865234
 30
0.0
 41
1.0
 10
127.3406677246093
 20
147.2637786865234
 30
0.0
 41
1.0
 10
127.3548812866211
 20
147.2647705078125
 30
0.0
 41
1.0
 10
127.3548812866211
 20
147.2647705078125
 30
0.0
 41
1.0
  0
SPLINE
  5
107
330
70
100
AcDbEntity
  8
ILUSTRACE
  6
SOLID
 62
    74
100
AcDbSpline
210
0.0
220
0.0
230
1.0
 70
    12
 71
     3
 72
    23
 73
    19
 74
     0
 42
0.001
 43
0.0000000001
 40
0.0
 40
0.0
 40
0.0
 40
0.0
 40
1.0
 40
1.0
 40
1.0
 40
2.0
 40
2.0
 40
2.0
 40
3.0
 40
3.0
 40
3.0
 40
4.0
 40
4.0
 40
4.0
 40
5.0
 40
5.0
 40
5.0
 40
6.0
 40
6.0
 40
6.0
 40
6.0
 10
126.7689819335937
 20
134.086685180664
 30
0.0
 41
1.0
 10
126.7689819335937
 20
134.086685180664
 30
0.0
 41
1.0
 10
126.9203643798828
 20
134.0715942382812
 30
0.0
 41
1.0
 10
126.9203643798828
 20
134.0715942382812
 30
0.0
 41
1.0
 10
126.9203643798828
 20
134.0715942382812
 30
0.0
 41
1.0
 10
127.0617523193359
 20
134.0274963378906
 30
0.0
 41
1.0
 10
127.0617523193359
 20
134.0274963378906
 30
0.0
 41
1.0
 10
127.0617523193359
 20
134.0274963378906
 30
0.0
 41
1.0
 10
127.1832580566406
 20
133.957778930664
 30
0.0
 41
1.0
 10
127.1832580566406
 20
133.957778930664
 30
0.0
 41
1.0
 10
127.1832580566406
 20
133.957778930664
 30
0.0
 41
1.0
 10
127.2764587402344
 20
133.8680725097656
 30
0.0
 41
1.0
 10
127.2764587402344
 20
133.8680725097656
 30
0.0
 41
1.0
 10
127.2764587402344
 20
133.8680725097656
 30
0.0
 41
1.0
 10
127.3349838256836
 20
133.765380859375
 30
0.0
 41
1.0
 10
127.3349838256836
 20
133.765380859375
 30
0.0
 41
1.0
 10
127.3349838256836
 20
133.765380859375
 30
0.0
 41
1.0
 10
127.3548812866211
 20
133.6572875976562
 30
0.0
 41
1.0
 10
127.3548812866211
 20
133.6572875976562
 30
0.0
 41
1.0
  0
SPLINE
  5
108
330
70
100
AcDbEntity
  8
ILUSTRACE
  6
SOLID
 62
    74
100
AcDbSpline
210
0.0
220
0.0
230
1.0
 70
    12
 71
     3
 72
    26
 73
    22
 74
     0
 42
0.001
 43
0.0000000001
 40
0.0
 40
0.0
 40
0.0
 40
0.0
 40
1.0
 40
1.0
 40
1.0
 40
2.0
 40
2.0
 40
2.0
 40
3.0
 40
3.0
 40
3.0
 40
4.0
 40
4.0
 40
4.0
 40
5.0
 40
5.0
 40
5.0
 40
6.0
 40
6.0
 40
6.0
 40
7.0
 40
7.0
 40
7.0
 40
7.0
 10
127.3548812866211
 20
131.4438934326172
 30
0.0
 41
1.0
 10
127.3548812866211
 20
131.4438934326172
 30
0.0
 41
1.0
 10
127.3405609130859
 20
131.4449768066406
 30
0.0
 41
1.0
 10
127.3405609130859
 20
131.4449768066406
 30
0.0
 41
1.0
 10
127.3405609130859
 20
131.4449768066406
 30
0.0
 41
1.0
 10
127.2968826293945
 20
131.4479827880859
 30
0.0
 41
1.0
 10
127.2968826293945
 20
131.4479827880859
 30
0.0
 41
1.0
 10
127.2968826293945
 20
131.4479827880859
 30
0.0
 41
1.0
 10
127.2264709472656
 20
131.452392578125
 30
0.0
 41
1.0
 10
127.2264709472656
 20
131.452392578125
 30
0.0
 41
1.0
 10
127.2264709472656
 20
131.452392578125
 30
0.0
 41
1.0
 10
127.1352767944336
 20
131.4571838378906
 30
0.0
 41
1.0
 10
127.1352767944336
 20
131.4571838378906
 30
0.0
 41
1.0
 10
127.1352767944336
 20
131.4571838378906
 30
0.0
 41
1.0
 10
127.0238647460937
 20
131.4615631103515
 30
0.0
 41
1.0
 10
127.0238647460937
 20
131.4615631103515
 30
0.0
 41
1.0
 10
127.0238647460937
 20
131.4615631103515
 30
0.0
 41
1.0
 10
126.8982849121093
 20
131.4645538330078
 30
0.0
 41
1.0
 10
126.8982849121093
 20
131.4645538330078
 30
0.0
 41
1.0
 10
126.8982849121093
 20
131.4645538330078
 30
0.0
 41
1.0
 10
126.7689819335937
 20
131.4656829833984
 30
0.0
 41
1.0
 10
126.7689819335937
 20
131.4656829833984
 30
0.0
 41
1.0
  0
SPLINE
  5
109
330
70
100
AcDbEntity
  8
ILUSTRACE
  6
SOLID
 62
    74
100
AcDbSpline
210
0.0
220
0.0
230
1.0
 70
    12
 71
     3
 72
    23
 73
    19
 74
     0
 42
0.001
 43
0.0000000001
 40
0.0
 40
0.0
 40
0.0
 40
0.0
 40
1.0
 40
1.0
 40
1.0
 40
2.0
 40
2.0
 40
2.0
 40
3.0
 40
3.0
 40
3.0
 40
4.0
 40
4.0
 40
4.0
 40
5.0
 40
5.0
 40
5.0
 40
6.0
 40
6.0
 40
6.0
 40
6.0
 10
126.7689819335937
 20
144.622085571289
 30
0.0
 41
1.0
 10
126.7689819335937
 20
144.622085571289
 30
0.0
 41
1.0
 10
126.9203643798828
 20
144.6371765136718
 30
0.0
 41
1.0
 10
126.9203643798828
 20
144.6371765136718
 30
0.0
 41
1.0
 10
126.9203643798828
 20
144.6371765136718
 30
0.0
 41
1.0
 10
127.0617523193359
 20
144.6812744140625
 30
0.0
 41
1.0
 10
127.0617523193359
 20
144.6812744140625
 30
0.0
 41
1.0
 10
127.0617523193359
 20
144.6812744140625
 30
0.0
 41
1.0
 10
127.1832580566406
 20
144.7509765625
 30
0.0
 41
1.0
 10
127.1832580566406
 20
144.7509765625
 30
0.0
 41
1.0
 10
127.1832580566406
 20
144.7509765625
 30
0.0
 41
1.0
 10
127.2764587402344
 20
144.8406982421875
 30
0.0
 41
1.0
 10
127.2764587402344
 20
144.8406982421875
 30
0.0
 41
1.0
 10
127.2764587402344
 20
144.8406982421875
 30
0.0
 41
1.0
 10
127.3349838256836
 20
144.9433898925781
 30
0.0
 41
1.0
 10
127.3349838256836
 20
144.9433898925781
 30
0.0
 41
1.0
 10
127.3349838256836
 20
144.9433898925781
 30
0.0
 41
1.0
 10
127.3548812866211
 20
145.0514831542968
 30
0.0
 41
1.0
 10
127.3548812866211
 20
145.0514831542968
 30
0.0
 41
1.0
  0
SPLINE
  5
10A
330
70
100
AcDbEntity
  8
ILUSTRACE
  6
SOLID
 62
    74
100
AcDbSpline
210
0.0
220
0.0
230
1.0
 70
    12
 71
     3
 72
    14
 73
    10
 74
     0
 42
0.001
 43
0.0000000001
 40
0.0
 40
0.0
 40
0.0
 40
0.0
 40
1.0
 40
1.0
 40
1.0
 40
2.0
 40
2.0
 40
2.0
 40
3.0
 40
3.0
 40
3.0
 40
3.0
 10
121.6928634643554
 20
133.1062774658203
 30
0.0
 41
1.0
 10
121.6928634643554
 20
133.1062774658203
 30
0.0
 41
1.0
 10
121.7355499267578
 20
133.0145568847656
 30
0.0
 41
1.0
 10
121.7355499267578
 20
133.0145568847656
 30
0.0
 41
1.0
 10
121.7355499267578
 20
133.0145568847656
 30
0.0
 41
1.0
 10
121.7640609741211
 20
132.950454711914
 30
0.0
 41
1.0
 10
121.7640609741211
 20
132.950454711914
 30
0.0
 41
1.0
 10
121.7640609741211
 20
132.950454711914
 30
0.0
 41
1.0
 10
121.7791595458984
 20
132.9154663085937
 30
0.0
 41
1.0
 10
121.7791595458984
 20
132.9154663085937
 30
0.0
 41
1.0
  0
SPLINE
  5
10B
330
70
100
AcDbEntity
  8
ILUSTRACE
  6
SOLID
 62
    74
100
AcDbSpline
210
0.0
220
0.0
230
1.0
 70
    12
 71
     3
 72
    20
 73
    16
 74
     0
 42
0.001
 43
0.0000000001
 40
0.0
 40
0.0
 40
0.0
 40
0.0
 40
1.0
 40
1.0
 40
1.0
 40
2.0
 40
2.0
 40
2.0
 40
3.0
 40
3.0
 40
3.0
 40
4.0
 40
4.0
 40
4.0
 40
5.0
 40
5.0
 40
5.0
 40
5.0
 10
122.9761734008789
 20
150.6188812255859
 30
0.0
 41
1.0
 10
122.9761734008789
 20
150.6188812255859
 30
0.0
 41
1.0
 10
122.7592849731445
 20
150.550796508789
 30
0.0
 41
1.0
 10
122.7592849731445
 20
150.550796508789
 30
0.0
 41
1.0
 10
122.7592849731445
 20
150.550796508789
 30
0.0
 41
1.0
 10
122.5634460449219
 20
150.4263610839843
 30
0.0
 41
1.0
 10
122.5634460449219
 20
150.4263610839843
 30
0.0
 41
1.0
 10
122.5634460449219
 20
150.4263610839843
 30
0.0
 41
1.0
 10
122.4089660644531
 20
150.2577667236328
 30
0.0
 41
1.0
 10
122.4089660644531
 20
150.2577667236328
 30
0.0
 41
1.0
 10
122.4089660644531
 20
150.2577667236328
 30
0.0
 41
1.0
 10
122.3019790649414
 20
150.0518951416015
 30
0.0
 41
1.0
 10
122.3019790649414
 20
150.0518951416015
 30
0.0
 41
1.0
 10
122.3019790649414
 20
150.0518951416015
 30
0.0
 41
1.0
 10
122.2530822753906
 20
149.8298950195312
 30
0.0
 41
1.0
 10
122.2530822753906
 20
149.8298950195312
 30
0.0
 41
1.0
  0
SPLINE
  5
10C
330
70
100
AcDbEntity
  8
ILUSTRACE
  6
SOLID
 62
    74
100
AcDbSpline
210
0.0
220
0.0
230
1.0
 70
    12
 71
     3
 72
    20
 73
    16
 74
     0
 42
0.001
 43
0.0000000001
 40
0.0
 40
0.0
 40
0.0
 40
0.0
 40
1.0
 40
1.0
 40
1.0
 40
2.0
 40
2.0
 40
2.0
 40
3.0
 40
3.0
 40
3.0
 40
4.0
 40
4.0
 40
4.0
 40
5.0
 40
5.0
 40
5.0
 40
5.0
 10
94.95538330078124
 20
149.8298950195312
 30
0.0
 41
1.0
 10
94.95538330078124
 20
149.8298950195312
 30
0.0
 41
1.0
 10
94.90648651123047
 20
150.0518951416015
 30
0.0
 41
1.0
 10
94.90648651123047
 20
150.0518951416015
 30
0.0
 41
1.0
 10
94.90648651123047
 20
150.0518951416015
 30
0.0
 41
1.0
 10
94.79945373535157
 20
150.2577667236328
 30
0.0
 41
1.0
 10
94.79945373535157
 20
150.2577667236328
 30
0.0
 41
1.0
 10
94.79945373535157
 20
150.2577667236328
 30
0.0
 41
1.0
 10
94.64497375488281
 20
150.4263610839843
 30
0.0
 41
1.0
 10
94.64497375488281
 20
150.4263610839843
 30
0.0
 41
1.0
 10
94.64497375488281
 20
150.4263610839843
 30
0.0
 41
1.0
 10
94.44918060302734
 20
150.550796508789
 30
0.0
 41
1.0
 10
94.44918060302734
 20
150.550796508789
 30
0.0
 41
1.0
 10
94.44918060302734
 20
150.550796508789
 30
0.0
 41
1.0
 10
94.23226165771485
 20
150.6188812255859
 30
0.0
 41
1.0
 10
94.23226165771485
 20
150.6188812255859
 30
0.0
 41
1.0
  0
SPLINE
  5
10D
330
70
100
AcDbEntity
  8
ILUSTRACE
  6
SOLID
 62
    74
100
AcDbSpline
210
0.0
220
0.0
230
1.0
 70
    12
 71
     3
 72
    17
 73
    13
 74
     0
 42
0.001
 43
0.0000000001
 40
0.0
 40
0.0
 40
0.0
 40
0.0
 40
1.0
 40
1.0
 40
1.0
 40
2.0
 40
2.0
 40
2.0
 40
3.0
 40
3.0
 40
3.0
 40
4.0
 40
4.0
 40
4.0
 40
4.0
 10
121.1963729858398
 20
144.481460571289
 30
0.0
 41
1.0
 10
121.1963729858398
 20
144.481460571289
 30
0.0
 41
1.0
 10
121.4571762084961
 20
144.9890747070312
 30
0.0
 41
1.0
 10
121.4571762084961
 20
144.9890747070312
 30
0.0
 41
1.0
 10
121.4571762084961
 20
144.9890747070312
 30
0.0
 41
1.0
 10
121.6681747436523
 20
145.38037109375
 30
0.0
 41
1.0
 10
121.6681747436523
 20
145.38037109375
 30
0.0
 41
1.0
 10
121.6681747436523
 20
145.38037109375
 30
0.0
 41
1.0
 10
121.816764831543
 20
145.64697265625
 30
0.0
 41
1.0
 10
121.816764831543
 20
145.64697265625
 30
0.0
 41
1.0
 10
121.816764831543
 20
145.64697265625
 30
0.0
 41
1.0
 10
121.8939895629883
 20
145.782958984375
 30
0.0
 41
1.0
 10
121.8939895629883
 20
145.782958984375
 30
0.0
 41
1.0
  0
SPLINE
  5
10E
330
70
100
AcDbEntity
  8
ILUSTRACE
  6
SOLID
 62
    74
100
AcDbSpline
210
0.0
220
0.0
230
1.0
 70
    12
 71
     3
 72
    56
 73
    52
 74
     0
 42
0.001
 43
0.0000000001
 40
0.0
 40
0.0
 40
0.0
 40
0.0
 40
1.0
 40
1.0
 40
1.0
 40
2.0
 40
2.0
 40
2.0
 40
3.0
 40
3.0
 40
3.0
 40
4.0
 40
4.0
 40
4.0
 40
5.0
 40
5.0
 40
5.0
 40
6.0
 40
6.0
 40
6.0
 40
7.0
 40
7.0
 40
7.0
 40
8.0
 40
8.0
 40
8.0
 40
9.0
 40
9.0
 40
9.0
 40
10.0
 40
10.0
 40
10.0
 40
11.0
 40
11.0
 40
11.0
 40
12.0
 40
12.0
 40
12.0
 40
13.0
 40
13.0
 40
13.0
 40
14.0
 40
14.0
 40
14.0
 40
15.0
 40
15.0
 40
15.0
 40
16.0
 40
16.0
 40
16.0
 40
17.0
 40
17.0
 40
17.0
 40
17.0
 10
121.1963729858398
 20
144.481460571289
 30
0.0
 41
1.0
 10
121.1963729858398
 20
144.481460571289
 30
0.0
 41
1.0
 10
120.9462890625
 20
143.8323822021484
 30
0.0
 41
1.0
 10
120.9462890625
 20
143.8323822021484
 30
0.0
 41
1.0
 10
120.9462890625
 20
143.8323822021484
 30
0.0
 41
1.0
 10
120.690559387207
 20
143.070068359375
 30
0.0
 41
1.0
 10
120.690559387207
 20
143.070068359375
 30
0.0
 41
1.0
 10
120.690559387207
 20
143.070068359375
 30
0.0
 41
1.0
 10
120.4563827514648
 20
142.2176818847656
 30
0.0
 41
1.0
 10
120.4563827514648
 20
142.2176818847656
 30
0.0
 41
1.0
 10
120.4563827514648
 20
142.2176818847656
 30
0.0
 41
1.0
 10
120.2709655761718
 20
141.3136901855468
 30
0.0
 41
1.0
 10
120.2709655761718
 20
141.3136901855468
 30
0.0
 41
1.0
 10
120.2709655761718
 20
141.3136901855468
 30
0.0
 41
1.0
 10
120.1521835327148
 20
140.3940734863281
 30
0.0
 41
1.0
 10
120.1521835327148
 20
140.3940734863281
 30
0.0
 41
1.0
 10
120.1521835327148
 20
140.3940734863281
 30
0.0
 41
1.0
 10
120.1057586669922
 20
139.46435546875
 30
0.0
 41
1.0
 10
120.1057586669922
 20
139.46435546875
 30
0.0
 41
1.0
 10
120.1057586669922
 20
139.46435546875
 30
0.0
 41
1.0
 10
120.1350784301758
 20
138.5263671875
 30
0.0
 41
1.0
 10
120.1350784301758
 20
138.5263671875
 30
0.0
 41
1.0
 10
120.1350784301758
 20
138.5263671875
 30
0.0
 41
1.0
 10
120.2374801635742
 20
137.60546875
 30
0.0
 41
1.0
 10
120.2374801635742
 20
137.60546875
 30
0.0
 41
1.0
 10
120.2374801635742
 20
137.60546875
 30
0.0
 41
1.0
 10
120.3982849121093
 20
136.7420806884765
 30
0.0
 41
1.0
 10
120.3982849121093
 20
136.7420806884765
 30
0.0
 41
1.0
 10
120.3982849121093
 20
136.7420806884765
 30
0.0
 41
1.0
 10
120.5931549072265
 20
135.9690704345703
 30
0.0
 41
1.0
 10
120.5931549072265
 20
135.9690704345703
 30
0.0
 41
1.0
 10
120.5931549072265
 20
135.9690704345703
 30
0.0
 41
1.0
 10
120.7936706542968
 20
135.3158721923828
 30
0.0
 41
1.0
 10
120.7936706542968
 20
135.3158721923828
 30
0.0
 41
1.0
 10
120.7936706542968
 20
135.3158721923828
 30
0.0
 41
1.0
 10
120.9832611083984
 20
134.7753753662109
 30
0.0
 41
1.0
 10
120.9832611083984
 20
134.7753753662109
 30
0.0
 41
1.0
 10
120.9832611083984
 20
134.7753753662109
 30
0.0
 41
1.0
 10
121.1588745117187
 20
134.3199768066406
 30
0.0
 41
1.0
 10
121.1588745117187
 20
134.3199768066406
 30
0.0
 41
1.0
 10
121.1588745117187
 20
134.3199768066406
 30
0.0
 41
1.0
 10
121.3218917846679
 20
133.926284790039
 30
0.0
 41
1.0
 10
121.3218917846679
 20
133.926284790039
 30
0.0
 41
1.0
 10
121.3218917846679
 20
133.926284790039
 30
0.0
 41
1.0
 10
121.4696655273437
 20
133.588394165039
 30
0.0
 41
1.0
 10
121.4696655273437
 20
133.588394165039
 30
0.0
 41
1.0
 10
121.4696655273437
 20
133.588394165039
 30
0.0
 41
1.0
 10
121.5955734252929
 20
133.3125915527344
 30
0.0
 41
1.0
 10
121.5955734252929
 20
133.3125915527344
 30
0.0
 41
1.0
 10
121.5955734252929
 20
133.3125915527344
 30
0.0
 41
1.0
 10
121.6928634643554
 20
133.1062774658203
 30
0.0
 41
1.0
 10
121.6928634643554
 20
133.1062774658203
 30
0.0
 41
1.0
  0
SPLINE
  5
10F
330
70
100
AcDbEntity
  8
ILUSTRACE
  6
SOLID
 62
    74
100
AcDbSpline
210
0.0
220
0.0
230
1.0
 70
    12
 71
     3
 72
    11
 73
     7
 74
     0
 42
0.001
 43
0.0000000001
 40
0.0
 40
0.0
 40
0.0
 40
0.0
 40
1.0
 40
1.0
 40
1.0
 40
2.0
 40
2.0
 40
2.0
 40
2.0
 10
108.8972625732422
 20
150.8439788818359
 30
0.0
 41
1.0
 10
108.8972625732422
 20
150.8439788818359
 30
0.0
 41
1.0
 10
108.7507553100586
 20
150.8435668945312
 30
0.0
 41
1.0
 10
108.7507553100586
 20
150.8435668945312
 30
0.0
 41
1.0
 10
108.7507553100586
 20
150.8435668945312
 30
0.0
 41
1.0
 10
108.6042861938476
 20
150.8433837890625
 30
0.0
 41
1.0
 10
108.6042861938476
 20
150.8433837890625
 30
0.0
 41
1.0
  0
SPLINE
  5
110
330
70
100
AcDbEntity
  8
ILUSTRACE
  6
SOLID
 62
    74
100
AcDbSpline
210
0.0
220
0.0
230
1.0
 70
    12
 71
     3
 72
    11
 73
     7
 74
     0
 42
0.001
 43
0.0000000001
 40
0.0
 40
0.0
 40
0.0
 40
0.0
 40
1.0
 40
1.0
 40
1.0
 40
2.0
 40
2.0
 40
2.0
 40
2.0
 10
108.6042861938476
 20
150.8433837890625
 30
0.0
 41
1.0
 10
108.6042861938476
 20
150.8433837890625
 30
0.0
 41
1.0
 10
108.457778930664
 20
150.8435668945312
 30
0.0
 41
1.0
 10
108.457778930664
 20
150.8435668945312
 30
0.0
 41
1.0
 10
108.457778930664
 20
150.8435668945312
 30
0.0
 41
1.0
 10
108.3112640380859
 20
150.8439788818359
 30
0.0
 41
1.0
 10
108.3112640380859
 20
150.8439788818359
 30
0.0
 41
1.0
  0
SPLINE
  5
111
330
70
100
AcDbEntity
  8
ILUSTRACE
  6
SOLID
 62
    74
100
AcDbSpline
210
0.0
220
0.0
230
1.0
 70
    12
 71
     3
 72
    11
 73
     7
 74
     0
 42
0.001
 43
0.0000000001
 40
0.0
 40
0.0
 40
0.0
 40
0.0
 40
1.0
 40
1.0
 40
1.0
 40
2.0
 40
2.0
 40
2.0
 40
2.0
 10
108.6042861938476
 20
147.9639739990234
 30
0.0
 41
1.0
 10
108.6042861938476
 20
147.9639739990234
 30
0.0
 41
1.0
 10
108.457778930664
 20
147.9627838134765
 30
0.0
 41
1.0
 10
108.457778930664
 20
147.9627838134765
 30
0.0
 41
1.0
 10
108.457778930664
 20
147.9627838134765
 30
0.0
 41
1.0
 10
108.3112640380859
 20
147.9591827392578
 30
0.0
 41
1.0
 10
108.3112640380859
 20
147.9591827392578
 30
0.0
 41
1.0
  0
SPLINE
  5
112
330
70
100
AcDbEntity
  8
ILUSTRACE
  6
SOLID
 62
    74
100
AcDbSpline
210
0.0
220
0.0
230
1.0
 70
    12
 71
     3
 72
    11
 73
     7
 74
     0
 42
0.001
 43
0.0000000001
 40
0.0
 40
0.0
 40
0.0
 40
0.0
 40
1.0
 40
1.0
 40
1.0
 40
2.0
 40
2.0
 40
2.0
 40
2.0
 10
108.8972625732422
 20
147.9591827392578
 30
0.0
 41
1.0
 10
108.8972625732422
 20
147.9591827392578
 30
0.0
 41
1.0
 10
108.7506866455078
 20
147.9627838134765
 30
0.0
 41
1.0
 10
108.7506866455078
 20
147.9627838134765
 30
0.0
 41
1.0
 10
108.7506866455078
 20
147.9627838134765
 30
0.0
 41
1.0
 10
108.6042861938476
 20
147.9639739990234
 30
0.0
 41
1.0
 10
108.6042861938476
 20
147.9639739990234
 30
0.0
 41
1.0
  0
SPLINE
  5
113
330
70
100
AcDbEntity
  8
ILUSTRACE
  6
SOLID
 62
    74
100
AcDbSpline
210
0.0
220
0.0
230
1.0
 70
    12
 71
     3
 72
    14
 73
    10
 74
     0
 42
0.001
 43
0.0000000001
 40
0.0
 40
0.0
 40
0.0
 40
0.0
 40
1.0
 40
1.0
 40
1.0
 40
2.0
 40
2.0
 40
2.0
 40
3.0
 40
3.0
 40
3.0
 40
3.0
 10
122.2530822753906
 20
149.8298950195312
 30
0.0
 41
1.0
 10
122.2530822753906
 20
149.8298950195312
 30
0.0
 41
1.0
 10
122.2006607055664
 20
149.2313690185547
 30
0.0
 41
1.0
 10
122.2006607055664
 20
149.2313690185547
 30
0.0
 41
1.0
 10
122.2006607055664
 20
149.2313690185547
 30
0.0
 41
1.0
 10
122.1483764648437
 20
148.6332702636719
 30
0.0
 41
1.0
 10
122.1483764648437
 20
148.6332702636719
 30
0.0
 41
1.0
 10
122.1483764648437
 20
148.6332702636719
 30
0.0
 41
1.0
 10
122.0960540771484
 20
148.0355987548828
 30
0.0
 41
1.0
 10
122.0960540771484
 20
148.0355987548828
 30
0.0
 41
1.0
  0
SPLINE
  5
114
330
70
100
AcDbEntity
  8
ILUSTRACE
  6
SOLID
 62
    74
100
AcDbSpline
210
0.0
220
0.0
230
1.0
 70
    12
 71
     3
 72
    11
 73
     7
 74
     0
 42
0.001
 43
0.0000000001
 40
0.0
 40
0.0
 40
0.0
 40
0.0
 40
1.0
 40
1.0
 40
1.0
 40
2.0
 40
2.0
 40
2.0
 40
2.0
 10
124.2485656738281
 20
150.8431701660156
 30
0.0
 41
1.0
 10
124.2485656738281
 20
150.8431701660156
 30
0.0
 41
1.0
 10
123.6099700927734
 20
150.7305755615234
 30
0.0
 41
1.0
 10
123.6099700927734
 20
150.7305755615234
 30
0.0
 41
1.0
 10
123.6099700927734
 20
150.7305755615234
 30
0.0
 41
1.0
 10
122.9761734008789
 20
150.6188812255859
 30
0.0
 41
1.0
 10
122.9761734008789
 20
150.6188812255859
 30
0.0
 41
1.0
  0
SPLINE
  5
115
330
70
100
AcDbEntity
  8
ILUSTRACE
  6
SOLID
 62
    74
100
AcDbSpline
210
0.0
220
0.0
230
1.0
 70
    12
 71
     3
 72
    11
 73
     7
 74
     0
 42
0.001
 43
0.0000000001
 40
0.0
 40
0.0
 40
0.0
 40
0.0
 40
1.0
 40
1.0
 40
1.0
 40
2.0
 40
2.0
 40
2.0
 40
2.0
 10
94.23226165771485
 20
150.6188812255859
 30
0.0
 41
1.0
 10
94.23226165771485
 20
150.6188812255859
 30
0.0
 41
1.0
 10
93.59856414794922
 20
150.7305755615234
 30
0.0
 41
1.0
 10
93.59856414794922
 20
150.7305755615234
 30
0.0
 41
1.0
 10
93.59856414794922
 20
150.7305755615234
 30
0.0
 41
1.0
 10
92.9599609375
 20
150.8431701660156
 30
0.0
 41
1.0
 10
92.9599609375
 20
150.8431701660156
 30
0.0
 41
1.0
  0
SPLINE
  5
116
330
70
100
AcDbEntity
  8
ILUSTRACE
  6
SOLID
 62
    74
100
AcDbSpline
210
0.0
220
0.0
230
1.0
 70
    12
 71
     3
 72
    29
 73
    25
 74
     0
 42
0.001
 43
0.0000000001
 40
0.0
 40
0.0
 40
0.0
 40
0.0
 40
1.0
 40
1.0
 40
1.0
 40
2.0
 40
2.0
 40
2.0
 40
3.0
 40
3.0
 40
3.0
 40
4.0
 40
4.0
 40
4.0
 40
5.0
 40
5.0
 40
5.0
 40
6.0
 40
6.0
 40
6.0
 40
7.0
 40
7.0
 40
7.0
 40
8.0
 40
8.0
 40
8.0
 40
8.0
 10
121.7791595458984
 20
132.9154663085937
 30
0.0
 41
1.0
 10
121.7791595458984
 20
132.9154663085937
 30
0.0
 41
1.0
 10
121.7349548339843
 20
132.5492858886718
 30
0.0
 41
1.0
 10
121.7349548339843
 20
132.5492858886718
 30
0.0
 41
1.0
 10
121.7349548339843
 20
132.5492858886718
 30
0.0
 41
1.0
 10
121.6556854248047
 20
132.2162933349609
 30
0.0
 41
1.0
 10
121.6556854248047
 20
132.2162933349609
 30
0.0
 41
1.0
 10
121.6556854248047
 20
132.2162933349609
 30
0.0
 41
1.0
 10
121.5472717285156
 20
131.9103698730468
 30
0.0
 41
1.0
 10
121.5472717285156
 20
131.9103698730468
 30
0.0
 41
1.0
 10
121.5472717285156
 20
131.9103698730468
 30
0.0
 41
1.0
 10
121.4126586914062
 20
131.6265869140625
 30
0.0
 41
1.0
 10
121.4126586914062
 20
131.6265869140625
 30
0.0
 41
1.0
 10
121.4126586914062
 20
131.6265869140625
 30
0.0
 41
1.0
 10
121.2523574829101
 20
131.3607788085937
 30
0.0
 41
1.0
 10
121.2523574829101
 20
131.3607788085937
 30
0.0
 41
1.0
 10
121.2523574829101
 20
131.3607788085937
 30
0.0
 41
1.0
 10
121.0669631958008
 20
131.1126708984375
 30
0.0
 41
1.0
 10
121.0669631958008
 20
131.1126708984375
 30
0.0
 41
1.0
 10
121.0669631958008
 20
131.1126708984375
 30
0.0
 41
1.0
 10
120.8579864501953
 20
130.8841705322265
 30
0.0
 41
1.0
 10
120.8579864501953
 20
130.8841705322265
 30
0.0
 41
1.0
 10
120.8579864501953
 20
130.8841705322265
 30
0.0
 41
1.0
 10
120.6273727416992
 20
130.6759643554687
 30
0.0
 41
1.0
 10
120.6273727416992
 20
130.6759643554687
 30
0.0
 41
1.0
  0
SPLINE
  5
117
330
70
100
AcDbEntity
  8
ILUSTRACE
  6
SOLID
 62
    74
100
AcDbSpline
210
0.0
220
0.0
230
1.0
 70
    12
 71
     3
 72
    14
 73
    10
 74
     0
 42
0.001
 43
0.0000000001
 40
0.0
 40
0.0
 40
0.0
 40
0.0
 40
1.0
 40
1.0
 40
1.0
 40
2.0
 40
2.0
 40
2.0
 40
3.0
 40
3.0
 40
3.0
 40
3.0
 10
95.11236572265625
 20
148.0355987548828
 30
0.0
 41
1.0
 10
95.11236572265625
 20
148.0355987548828
 30
0.0
 41
1.0
 10
95.06008148193359
 20
148.6332702636719
 30
0.0
 41
1.0
 10
95.06008148193359
 20
148.6332702636719
 30
0.0
 41
1.0
 10
95.06008148193359
 20
148.6332702636719
 30
0.0
 41
1.0
 10
95.00776672363281
 20
149.2313690185547
 30
0.0
 41
1.0
 10
95.00776672363281
 20
149.2313690185547
 30
0.0
 41
1.0
 10
95.00776672363281
 20
149.2313690185547
 30
0.0
 41
1.0
 10
94.95538330078124
 20
149.8298950195312
 30
0.0
 41
1.0
 10
94.95538330078124
 20
149.8298950195312
 30
0.0
 41
1.0
  0
SPLINE
  5
118
330
70
100
AcDbEntity
  8
ILUSTRACE
  6
0_7-0_7-0_4-0_1-0_4
 62
    75
100
AcDbSpline
210
0.0
220
0.0
230
1.0
 70
    31
 71
     3
 72
    11
 73
     7
 74
     0
 42
0.001
 43
0.0000000001
 40
0.0
 40
0.0
 40
0.0
 40
0.0
 40
1.0
 40
1.0
 40
1.0
 40
2.0
 40
2.0
 40
2.0
 40
2.0
 10
107.540054321289
 20
139.3543701171875
 30
0.0
 41
1.0
 10
107.540054321289
 20
139.3543701171875
 30
0.0
 41
1.0
 10
129.4967651367187
 20
139.3543701171875
 30
0.0
 41
1.0
 10
129.4967651367187
 20
139.3543701171875
 30
0.0
 41
1.0
 10
129.4967651367187
 20
139.3543701171875
 30
0.0
 41
1.0
 10
107.540054321289
 20
139.3543701171875
 30
0.0
 41
1.0
 10
107.540054321289
 20
139.3543701171875
 30
0.0
 41
1.0
  0
SPLINE
  5
119
330
70
100
AcDbEntity
  8
ILUSTRACE
  6
0_7-0_7-0_4-0_1-0_4
 62
    75
100
AcDbSpline
210
0.0
220
0.0
230
1.0
 70
    31
 71
     3
 72
    11
 73
     7
 74
     0
 42
0.001
 43
0.0000000001
 40
0.0
 40
0.0
 40
0.0
 40
0.0
 40
1.0
 40
1.0
 40
1.0
 40
2.0
 40
2.0
 40
2.0
 40
2.0
 10
108.6042861938476
 20
185.3107604980469
 30
0.0
 41
1.0
 10
108.6042861938476
 20
185.3107604980469
 30
0.0
 41
1.0
 10
108.6042861938476
 20
129.088882446289
 30
0.0
 41
1.0
 10
108.6042861938476
 20
129.088882446289
 30
0.0
 41
1.0
 10
108.6042861938476
 20
129.088882446289
 30
0.0
 41
1.0
 10
108.6042861938476
 20
185.3107604980469
 30
0.0
 41
1.0
 10
108.6042861938476
 20
185.3107604980469
 30
0.0
 41
1.0
  0
SPLINE
  5
11A
330
70
100
AcDbEntity
  8
ILUSTRACE
  6
SOLID
 62
    86
100
AcDbSpline
210
0.0
220
0.0
230
1.0
 70
    31
 71
     3
 72
    11
 73
     7
 74
     0
 42
0.001
 43
0.0000000001
 40
0.0
 40
0.0
 40
0.0
 40
0.0
 40
1.0
 40
1.0
 40
1.0
 40
2.0
 40
2.0
 40
2.0
 40
2.0
 10
89.51967620849609
 20
152.386962890625
 30
0.0
 41
1.0
 10
89.51967620849609
 20
152.386962890625
 30
0.0
 41
1.0
 10
89.51967620849609
 20
130.1069641113281
 30
0.0
 41
1.0
 10
89.51967620849609
 20
130.1069641113281
 30
0.0
 41
1.0
 10
89.51967620849609
 20
130.1069641113281
 30
0.0
 41
1.0
 10
89.51967620849609
 20
152.386962890625
 30
0.0
 41
1.0
 10
89.51967620849609
 20
152.386962890625
 30
0.0
 41
1.0
  0
SPLINE
  5
11B
330
70
100
AcDbEntity
  8
ILUSTRACE
  6
SOLID
 62
    86
100
AcDbSpline
210
0.0
220
0.0
230
1.0
 70
    31
 71
     3
 72
    11
 73
     7
 74
     0
 42
0.001
 43
0.0000000001
 40
0.0
 40
0.0
 40
0.0
 40
0.0
 40
1.0
 40
1.0
 40
1.0
 40
2.0
 40
2.0
 40
2.0
 40
2.0
 10
112.7979583740234
 20
152.4481658935547
 30
0.0
 41
1.0
 10
112.7979583740234
 20
152.4481658935547
 30
0.0
 41
1.0
 10
112.7979583740234
 20
140.0383605957031
 30
0.0
 41
1.0
 10
112.7979583740234
 20
140.0383605957031
 30
0.0
 41
1.0
 10
112.7979583740234
 20
140.0383605957031
 30
0.0
 41
1.0
 10
112.7979583740234
 20
152.4481658935547
 30
0.0
 41
1.0
 10
112.7979583740234
 20
152.4481658935547
 30
0.0
 41
1.0
  0
SPLINE
  5
11C
330
70
100
AcDbEntity
  8
ILUSTRACE
  6
SOLID
 62
    86
100
AcDbSpline
210
0.0
220
0.0
230
1.0
 70
    31
 71
     3
 72
    11
 73
     7
 74
     0
 42
0.001
 43
0.0000000001
 40
0.0
 40
0.0
 40
0.0
 40
0.0
 40
1.0
 40
1.0
 40
1.0
 40
2.0
 40
2.0
 40
2.0
 40
2.0
 10
85.74435424804688
 20
153.9287872314453
 30
0.0
 41
1.0
 10
85.74435424804688
 20
153.9287872314453
 30
0.0
 41
1.0
 10
85.74435424804688
 20
130.2562561035156
 30
0.0
 41
1.0
 10
85.74435424804688
 20
130.2562561035156
 30
0.0
 41
1.0
 10
85.74435424804688
 20
130.2562561035156
 30
0.0
 41
1.0
 10
85.74435424804688
 20
153.9287872314453
 30
0.0
 41
1.0
 10
85.74435424804688
 20
153.9287872314453
 30
0.0
 41
1.0
  0
SPLINE
  5
11D
330
70
100
AcDbEntity
  8
ILUSTRACE
  6
SOLID
 62
    86
100
AcDbSpline
210
0.0
220
0.0
230
1.0
 70
    31
 71
     3
 72
    11
 73
     7
 74
     0
 42
0.001
 43
0.0000000001
 40
0.0
 40
0.0
 40
0.0
 40
0.0
 40
1.0
 40
1.0
 40
1.0
 40
2.0
 40
2.0
 40
2.0
 40
2.0
 10
146.8646545410156
 20
156.7555847167968
 30
0.0
 41
1.0
 10
146.8646545410156
 20
156.7555847167968
 30
0.0
 41
1.0
 10
93.96915435791015
 20
156.7555847167968
 30
0.0
 41
1.0
 10
93.96915435791015
 20
156.7555847167968
 30
0.0
 41
1.0
 10
93.96915435791015
 20
156.7555847167968
 30
0.0
 41
1.0
 10
146.8646545410156
 20
156.7555847167968
 30
0.0
 41
1.0
 10
146.8646545410156
 20
156.7555847167968
 30
0.0
 41
1.0
  0
SPLINE
  5
11E
330
70
100
AcDbEntity
  8
ILUSTRACE
  6
SOLID
 62
    86
100
AcDbSpline
210
0.0
220
0.0
230
1.0
 70
    31
 71
     3
 72
    11
 73
     7
 74
     0
 42
0.001
 43
0.0000000001
 40
0.0
 40
0.0
 40
0.0
 40
0.0
 40
1.0
 40
1.0
 40
1.0
 40
2.0
 40
2.0
 40
2.0
 40
2.0
 10
135.5535888671875
 20
144.8232727050781
 30
0.0
 41
1.0
 10
135.5535888671875
 20
144.8232727050781
 30
0.0
 41
1.0
 10
135.5535888671875
 20
133.9719696044922
 30
0.0
 41
1.0
 10
135.5535888671875
 20
133.9719696044922
 30
0.0
 41
1.0
 10
135.5535888671875
 20
133.9719696044922
 30
0.0
 41
1.0
 10
135.5535888671875
 20
144.8232727050781
 30
0.0
 41
1.0
 10
135.5535888671875
 20
144.8232727050781
 30
0.0
 41
1.0
  0
SPLINE
  5
11F
330
70
100
AcDbEntity
  8
ILUSTRACE
  6
SOLID
 62
    86
100
AcDbSpline
210
0.0
220
0.0
230
1.0
 70
    31
 71
     3
 72
    11
 73
     7
 74
     0
 42
0.001
 43
0.0000000001
 40
0.0
 40
0.0
 40
0.0
 40
0.0
 40
1.0
 40
1.0
 40
1.0
 40
2.0
 40
2.0
 40
2.0
 40
2.0
 10
125.15576171875
 20
189.3875579833984
 30
0.0
 41
1.0
 10
125.15576171875
 20
189.3875579833984
 30
0.0
 41
1.0
 10
92.15238952636719
 20
189.3875579833984
 30
0.0
 41
1.0
 10
92.15238952636719
 20
189.3875579833984
 30
0.0
 41
1.0
 10
92.15238952636719
 20
189.3875579833984
 30
0.0
 41
1.0
 10
125.15576171875
 20
189.3875579833984
 30
0.0
 41
1.0
 10
125.15576171875
 20
189.3875579833984
 30
0.0
 41
1.0
  0
SPLINE
  5
120
330
70
100
AcDbEntity
  8
ILUSTRACE
  6
SOLID
 62
    74
100
AcDbSpline
210
0.0
220
0.0
230
1.0
 70
    28
 71
     3
 72
     8
 73
     4
 74
     0
 42
0.001
 43
0.0000000001
 40
0.0
 40
0.0
 40
0.0
 40
0.0
 40
1.0
 40
1.0
 40
1.0
 40
1.0
 10
96.16336822509765
 20
154.3789978027344
 30
0.0
 41
1.0
 10
96.16336822509765
 20
154.3789978027344
 30
0.0
 41
1.0
 10
120.9654769897461
 20
155.0181884765625
 30
0.0
 41
1.0
 10
120.9654769897461
 20
155.0181884765625
 30
0.0
 41
1.0
  0
SPLINE
  5
121
330
70
100
AcDbEntity
  8
ILUSTRACE
  6
SOLID
 62
    74
100
AcDbSpline
210
0.0
220
0.0
230
1.0
 70
    28
 71
     3
 72
     8
 73
     4
 74
     0
 42
0.001
 43
0.0000000001
 40
0.0
 40
0.0
 40
0.0
 40
0.0
 40
1.0
 40
1.0
 40
1.0
 40
1.0
 10
96.23847198486329
 20
155.2813568115234
 30
0.0
 41
1.0
 10
96.23847198486329
 20
155.2813568115234
 30
0.0
 41
1.0
 10
121.0405807495117
 20
155.9205627441406
 30
0.0
 41
1.0
 10
121.0405807495117
 20
155.9205627441406
 30
0.0
 41
1.0
  0
SPLINE
  5
122
330
70
100
AcDbEntity
  8
ILUSTRACE
  6
SOLID
 62
    74
100
AcDbSpline
210
0.0
220
0.0
230
1.0
 70
    28
 71
     3
 72
     8
 73
     4
 74
     0
 42
0.001
 43
0.0000000001
 40
0.0
 40
0.0
 40
0.0
 40
0.0
 40
1.0
 40
1.0
 40
1.0
 40
1.0
 10
96.16336822509765
 20
156.3830871582031
 30
0.0
 41
1.0
 10
96.16336822509765
 20
156.3830871582031
 30
0.0
 41
1.0
 10
120.9654769897461
 20
157.0222930908203
 30
0.0
 41
1.0
 10
120.9654769897461
 20
157.0222930908203
 30
0.0
 41
1.0
  0
SPLINE
  5
123
330
70
100
AcDbEntity
  8
ILUSTRACE
  6
SOLID
 62
    74
100
AcDbSpline
210
0.0
220
0.0
230
1.0
 70
    28
 71
     3
 72
     8
 73
     4
 74
     0
 42
0.001
 43
0.0000000001
 40
0.0
 40
0.0
 40
0.0
 40
0.0
 40
1.0
 40
1.0
 40
1.0
 40
1.0
 10
96.23847198486329
 20
157.2854614257812
 30
0.0
 41
1.0
 10
96.23847198486329
 20
157.2854614257812
 30
0.0
 41
1.0
 10
121.0405807495117
 20
157.9246978759765
 30
0.0
 41
1.0
 10
121.0405807495117
 20
157.9246978759765
 30
0.0
 41
1.0
  0
SPLINE
  5
124
330
70
100
AcDbEntity
  8
ILUSTRACE
  6
SOLID
 62
    74
100
AcDbSpline
210
0.0
220
0.0
230
1.0
 70
    28
 71
     3
 72
     8
 73
     4
 74
     0
 42
0.001
 43
0.0000000001
 40
0.0
 40
0.0
 40
0.0
 40
0.0
 40
1.0
 40
1.0
 40
1.0
 40
1.0
 10
96.16336822509765
 20
158.0599822998047
 30
0.0
 41
1.0
 10
96.16336822509765
 20
158.0599822998047
 30
0.0
 41
1.0
 10
120.9654769897461
 20
158.6991729736328
 30
0.0
 41
1.0
 10
120.9654769897461
 20
158.6991729736328
 30
0.0
 41
1.0
  0
SPLINE
  5
125
330
70
100
AcDbEntity
  8
ILUSTRACE
  6
SOLID
 62
    74
100
AcDbSpline
210
0.0
220
0.0
230
1.0
 70
    28
 71
     3
 72
     8
 73
     4
 74
     0
 42
0.001
 43
0.0000000001
 40
0.0
 40
0.0
 40
0.0
 40
0.0
 40
1.0
 40
1.0
 40
1.0
 40
1.0
 10
96.23847198486329
 20
158.9623870849609
 30
0.0
 41
1.0
 10
96.23847198486329
 20
158.9623870849609
 30
0.0
 41
1.0
 10
121.0405807495117
 20
159.601577758789
 30
0.0
 41
1.0
 10
121.0405807495117
 20
159.601577758789
 30
0.0
 41
1.0
  0
SPLINE
  5
126
330
70
100
AcDbEntity
  8
ILUSTRACE
  6
SOLID
 62
    86
100
AcDbSpline
210
0.0
220
0.0
230
1.0
 70
    31
 71
     3
 72
    11
 73
     7
 74
     0
 42
0.001
 43
0.0000000001
 40
0.0
 40
0.0
 40
0.0
 40
0.0
 40
1.0
 40
1.0
 40
1.0
 40
2.0
 40
2.0
 40
2.0
 40
2.0
 10
89.67867279052734
 20
187.9404754638672
 30
0.0
 41
1.0
 10
89.67867279052734
 20
187.9404754638672
 30
0.0
 41
1.0
 10
89.67867279052734
 20
175.6617584228515
 30
0.0
 41
1.0
 10
89.67867279052734
 20
175.6617584228515
 30
0.0
 41
1.0
 10
89.67867279052734
 20
175.6617584228515
 30
0.0
 41
1.0
 10
89.67867279052734
 20
187.9404754638672
 30
0.0
 41
1.0
 10
89.67867279052734
 20
187.9404754638672
 30
0.0
 41
1.0
  0
SPLINE
  5
127
330
70
100
AcDbEntity
  8
ILUSTRACE
  6
SOLID
 62
    86
100
AcDbSpline
210
0.0
220
0.0
230
1.0
 70
    31
 71
     3
 72
    11
 73
     7
 74
     0
 42
0.001
 43
0.0000000001
 40
0.0
 40
0.0
 40
0.0
 40
0.0
 40
1.0
 40
1.0
 40
1.0
 40
2.0
 40
2.0
 40
2.0
 40
2.0
 10
86.5876693725586
 20
190.6694946289062
 30
0.0
 41
1.0
 10
86.5876693725586
 20
190.6694946289062
 30
0.0
 41
1.0
 10
86.5876693725586
 20
181.3612823486328
 30
0.0
 41
1.0
 10
86.5876693725586
 20
181.3612823486328
 30
0.0
 41
1.0
 10
86.5876693725586
 20
181.3612823486328
 30
0.0
 41
1.0
 10
86.5876693725586
 20
190.6694946289062
 30
0.0
 41
1.0
 10
86.5876693725586
 20
190.6694946289062
 30
0.0
 41
1.0
  0
SPLINE
  5
128
330
70
100
AcDbEntity
  8
ILUSTRACE
  6
SOLID
 62
    86
100
AcDbSpline
210
0.0
220
0.0
230
1.0
 70
    31
 71
     3
 72
    11
 73
     7
 74
     0
 42
0.001
 43
0.0000000001
 40
0.0
 40
0.0
 40
0.0
 40
0.0
 40
1.0
 40
1.0
 40
1.0
 40
2.0
 40
2.0
 40
2.0
 40
2.0
 10
91.32268524169921
 20
185.396499633789
 30
0.0
 41
1.0
 10
91.32268524169921
 20
185.396499633789
 30
0.0
 41
1.0
 10
89.42915344238281
 20
185.396499633789
 30
0.0
 41
1.0
 10
89.42915344238281
 20
185.396499633789
 30
0.0
 41
1.0
 10
89.42915344238281
 20
185.396499633789
 30
0.0
 41
1.0
 10
91.32268524169921
 20
185.396499633789
 30
0.0
 41
1.0
 10
91.32268524169921
 20
185.396499633789
 30
0.0
 41
1.0
  0
SPLINE
  5
129
330
70
100
AcDbEntity
  8
ILUSTRACE
  6
SOLID
 62
    86
100
AcDbSpline
210
0.0
220
0.0
230
1.0
 70
    31
 71
     3
 72
    11
 73
     7
 74
     0
 42
0.001
 43
0.0000000001
 40
0.0
 40
0.0
 40
0.0
 40
0.0
 40
1.0
 40
1.0
 40
1.0
 40
2.0
 40
2.0
 40
2.0
 40
2.0
 10
103.3782730102539
 20
188.1695709228515
 30
0.0
 41
1.0
 10
103.3782730102539
 20
188.1695709228515
 30
0.0
 41
1.0
 10
85.72227478027343
 20
188.1695709228515
 30
0.0
 41
1.0
 10
85.72227478027343
 20
188.1695709228515
 30
0.0
 41
1.0
 10
85.72227478027343
 20
188.1695709228515
 30
0.0
 41
1.0
 10
103.3782730102539
 20
188.1695709228515
 30
0.0
 41
1.0
 10
103.3782730102539
 20
188.1695709228515
 30
0.0
 41
1.0
  0
SPLINE
  5
12A
330
70
100
AcDbEntity
  8
ILUSTRACE
  6
SOLID
 62
    86
100
AcDbSpline
210
0.0
220
0.0
230
1.0
 70
    31
 71
     3
 72
    11
 73
     7
 74
     0
 42
0.001
 43
0.0000000001
 40
0.0
 40
0.0
 40
0.0
 40
0.0
 40
1.0
 40
1.0
 40
1.0
 40
2.0
 40
2.0
 40
2.0
 40
2.0
 10
94.92267608642578
 20
183.5393981933593
 30
0.0
 41
1.0
 10
94.92267608642578
 20
183.5393981933593
 30
0.0
 41
1.0
 10
85.98685455322266
 20
183.5393981933593
 30
0.0
 41
1.0
 10
85.98685455322266
 20
183.5393981933593
 30
0.0
 41
1.0
 10
85.98685455322266
 20
183.5393981933593
 30
0.0
 41
1.0
 10
94.92267608642578
 20
183.5393981933593
 30
0.0
 41
1.0
 10
94.92267608642578
 20
183.5393981933593
 30
0.0
 41
1.0
  0
SPLINE
  5
12B
330
70
100
AcDbEntity
  8
ILUSTRACE
  6
SOLID
 62
    76
100
AcDbSpline
210
0.0
220
0.0
230
1.0
 70
    15
 71
     3
 72
    26
 73
    22
 74
     0
 42
0.001
 43
0.0000000001
 40
0.0
 40
0.0
 40
0.0
 40
0.0
 40
1.0
 40
1.0
 40
1.0
 40
2.0
 40
2.0
 40
2.0
 40
3.0
 40
3.0
 40
3.0
 40
4.0
 40
4.0
 40
4.0
 40
5.0
 40
5.0
 40
5.0
 40
6.0
 40
6.0
 40
6.0
 40
7.0
 40
7.0
 40
7.0
 40
7.0
 10
89.06427764892578
 20
131.2784729003906
 30
0.0
 41
1.0
 10
89.06427764892578
 20
131.2784729003906
 30
0.0
 41
1.0
 10
89.06427764892578
 20
131.2784729003906
 30
0.0
 41
1.0
 10
89.06427764892578
 20
131.2784729003906
 30
0.0
 41
1.0
 10
89.06427764892578
 20
131.2784729003906
 30
0.0
 41
1.0
 10
89.06427764892578
 20
131.2784729003906
 30
0.0
 41
1.0
 10
89.06427764892578
 20
131.2784729003906
 30
0.0
 41
1.0
 10
89.06427764892578
 20
131.2784729003906
 30
0.0
 41
1.0
 10
89.50768280029297
 20
130.0056762695312
 30
0.0
 41
1.0
 10
89.50768280029297
 20
130.0056762695312
 30
0.0
 41
1.0
 10
89.50768280029297
 20
130.0056762695312
 30
0.0
 41
1.0
 10
89.95108795166016
 20
131.2784729003906
 30
0.0
 41
1.0
 10
89.95108795166016
 20
131.2784729003906
 30
0.0
 41
1.0
 10
89.95108795166016
 20
131.2784729003906
 30
0.0
 41
1.0
 10
89.95108795166016
 20
131.2784729003906
 30
0.0
 41
1.0
 10
89.95108795166016
 20
131.2784729003906
 30
0.0
 41
1.0
 10
89.95108795166016
 20
131.2784729003906
 30
0.0
 41
1.0
 10
89.95108795166016
 20
131.2784729003906
 30
0.0
 41
1.0
 10
89.95108795166016
 20
131.2784729003906
 30
0.0
 41
1.0
 10
89.95108795166016
 20
131.2784729003906
 30
0.0
 41
1.0
 10
89.06427764892578
 20
131.2784729003906
 30
0.0
 41
1.0
 10
89.06427764892578
 20
131.2784729003906
 30
0.0
 41
1.0
  0
SPLINE
  5
12C
330
70
100
AcDbEntity
  8
ILUSTRACE
  6
SOLID
 62
    76
100
AcDbSpline
210
0.0
220
0.0
230
1.0
 70
    15
 71
     3
 72
    26
 73
    22
 74
     0
 42
0.001
 43
0.0000000001
 40
0.0
 40
0.0
 40
0.0
 40
0.0
 40
1.0
 40
1.0
 40
1.0
 40
2.0
 40
2.0
 40
2.0
 40
3.0
 40
3.0
 40
3.0
 40
4.0
 40
4.0
 40
4.0
 40
5.0
 40
5.0
 40
5.0
 40
6.0
 40
6.0
 40
6.0
 40
7.0
 40
7.0
 40
7.0
 40
7.0
 10
112.3866577148437
 20
140.6441955566406
 30
0.0
 41
1.0
 10
112.3866577148437
 20
140.6441955566406
 30
0.0
 41
1.0
 10
112.3866577148437
 20
140.6441955566406
 30
0.0
 41
1.0
 10
112.3866577148437
 20
140.6441955566406
 30
0.0
 41
1.0
 10
112.3866577148437
 20
140.6441955566406
 30
0.0
 41
1.0
 10
112.3866577148437
 20
140.6441955566406
 30
0.0
 41
1.0
 10
112.3866577148437
 20
140.6441955566406
 30
0.0
 41
1.0
 10
112.3866577148437
 20
140.6441955566406
 30
0.0
 41
1.0
 10
112.8300628662109
 20
139.3713684082031
 30
0.0
 41
1.0
 10
112.8300628662109
 20
139.3713684082031
 30
0.0
 41
1.0
 10
112.8300628662109
 20
139.3713684082031
 30
0.0
 41
1.0
 10
113.2734680175781
 20
140.6441955566406
 30
0.0
 41
1.0
 10
113.2734680175781
 20
140.6441955566406
 30
0.0
 41
1.0
 10
113.2734680175781
 20
140.6441955566406
 30
0.0
 41
1.0
 10
113.2734680175781
 20
140.6441955566406
 30
0.0
 41
1.0
 10
113.2734680175781
 20
140.6441955566406
 30
0.0
 41
1.0
 10
113.2734680175781
 20
140.6441955566406
 30
0.0
 41
1.0
 10
113.2734680175781
 20
140.6441955566406
 30
0.0
 41
1.0
 10
113.2734680175781
 20
140.6441955566406
 30
0.0
 41
1.0
 10
113.2734680175781
 20
140.6441955566406
 30
0.0
 41
1.0
 10
112.3866577148437
 20
140.6441955566406
 30
0.0
 41
1.0
 10
112.3866577148437
 20
140.6441955566406
 30
0.0
 41
1.0
  0
SPLINE
  5
12D
330
70
100
AcDbEntity
  8
ILUSTRACE
  6
SOLID
 62
    76
100
AcDbSpline
210
0.0
220
0.0
230
1.0
 70
    15
 71
     3
 72
    26
 73
    22
 74
     0
 42
0.001
 43
0.0000000001
 40
0.0
 40
0.0
 40
0.0
 40
0.0
 40
1.0
 40
1.0
 40
1.0
 40
2.0
 40
2.0
 40
2.0
 40
3.0
 40
3.0
 40
3.0
 40
4.0
 40
4.0
 40
4.0
 40
5.0
 40
5.0
 40
5.0
 40
6.0
 40
6.0
 40
6.0
 40
7.0
 40
7.0
 40
7.0
 40
7.0
 10
135.1055908203125
 20
134.8541870117187
 30
0.0
 41
1.0
 10
135.1055908203125
 20
134.8541870117187
 30
0.0
 41
1.0
 10
135.1055908203125
 20
134.8541870117187
 30
0.0
 41
1.0
 10
135.1055908203125
 20
134.8541870117187
 30
0.0
 41
1.0
 10
135.1055908203125
 20
134.8541870117187
 30
0.0
 41
1.0
 10
135.1055908203125
 20
134.8541870117187
 30
0.0
 41
1.0
 10
135.1055908203125
 20
134.8541870117187
 30
0.0
 41
1.0
 10
135.1055908203125
 20
134.8541870117187
 30
0.0
 41
1.0
 10
135.5489501953125
 20
133.5813751220703
 30
0.0
 41
1.0
 10
135.5489501953125
 20
133.5813751220703
 30
0.0
 41
1.0
 10
135.5489501953125
 20
133.5813751220703
 30
0.0
 41
1.0
 10
135.9923706054687
 20
134.8541870117187
 30
0.0
 41
1.0
 10
135.9923706054687
 20
134.8541870117187
 30
0.0
 41
1.0
 10
135.9923706054687
 20
134.8541870117187
 30
0.0
 41
1.0
 10
135.9923706054687
 20
134.8541870117187
 30
0.0
 41
1.0
 10
135.9923706054687
 20
134.8541870117187
 30
0.0
 41
1.0
 10
135.9923706054687
 20
134.8541870117187
 30
0.0
 41
1.0
 10
135.9923706054687
 20
134.8541870117187
 30
0.0
 41
1.0
 10
135.9923706054687
 20
134.8541870117187
 30
0.0
 41
1.0
 10
135.9923706054687
 20
134.8541870117187
 30
0.0
 41
1.0
 10
135.1055908203125
 20
134.8541870117187
 30
0.0
 41
1.0
 10
135.1055908203125
 20
134.8541870117187
 30
0.0
 41
1.0
  0
SPLINE
  5
12E
330
70
100
AcDbEntity
  8
ILUSTRACE
  6
SOLID
 62
    76
100
AcDbSpline
210
0.0
220
0.0
230
1.0
 70
    15
 71
     3
 72
    26
 73
    22
 74
     0
 42
0.001
 43
0.0000000001
 40
0.0
 40
0.0
 40
0.0
 40
0.0
 40
1.0
 40
1.0
 40
1.0
 40
2.0
 40
2.0
 40
2.0
 40
3.0
 40
3.0
 40
3.0
 40
4.0
 40
4.0
 40
4.0
 40
5.0
 40
5.0
 40
5.0
 40
6.0
 40
6.0
 40
6.0
 40
7.0
 40
7.0
 40
7.0
 40
7.0
 10
85.28895568847657
 20
131.4277648925781
 30
0.0
 41
1.0
 10
85.28895568847657
 20
131.4277648925781
 30
0.0
 41
1.0
 10
85.28895568847657
 20
131.4277648925781
 30
0.0
 41
1.0
 10
85.28895568847657
 20
131.4277648925781
 30
0.0
 41
1.0
 10
85.28895568847657
 20
131.4277648925781
 30
0.0
 41
1.0
 10
85.28895568847657
 20
131.4277648925781
 30
0.0
 41
1.0
 10
85.28895568847657
 20
131.4277648925781
 30
0.0
 41
1.0
 10
85.28895568847657
 20
131.4277648925781
 30
0.0
 41
1.0
 10
85.73236083984374
 20
130.1549835205078
 30
0.0
 41
1.0
 10
85.73236083984374
 20
130.1549835205078
 30
0.0
 41
1.0
 10
85.73236083984374
 20
130.1549835205078
 30
0.0
 41
1.0
 10
86.17576599121093
 20
131.4277648925781
 30
0.0
 41
1.0
 10
86.17576599121093
 20
131.4277648925781
 30
0.0
 41
1.0
 10
86.17576599121093
 20
131.4277648925781
 30
0.0
 41
1.0
 10
86.17576599121093
 20
131.4277648925781
 30
0.0
 41
1.0
 10
86.17576599121093
 20
131.4277648925781
 30
0.0
 41
1.0
 10
86.17576599121093
 20
131.4277648925781
 30
0.0
 41
1.0
 10
86.17576599121093
 20
131.4277648925781
 30
0.0
 41
1.0
 10
86.17576599121093
 20
131.4277648925781
 30
0.0
 41
1.0
 10
86.17576599121093
 20
131.4277648925781
 30
0.0
 41
1.0
 10
85.28895568847657
 20
131.4277648925781
 30
0.0
 41
1.0
 10
85.28895568847657
 20
131.4277648925781
 30
0.0
 41
1.0
  0
SPLINE
  5
12F
330
70
100
AcDbEntity
  8
ILUSTRACE
  6
SOLID
 62
    76
100
AcDbSpline
210
0.0
220
0.0
230
1.0
 70
    15
 71
     3
 72
    26
 73
    22
 74
     0
 42
0.001
 43
0.0000000001
 40
0.0
 40
0.0
 40
0.0
 40
0.0
 40
1.0
 40
1.0
 40
1.0
 40
2.0
 40
2.0
 40
2.0
 40
3.0
 40
3.0
 40
3.0
 40
4.0
 40
4.0
 40
4.0
 40
5.0
 40
5.0
 40
5.0
 40
6.0
 40
6.0
 40
6.0
 40
7.0
 40
7.0
 40
7.0
 40
7.0
 10
89.22168731689453
 20
186.7303771972656
 30
0.0
 41
1.0
 10
89.22168731689453
 20
186.7303771972656
 30
0.0
 41
1.0
 10
89.22168731689453
 20
186.7303771972656
 30
0.0
 41
1.0
 10
89.22168731689453
 20
186.7303771972656
 30
0.0
 41
1.0
 10
89.22168731689453
 20
186.7303771972656
 30
0.0
 41
1.0
 10
89.22168731689453
 20
186.7303771972656
 30
0.0
 41
1.0
 10
89.22168731689453
 20
186.7303771972656
 30
0.0
 41
1.0
 10
89.22168731689453
 20
186.7303771972656
 30
0.0
 41
1.0
 10
89.66505432128906
 20
185.4575958251953
 30
0.0
 41
1.0
 10
89.66505432128906
 20
185.4575958251953
 30
0.0
 41
1.0
 10
89.66505432128906
 20
185.4575958251953
 30
0.0
 41
1.0
 10
90.10846710205077
 20
186.7303771972656
 30
0.0
 41
1.0
 10
90.10846710205077
 20
186.7303771972656
 30
0.0
 41
1.0
 10
90.10846710205077
 20
186.7303771972656
 30
0.0
 41
1.0
 10
90.10846710205077
 20
186.7303771972656
 30
0.0
 41
1.0
 10
90.10846710205077
 20
186.7303771972656
 30
0.0
 41
1.0
 10
90.10846710205077
 20
186.7303771972656
 30
0.0
 41
1.0
 10
90.10846710205077
 20
186.7303771972656
 30
0.0
 41
1.0
 10
90.10846710205077
 20
186.7303771972656
 30
0.0
 41
1.0
 10
90.10846710205077
 20
186.7303771972656
 30
0.0
 41
1.0
 10
89.22168731689453
 20
186.7303771972656
 30
0.0
 41
1.0
 10
89.22168731689453
 20
186.7303771972656
 30
0.0
 41
1.0
  0
SPLINE
  5
130
330
70
100
AcDbEntity
  8
ILUSTRACE
  6
SOLID
 62
    76
100
AcDbSpline
210
0.0
220
0.0
230
1.0
 70
    15
 71
     3
 72
    26
 73
    22
 74
     0
 42
0.001
 43
0.0000000001
 40
0.0
 40
0.0
 40
0.0
 40
0.0
 40
1.0
 40
1.0
 40
1.0
 40
2.0
 40
2.0
 40
2.0
 40
3.0
 40
3.0
 40
3.0
 40
4.0
 40
4.0
 40
4.0
 40
5.0
 40
5.0
 40
5.0
 40
6.0
 40
6.0
 40
6.0
 40
7.0
 40
7.0
 40
7.0
 40
7.0
 10
86.1297607421875
 20
189.4593963623047
 30
0.0
 41
1.0
 10
86.1297607421875
 20
189.4593963623047
 30
0.0
 41
1.0
 10
86.1297607421875
 20
189.4593963623047
 30
0.0
 41
1.0
 10
86.1297607421875
 20
189.4593963623047
 30
0.0
 41
1.0
 10
86.1297607421875
 20
189.4593963623047
 30
0.0
 41
1.0
 10
86.1297607421875
 20
189.4593963623047
 30
0.0
 41
1.0
 10
86.1297607421875
 20
189.4593963623047
 30
0.0
 41
1.0
 10
86.1297607421875
 20
189.4593963623047
 30
0.0
 41
1.0
 10
86.57317352294922
 20
188.1865692138672
 30
0.0
 41
1.0
 10
86.57317352294922
 20
188.1865692138672
 30
0.0
 41
1.0
 10
86.57317352294922
 20
188.1865692138672
 30
0.0
 41
1.0
 10
87.0165786743164
 20
189.4593963623047
 30
0.0
 41
1.0
 10
87.0165786743164
 20
189.4593963623047
 30
0.0
 41
1.0
 10
87.0165786743164
 20
189.4593963623047
 30
0.0
 41
1.0
 10
87.0165786743164
 20
189.4593963623047
 30
0.0
 41
1.0
 10
87.0165786743164
 20
189.4593963623047
 30
0.0
 41
1.0
 10
87.0165786743164
 20
189.4593963623047
 30
0.0
 41
1.0
 10
87.0165786743164
 20
189.4593963623047
 30
0.0
 41
1.0
 10
87.0165786743164
 20
189.4593963623047
 30
0.0
 41
1.0
 10
87.0165786743164
 20
189.4593963623047
 30
0.0
 41
1.0
 10
86.1297607421875
 20
189.4593963623047
 30
0.0
 41
1.0
 10
86.1297607421875
 20
189.4593963623047
 30
0.0
 41
1.0
  0
SPLINE
  5
131
330
70
100
AcDbEntity
  8
ILUSTRACE
  6
SOLID
 62
    76
100
AcDbSpline
210
0.0
220
0.0
230
1.0
 70
    15
 71
     3
 72
    26
 73
    22
 74
     0
 42
0.001
 43
0.0000000001
 40
0.0
 40
0.0
 40
0.0
 40
0.0
 40
1.0
 40
1.0
 40
1.0
 40
2.0
 40
2.0
 40
2.0
 40
3.0
 40
3.0
 40
3.0
 40
4.0
 40
4.0
 40
4.0
 40
5.0
 40
5.0
 40
5.0
 40
6.0
 40
6.0
 40
6.0
 40
7.0
 40
7.0
 40
7.0
 40
7.0
 10
93.0933837890625
 20
189.8202972412109
 30
0.0
 41
1.0
 10
93.0933837890625
 20
189.8202972412109
 30
0.0
 41
1.0
 10
93.0933837890625
 20
189.8202972412109
 30
0.0
 41
1.0
 10
93.0933837890625
 20
189.8202972412109
 30
0.0
 41
1.0
 10
93.0933837890625
 20
189.8202972412109
 30
0.0
 41
1.0
 10
93.0933837890625
 20
189.8202972412109
 30
0.0
 41
1.0
 10
93.0933837890625
 20
189.8202972412109
 30
0.0
 41
1.0
 10
93.0933837890625
 20
189.8202972412109
 30
0.0
 41
1.0
 10
91.82056427001953
 20
189.3768768310547
 30
0.0
 41
1.0
 10
91.82056427001953
 20
189.3768768310547
 30
0.0
 41
1.0
 10
91.82056427001953
 20
189.3768768310547
 30
0.0
 41
1.0
 10
93.0933837890625
 20
188.9334716796875
 30
0.0
 41
1.0
 10
93.0933837890625
 20
188.9334716796875
 30
0.0
 41
1.0
 10
93.0933837890625
 20
188.9334716796875
 30
0.0
 41
1.0
 10
93.0933837890625
 20
188.9334716796875
 30
0.0
 41
1.0
 10
93.0933837890625
 20
188.9334716796875
 30
0.0
 41
1.0
 10
93.0933837890625
 20
188.9334716796875
 30
0.0
 41
1.0
 10
93.0933837890625
 20
188.9334716796875
 30
0.0
 41
1.0
 10
93.0933837890625
 20
188.9334716796875
 30
0.0
 41
1.0
 10
93.0933837890625
 20
188.9334716796875
 30
0.0
 41
1.0
 10
93.0933837890625
 20
189.8202972412109
 30
0.0
 41
1.0
 10
93.0933837890625
 20
189.8202972412109
 30
0.0
 41
1.0
  0
SPLINE
  5
132
330
70
100
AcDbEntity
  8
ILUSTRACE
  6
SOLID
 62
    76
100
AcDbSpline
210
0.0
220
0.0
230
1.0
 70
    15
 71
     3
 72
    26
 73
    22
 74
     0
 42
0.001
 43
0.0000000001
 40
0.0
 40
0.0
 40
0.0
 40
0.0
 40
1.0
 40
1.0
 40
1.0
 40
2.0
 40
2.0
 40
2.0
 40
3.0
 40
3.0
 40
3.0
 40
4.0
 40
4.0
 40
4.0
 40
5.0
 40
5.0
 40
5.0
 40
6.0
 40
6.0
 40
6.0
 40
7.0
 40
7.0
 40
7.0
 40
7.0
 10
122.4402694702148
 20
157.208267211914
 30
0.0
 41
1.0
 10
122.4402694702148
 20
157.208267211914
 30
0.0
 41
1.0
 10
122.4402694702148
 20
157.208267211914
 30
0.0
 41
1.0
 10
122.4402694702148
 20
157.208267211914
 30
0.0
 41
1.0
 10
122.4402694702148
 20
157.208267211914
 30
0.0
 41
1.0
 10
122.4402694702148
 20
157.208267211914
 30
0.0
 41
1.0
 10
122.4402694702148
 20
157.208267211914
 30
0.0
 41
1.0
 10
122.4402694702148
 20
157.208267211914
 30
0.0
 41
1.0
 10
121.1674728393554
 20
156.7648620605468
 30
0.0
 41
1.0
 10
121.1674728393554
 20
156.7648620605468
 30
0.0
 41
1.0
 10
121.1674728393554
 20
156.7648620605468
 30
0.0
 41
1.0
 10
122.4402694702148
 20
156.3214874267578
 30
0.0
 41
1.0
 10
122.4402694702148
 20
156.3214874267578
 30
0.0
 41
1.0
 10
122.4402694702148
 20
156.3214874267578
 30
0.0
 41
1.0
 10
122.4402694702148
 20
156.3214874267578
 30
0.0
 41
1.0
 10
122.4402694702148
 20
156.3214874267578
 30
0.0
 41
1.0
 10
122.4402694702148
 20
156.3214874267578
 30
0.0
 41
1.0
 10
122.4402694702148
 20
156.3214874267578
 30
0.0
 41
1.0
 10
122.4402694702148
 20
156.3214874267578
 30
0.0
 41
1.0
 10
122.4402694702148
 20
156.3214874267578
 30
0.0
 41
1.0
 10
122.4402694702148
 20
157.208267211914
 30
0.0
 41
1.0
 10
122.4402694702148
 20
157.208267211914
 30
0.0
 41
1.0
  0
SPLINE
  5
133
330
70
100
AcDbEntity
  8
ILUSTRACE
  6
SOLID
 62
    76
100
AcDbSpline
210
0.0
220
0.0
230
1.0
 70
    15
 71
     3
 72
    26
 73
    22
 74
     0
 42
0.001
 43
0.0000000001
 40
0.0
 40
0.0
 40
0.0
 40
0.0
 40
1.0
 40
1.0
 40
1.0
 40
2.0
 40
2.0
 40
2.0
 40
3.0
 40
3.0
 40
3.0
 40
4.0
 40
4.0
 40
4.0
 40
5.0
 40
5.0
 40
5.0
 40
6.0
 40
6.0
 40
6.0
 40
7.0
 40
7.0
 40
7.0
 40
7.0
 10
89.08068084716797
 20
151.0733642578125
 30
0.0
 41
1.0
 10
89.08068084716797
 20
151.0733642578125
 30
0.0
 41
1.0
 10
89.08068084716797
 20
151.0733642578125
 30
0.0
 41
1.0
 10
89.08068084716797
 20
151.0733642578125
 30
0.0
 41
1.0
 10
89.08068084716797
 20
151.0733642578125
 30
0.0
 41
1.0
 10
89.08068084716797
 20
151.0733642578125
 30
0.0
 41
1.0
 10
89.08068084716797
 20
151.0733642578125
 30
0.0
 41
1.0
 10
89.08068084716797
 20
151.0733642578125
 30
0.0
 41
1.0
 10
89.52408599853516
 20
152.3461761474609
 30
0.0
 41
1.0
 10
89.52408599853516
 20
152.3461761474609
 30
0.0
 41
1.0
 10
89.52408599853516
 20
152.3461761474609
 30
0.0
 41
1.0
 10
89.96746063232421
 20
151.0733642578125
 30
0.0
 41
1.0
 10
89.96746063232421
 20
151.0733642578125
 30
0.0
 41
1.0
 10
89.96746063232421
 20
151.0733642578125
 30
0.0
 41
1.0
 10
89.96746063232421
 20
151.0733642578125
 30
0.0
 41
1.0
 10
89.96746063232421
 20
151.0733642578125
 30
0.0
 41
1.0
 10
89.96746063232421
 20
151.0733642578125
 30
0.0
 41
1.0
 10
89.96746063232421
 20
151.0733642578125
 30
0.0
 41
1.0
 10
89.96746063232421
 20
151.0733642578125
 30
0.0
 41
1.0
 10
89.96746063232421
 20
151.0733642578125
 30
0.0
 41
1.0
 10
89.08068084716797
 20
151.0733642578125
 30
0.0
 41
1.0
 10
89.08068084716797
 20
151.0733642578125
 30
0.0
 41
1.0
  0
SPLINE
  5
134
330
70
100
AcDbEntity
  8
ILUSTRACE
  6
SOLID
 62
    76
100
AcDbSpline
210
0.0
220
0.0
230
1.0
 70
    15
 71
     3
 72
    26
 73
    22
 74
     0
 42
0.001
 43
0.0000000001
 40
0.0
 40
0.0
 40
0.0
 40
0.0
 40
1.0
 40
1.0
 40
1.0
 40
2.0
 40
2.0
 40
2.0
 40
3.0
 40
3.0
 40
3.0
 40
4.0
 40
4.0
 40
4.0
 40
5.0
 40
5.0
 40
5.0
 40
6.0
 40
6.0
 40
6.0
 40
7.0
 40
7.0
 40
7.0
 40
7.0
 10
112.3589706420898
 20
151.1345672607422
 30
0.0
 41
1.0
 10
112.3589706420898
 20
151.1345672607422
 30
0.0
 41
1.0
 10
112.3589706420898
 20
151.1345672607422
 30
0.0
 41
1.0
 10
112.3589706420898
 20
151.1345672607422
 30
0.0
 41
1.0
 10
112.3589706420898
 20
151.1345672607422
 30
0.0
 41
1.0
 10
112.3589706420898
 20
151.1345672607422
 30
0.0
 41
1.0
 10
112.3589706420898
 20
151.1345672607422
 30
0.0
 41
1.0
 10
112.3589706420898
 20
151.1345672607422
 30
0.0
 41
1.0
 10
112.802375793457
 20
152.4073944091797
 30
0.0
 41
1.0
 10
112.802375793457
 20
152.4073944091797
 30
0.0
 41
1.0
 10
112.802375793457
 20
152.4073944091797
 30
0.0
 41
1.0
 10
113.2457809448242
 20
151.1345672607422
 30
0.0
 41
1.0
 10
113.2457809448242
 20
151.1345672607422
 30
0.0
 41
1.0
 10
113.2457809448242
 20
151.1345672607422
 30
0.0
 41
1.0
 10
113.2457809448242
 20
151.1345672607422
 30
0.0
 41
1.0
 10
113.2457809448242
 20
151.1345672607422
 30
0.0
 41
1.0
 10
113.2457809448242
 20
151.1345672607422
 30
0.0
 41
1.0
 10
113.2457809448242
 20
151.1345672607422
 30
0.0
 41
1.0
 10
113.2457809448242
 20
151.1345672607422
 30
0.0
 41
1.0
 10
113.2457809448242
 20
151.1345672607422
 30
0.0
 41
1.0
 10
112.3589706420898
 20
151.1345672607422
 30
0.0
 41
1.0
 10
112.3589706420898
 20
151.1345672607422
 30
0.0
 41
1.0
  0
SPLINE
  5
135
330
70
100
AcDbEntity
  8
ILUSTRACE
  6
SOLID
 62
    76
100
AcDbSpline
210
0.0
220
0.0
230
1.0
 70
    15
 71
     3
 72
    26
 73
    22
 74
     0
 42
0.001
 43
0.0000000001
 40
0.0
 40
0.0
 40
0.0
 40
0.0
 40
1.0
 40
1.0
 40
1.0
 40
2.0
 40
2.0
 40
2.0
 40
3.0
 40
3.0
 40
3.0
 40
4.0
 40
4.0
 40
4.0
 40
5.0
 40
5.0
 40
5.0
 40
6.0
 40
6.0
 40
6.0
 40
7.0
 40
7.0
 40
7.0
 40
7.0
 10
135.0778503417968
 20
143.8975830078125
 30
0.0
 41
1.0
 10
135.0778503417968
 20
143.8975830078125
 30
0.0
 41
1.0
 10
135.0778503417968
 20
143.8975830078125
 30
0.0
 41
1.0
 10
135.0778503417968
 20
143.8975830078125
 30
0.0
 41
1.0
 10
135.0778503417968
 20
143.8975830078125
 30
0.0
 41
1.0
 10
135.0778503417968
 20
143.8975830078125
 30
0.0
 41
1.0
 10
135.0778503417968
 20
143.8975830078125
 30
0.0
 41
1.0
 10
135.0778503417968
 20
143.8975830078125
 30
0.0
 41
1.0
 10
135.5212707519531
 20
145.1703643798828
 30
0.0
 41
1.0
 10
135.5212707519531
 20
145.1703643798828
 30
0.0
 41
1.0
 10
135.5212707519531
 20
145.1703643798828
 30
0.0
 41
1.0
 10
135.9646606445312
 20
143.8975830078125
 30
0.0
 41
1.0
 10
135.9646606445312
 20
143.8975830078125
 30
0.0
 41
1.0
 10
135.9646606445312
 20
143.8975830078125
 30
0.0
 41
1.0
 10
135.9646606445312
 20
143.8975830078125
 30
0.0
 41
1.0
 10
135.9646606445312
 20
143.8975830078125
 30
0.0
 41
1.0
 10
135.9646606445312
 20
143.8975830078125
 30
0.0
 41
1.0
 10
135.9646606445312
 20
143.8975830078125
 30
0.0
 41
1.0
 10
135.9646606445312
 20
143.8975830078125
 30
0.0
 41
1.0
 10
135.9646606445312
 20
143.8975830078125
 30
0.0
 41
1.0
 10
135.0778503417968
 20
143.8975830078125
 30
0.0
 41
1.0
 10
135.0778503417968
 20
143.8975830078125
 30
0.0
 41
1.0
  0
SPLINE
  5
136
330
70
100
AcDbEntity
  8
ILUSTRACE
  6
SOLID
 62
    76
100
AcDbSpline
210
0.0
220
0.0
230
1.0
 70
    15
 71
     3
 72
    26
 73
    22
 74
     0
 42
0.001
 43
0.0000000001
 40
0.0
 40
0.0
 40
0.0
 40
0.0
 40
1.0
 40
1.0
 40
1.0
 40
2.0
 40
2.0
 40
2.0
 40
3.0
 40
3.0
 40
3.0
 40
4.0
 40
4.0
 40
4.0
 40
5.0
 40
5.0
 40
5.0
 40
6.0
 40
6.0
 40
6.0
 40
7.0
 40
7.0
 40
7.0
 40
7.0
 10
85.28337860107422
 20
152.9203643798828
 30
0.0
 41
1.0
 10
85.28337860107422
 20
152.9203643798828
 30
0.0
 41
1.0
 10
85.28337860107422
 20
152.9203643798828
 30
0.0
 41
1.0
 10
85.28337860107422
 20
152.9203643798828
 30
0.0
 41
1.0
 10
85.28337860107422
 20
152.9203643798828
 30
0.0
 41
1.0
 10
85.28337860107422
 20
152.9203643798828
 30
0.0
 41
1.0
 10
85.28337860107422
 20
152.9203643798828
 30
0.0
 41
1.0
 10
85.28337860107422
 20
152.9203643798828
 30
0.0
 41
1.0
 10
85.72678375244141
 20
154.1931915283203
 30
0.0
 41
1.0
 10
85.72678375244141
 20
154.1931915283203
 30
0.0
 41
1.0
 10
85.72678375244141
 20
154.1931915283203
 30
0.0
 41
1.0
 10
86.17015838623046
 20
152.9203643798828
 30
0.0
 41
1.0
 10
86.17015838623046
 20
152.9203643798828
 30
0.0
 41
1.0
 10
86.17015838623046
 20
152.9203643798828
 30
0.0
 41
1.0
 10
86.17015838623046
 20
152.9203643798828
 30
0.0
 41
1.0
 10
86.17015838623046
 20
152.9203643798828
 30
0.0
 41
1.0
 10
86.17015838623046
 20
152.9203643798828
 30
0.0
 41
1.0
 10
86.17015838623046
 20
152.9203643798828
 30
0.0
 41
1.0
 10
86.17015838623046
 20
152.9203643798828
 30
0.0
 41
1.0
 10
86.17015838623046
 20
152.9203643798828
 30
0.0
 41
1.0
 10
85.28337860107422
 20
152.9203643798828
 30
0.0
 41
1.0
 10
85.28337860107422
 20
152.9203643798828
 30
0.0
 41
1.0
  0
SPLINE
  5
137
330
70
100
AcDbEntity
  8
ILUSTRACE
  6
SOLID
 62
    75
100
AcDbSpline
210
0.0
220
0.0
230
1.0
 70
    31
 71
     3
 72
    11
 73
     7
 74
     0
 42
0.001
 43
0.0000000001
 40
0.0
 40
0.0
 40
0.0
 40
0.0
 40
1.0
 40
1.0
 40
1.0
 40
2.0
 40
2.0
 40
2.0
 40
2.0
 10
87.88416290283203
 20
170.1861877441406
 30
0.0
 41
1.0
 10
87.88416290283203
 20
170.1861877441406
 30
0.0
 41
1.0
 10
87.88416290283203
 20
158.7519989013672
 30
0.0
 41
1.0
 10
87.88416290283203
 20
158.7519989013672
 30
0.0
 41
1.0
 10
87.88416290283203
 20
158.7519989013672
 30
0.0
 41
1.0
 10
87.88416290283203
 20
170.1861877441406
 30
0.0
 41
1.0
 10
87.88416290283203
 20
170.1861877441406
 30
0.0
 41
1.0
  0
SPLINE
  5
138
330
70
100
AcDbEntity
  8
ILUSTRACE
  6
SOLID
 62
    76
100
AcDbSpline
210
0.0
220
0.0
230
1.0
 70
    15
 71
     3
 72
    26
 73
    22
 74
     0
 42
0.001
 43
0.0000000001
 40
0.0
 40
0.0
 40
0.0
 40
0.0
 40
1.0
 40
1.0
 40
1.0
 40
2.0
 40
2.0
 40
2.0
 40
3.0
 40
3.0
 40
3.0
 40
4.0
 40
4.0
 40
4.0
 40
5.0
 40
5.0
 40
5.0
 40
6.0
 40
6.0
 40
6.0
 40
7.0
 40
7.0
 40
7.0
 40
7.0
 10
87.03368377685547
 20
168.8603820800781
 30
0.0
 41
1.0
 10
87.03368377685547
 20
168.8603820800781
 30
0.0
 41
1.0
 10
87.03368377685547
 20
168.8603820800781
 30
0.0
 41
1.0
 10
87.03368377685547
 20
168.8603820800781
 30
0.0
 41
1.0
 10
87.03368377685547
 20
168.8603820800781
 30
0.0
 41
1.0
 10
87.03368377685547
 20
168.8603820800781
 30
0.0
 41
1.0
 10
87.03368377685547
 20
168.8603820800781
 30
0.0
 41
1.0
 10
87.03368377685547
 20
168.8603820800781
 30
0.0
 41
1.0
 10
87.90454864501953
 20
171.3603820800781
 30
0.0
 41
1.0
 10
87.90454864501953
 20
171.3603820800781
 30
0.0
 41
1.0
 10
87.90454864501953
 20
171.3603820800781
 30
0.0
 41
1.0
 10
88.77545166015625
 20
168.8603820800781
 30
0.0
 41
1.0
 10
88.77545166015625
 20
168.8603820800781
 30
0.0
 41
1.0
 10
88.77545166015625
 20
168.8603820800781
 30
0.0
 41
1.0
 10
88.77545166015625
 20
168.8603820800781
 30
0.0
 41
1.0
 10
88.77545166015625
 20
168.8603820800781
 30
0.0
 41
1.0
 10
88.77545166015625
 20
168.8603820800781
 30
0.0
 41
1.0
 10
88.77545166015625
 20
168.8603820800781
 30
0.0
 41
1.0
 10
88.77545166015625
 20
168.8603820800781
 30
0.0
 41
1.0
 10
88.77545166015625
 20
168.8603820800781
 30
0.0
 41
1.0
 10
87.03368377685547
 20
168.8603820800781
 30
0.0
 41
1.0
 10
87.03368377685547
 20
168.8603820800781
 30
0.0
 41
1.0
  0
SPLINE
  5
139
330
70
100
AcDbEntity
  8
ILUSTRACE
  6
SOLID
 62
    76
100
AcDbSpline
210
0.0
220
0.0
230
1.0
 70
    15
 71
     3
 72
    26
 73
    22
 74
     0
 42
0.001
 43
0.0000000001
 40
0.0
 40
0.0
 40
0.0
 40
0.0
 40
1.0
 40
1.0
 40
1.0
 40
2.0
 40
2.0
 40
2.0
 40
3.0
 40
3.0
 40
3.0
 40
4.0
 40
4.0
 40
4.0
 40
5.0
 40
5.0
 40
5.0
 40
6.0
 40
6.0
 40
6.0
 40
7.0
 40
7.0
 40
7.0
 40
7.0
 10
89.24337768554687
 20
182.1503753662109
 30
0.0
 41
1.0
 10
89.24337768554687
 20
182.1503753662109
 30
0.0
 41
1.0
 10
89.24337768554687
 20
182.1503753662109
 30
0.0
 41
1.0
 10
89.24337768554687
 20
182.1503753662109
 30
0.0
 41
1.0
 10
89.24337768554687
 20
182.1503753662109
 30
0.0
 41
1.0
 10
89.24337768554687
 20
182.1503753662109
 30
0.0
 41
1.0
 10
89.24337768554687
 20
182.1503753662109
 30
0.0
 41
1.0
 10
89.24337768554687
 20
182.1503753662109
 30
0.0
 41
1.0
 10
89.68678283691406
 20
183.4231872558594
 30
0.0
 41
1.0
 10
89.68678283691406
 20
183.4231872558594
 30
0.0
 41
1.0
 10
89.68678283691406
 20
183.4231872558594
 30
0.0
 41
1.0
 10
90.13015747070312
 20
182.1503753662109
 30
0.0
 41
1.0
 10
90.13015747070312
 20
182.1503753662109
 30
0.0
 41
1.0
 10
90.13015747070312
 20
182.1503753662109
 30
0.0
 41
1.0
 10
90.13015747070312
 20
182.1503753662109
 30
0.0
 41
1.0
 10
90.13015747070312
 20
182.1503753662109
 30
0.0
 41
1.0
 10
90.13015747070312
 20
182.1503753662109
 30
0.0
 41
1.0
 10
90.13015747070312
 20
182.1503753662109
 30
0.0
 41
1.0
 10
90.13015747070312
 20
182.1503753662109
 30
0.0
 41
1.0
 10
90.13015747070312
 20
182.1503753662109
 30
0.0
 41
1.0
 10
89.24337768554687
 20
182.1503753662109
 30
0.0
 41
1.0
 10
89.24337768554687
 20
182.1503753662109
 30
0.0
 41
1.0
  0
SPLINE
  5
13A
330
70
100
AcDbEntity
  8
ILUSTRACE
  6
SOLID
 62
    76
100
AcDbSpline
210
0.0
220
0.0
230
1.0
 70
    15
 71
     3
 72
    26
 73
    22
 74
     0
 42
0.001
 43
0.0000000001
 40
0.0
 40
0.0
 40
0.0
 40
0.0
 40
1.0
 40
1.0
 40
1.0
 40
2.0
 40
2.0
 40
2.0
 40
3.0
 40
3.0
 40
3.0
 40
4.0
 40
4.0
 40
4.0
 40
5.0
 40
5.0
 40
5.0
 40
6.0
 40
6.0
 40
6.0
 40
7.0
 40
7.0
 40
7.0
 40
7.0
 10
86.15145874023438
 20
182.2555694580078
 30
0.0
 41
1.0
 10
86.15145874023438
 20
182.2555694580078
 30
0.0
 41
1.0
 10
86.15145874023438
 20
182.2555694580078
 30
0.0
 41
1.0
 10
86.15145874023438
 20
182.2555694580078
 30
0.0
 41
1.0
 10
86.15145874023438
 20
182.2555694580078
 30
0.0
 41
1.0
 10
86.15145874023438
 20
182.2555694580078
 30
0.0
 41
1.0
 10
86.15145874023438
 20
182.2555694580078
 30
0.0
 41
1.0
 10
86.15145874023438
 20
182.2555694580078
 30
0.0
 41
1.0
 10
86.59486389160155
 20
183.5283813476562
 30
0.0
 41
1.0
 10
86.59486389160155
 20
183.5283813476562
 30
0.0
 41
1.0
 10
86.59486389160155
 20
183.5283813476562
 30
0.0
 41
1.0
 10
87.03826904296875
 20
182.2555694580078
 30
0.0
 41
1.0
 10
87.03826904296875
 20
182.2555694580078
 30
0.0
 41
1.0
 10
87.03826904296875
 20
182.2555694580078
 30
0.0
 41
1.0
 10
87.03826904296875
 20
182.2555694580078
 30
0.0
 41
1.0
 10
87.03826904296875
 20
182.2555694580078
 30
0.0
 41
1.0
 10
87.03826904296875
 20
182.2555694580078
 30
0.0
 41
1.0
 10
87.03826904296875
 20
182.2555694580078
 30
0.0
 41
1.0
 10
87.03826904296875
 20
182.2555694580078
 30
0.0
 41
1.0
 10
87.03826904296875
 20
182.2555694580078
 30
0.0
 41
1.0
 10
86.15145874023438
 20
182.2555694580078
 30
0.0
 41
1.0
 10
86.15145874023438
 20
182.2555694580078
 30
0.0
 41
1.0
  0
SPLINE
  5
13B
330
70
100
AcDbEntity
  8
ILUSTRACE
  6
SOLID
 62
    76
100
AcDbSpline
210
0.0
220
0.0
230
1.0
 70
    15
 71
     3
 72
    26
 73
    22
 74
     0
 42
0.001
 43
0.0000000001
 40
0.0
 40
0.0
 40
0.0
 40
0.0
 40
1.0
 40
1.0
 40
1.0
 40
2.0
 40
2.0
 40
2.0
 40
3.0
 40
3.0
 40
3.0
 40
4.0
 40
4.0
 40
4.0
 40
5.0
 40
5.0
 40
5.0
 40
6.0
 40
6.0
 40
6.0
 40
7.0
 40
7.0
 40
7.0
 40
7.0
 10
124.1660842895508
 20
189.8369598388672
 30
0.0
 41
1.0
 10
124.1660842895508
 20
189.8369598388672
 30
0.0
 41
1.0
 10
124.1660842895508
 20
189.8369598388672
 30
0.0
 41
1.0
 10
124.1660842895508
 20
189.8369598388672
 30
0.0
 41
1.0
 10
124.1660842895508
 20
189.8369598388672
 30
0.0
 41
1.0
 10
124.1660842895508
 20
189.8369598388672
 30
0.0
 41
1.0
 10
124.1660842895508
 20
189.8369598388672
 30
0.0
 41
1.0
 10
124.1660842895508
 20
189.8369598388672
 30
0.0
 41
1.0
 10
125.4388732910156
 20
189.393569946289
 30
0.0
 41
1.0
 10
125.4388732910156
 20
189.393569946289
 30
0.0
 41
1.0
 10
125.4388732910156
 20
189.393569946289
 30
0.0
 41
1.0
 10
124.1660842895508
 20
188.9501953125
 30
0.0
 41
1.0
 10
124.1660842895508
 20
188.9501953125
 30
0.0
 41
1.0
 10
124.1660842895508
 20
188.9501953125
 30
0.0
 41
1.0
 10
124.1660842895508
 20
188.9501953125
 30
0.0
 41
1.0
 10
124.1660842895508
 20
188.9501953125
 30
0.0
 41
1.0
 10
124.1660842895508
 20
188.9501953125
 30
0.0
 41
1.0
 10
124.1660842895508
 20
188.9501953125
 30
0.0
 41
1.0
 10
124.1660842895508
 20
188.9501953125
 30
0.0
 41
1.0
 10
124.1660842895508
 20
188.9501953125
 30
0.0
 41
1.0
 10
124.1660842895508
 20
189.8369598388672
 30
0.0
 41
1.0
 10
124.1660842895508
 20
189.8369598388672
 30
0.0
 41
1.0
  0
SPLINE
  5
13C
330
70
100
AcDbEntity
  8
ILUSTRACE
  6
SOLID
 62
    76
100
AcDbSpline
210
0.0
220
0.0
230
1.0
 70
    15
 71
     3
 72
    26
 73
    22
 74
     0
 42
0.001
 43
0.0000000001
 40
0.0
 40
0.0
 40
0.0
 40
0.0
 40
1.0
 40
1.0
 40
1.0
 40
2.0
 40
2.0
 40
2.0
 40
3.0
 40
3.0
 40
3.0
 40
4.0
 40
4.0
 40
4.0
 40
5.0
 40
5.0
 40
5.0
 40
6.0
 40
6.0
 40
6.0
 40
7.0
 40
7.0
 40
7.0
 40
7.0
 10
94.77536010742188
 20
157.2029876708984
 30
0.0
 41
1.0
 10
94.77536010742188
 20
157.2029876708984
 30
0.0
 41
1.0
 10
94.77536010742188
 20
157.2029876708984
 30
0.0
 41
1.0
 10
94.77536010742188
 20
157.2029876708984
 30
0.0
 41
1.0
 10
94.77536010742188
 20
157.2029876708984
 30
0.0
 41
1.0
 10
94.77536010742188
 20
157.2029876708984
 30
0.0
 41
1.0
 10
94.77536010742188
 20
157.2029876708984
 30
0.0
 41
1.0
 10
94.77536010742188
 20
157.2029876708984
 30
0.0
 41
1.0
 10
96.04817962646485
 20
156.7595672607422
 30
0.0
 41
1.0
 10
96.04817962646485
 20
156.7595672607422
 30
0.0
 41
1.0
 10
96.04817962646485
 20
156.7595672607422
 30
0.0
 41
1.0
 10
94.77536010742188
 20
156.316177368164
 30
0.0
 41
1.0
 10
94.77536010742188
 20
156.316177368164
 30
0.0
 41
1.0
 10
94.77536010742188
 20
156.316177368164
 30
0.0
 41
1.0
 10
94.77536010742188
 20
156.316177368164
 30
0.0
 41
1.0
 10
94.77536010742188
 20
156.316177368164
 30
0.0
 41
1.0
 10
94.77536010742188
 20
156.316177368164
 30
0.0
 41
1.0
 10
94.77536010742188
 20
156.316177368164
 30
0.0
 41
1.0
 10
94.77536010742188
 20
156.316177368164
 30
0.0
 41
1.0
 10
94.77536010742188
 20
156.316177368164
 30
0.0
 41
1.0
 10
94.77536010742188
 20
157.2029876708984
 30
0.0
 41
1.0
 10
94.77536010742188
 20
157.2029876708984
 30
0.0
 41
1.0
  0
ENDSEC
  0
SECTION
  2
OBJECTS
  0
DICTIONARY
  5
C
330
0
100
AcDbDictionary
281
     1
  3
ACAD_COLOR
350
63
  3
ACAD_DETAILVIEWSTYLE
350
6A
  3
ACAD_GROUP
350
D
  3
ACAD_LAYOUT
350
62
  3
ACAD_MATERIAL
350
10
  3
ACAD_MLEADERSTYLE
350
66
  3
ACAD_MLINESTYLE
350
5F
  3
ACAD_PLOTSETTINGS
350
61
  3
ACAD_PLOTSTYLENAME
350
E
  3
ACAD_SCALELIST
350
42
  3
ACAD_SECTIONVIEWSTYLE
350
68
  3
ACAD_TABLESTYLE
350
64
  3
ACAD_VISUALSTYLE
350
29
  3
ACDB_RECOMPOSE_DATA
350
14E
  3
AcDbVariableDictionary
350
13D
  0
DICTIONARY
  5
63
102
{ACAD_REACTORS
330
C
102
}
330
C
100
AcDbDictionary
281
     1
  0
DICTIONARY
  5
6A
102
{ACAD_REACTORS
330
C
102
}
330
C
100
AcDbDictionary
281
     1
  3
Imperial24
350
6B
  0
DICTIONARY
  5
D
102
{ACAD_REACTORS
330
C
102
}
330
C
100
AcDbDictionary
281
     1
  0
DICTIONARY
  5
62
102
{ACAD_REACTORS
330
C
102
}
330
C
100
AcDbDictionary
281
     1
  3
Layout1
350
6F
  3
Layout2
350
77
  3
Model
350
73
  0
DICTIONARY
  5
10
102
{ACAD_REACTORS
330
C
102
}
330
C
100
AcDbDictionary
281
     1
  3
ByBlock
350
19
  3
ByLayer
350
11
  3
Global
350
21
  0
DICTIONARY
  5
66
102
{ACAD_REACTORS
330
C
102
}
330
C
100
AcDbDictionary
281
     1
  3
Standard
350
67
  0
DICTIONARY
  5
5F
102
{ACAD_REACTORS
330
C
102
}
330
C
100
AcDbDictionary
281
     1
  3
Standard
350
60
  0
DICTIONARY
  5
61
102
{ACAD_REACTORS
330
C
102
}
330
C
100
AcDbDictionary
281
     1
  0
ACDBDICTIONARYWDFLT
  5
E
102
{ACAD_REACTORS
330
C
102
}
330
C
100
AcDbDictionary
281
     1
  3
Normal
350
F
100
AcDbDictionaryWithDefault
340
F
  0
DICTIONARY
  5
42
102
{ACAD_REACTORS
330
C
102
}
330
C
100
AcDbDictionary
281
     1
  3
A0
350
43
  3
A1
350
44
  3
A2
350
45
  3
A3
350
46
  3
A4
350
47
  3
A5
350
48
  3
A6
350
49
  3
A7
350
4A
  3
A8
350
4B
  3
A9
350
4C
  3
B0
350
4D
  3
B1
350
4E
  3
B2
350
4F
  3
B3
350
50
  3
B4
350
51
  3
B5
350
52
  3
B6
350
53
  0
DICTIONARY
  5
68
102
{ACAD_REACTORS
330
C
102
}
330
C
100
AcDbDictionary
281
     1
  3
Imperial24
350
69
  0
DICTIONARY
  5
64
102
{ACAD_REACTORS
330
C
102
}
330
C
100
AcDbDictionary
281
     1
  3
Standard
350
65
  0
DICTIONARY
  5
29
102
{ACAD_REACTORS
330
C
102
}
330
C
100
AcDbDictionary
281
     1
  3
2dWireframe
350
2F
  3
Basic
350
2E
  3
Brighten
350
35
  3
ColorChange
350
39
  3
Conceptual
350
32
  3
Dim
350
34
  3
EdgeColorOff
350
41
  3
Facepattern
350
38
  3
Flat
350
2A
  3
FlatWithEdges
350
2B
  3
Gouraud
350
2C
  3
GouraudWithEdges
350
2D
  3
Hidden
350
31
  3
JitterOff
350
3F
  3
Linepattern
350
37
  3
OverhangOff
350
40
  3
Realistic
350
33
  3
Shaded
350
3E
  3
Shaded with edges
350
3D
  3
Shades of Gray
350
3A
  3
Sketchy
350
3B
  3
Thicken
350
36
  3
Wireframe
350
30
  3
X-Ray
350
3C
  0
XRECORD
  5
14E
102
{ACAD_REACTORS
330
C
102
}
330
C
100
AcDbXrecord
280
     1
 90
        1
330
65
  0
DICTIONARY
  5
13D
102
{ACAD_REACTORS
330
C
102
}
330
C
100
AcDbDictionary
281
     1
  3
CANNOSCALE
350
143
  3
CMLEADERSTYLE
350
13F
  3
CTABLESTYLE
350
13E
  3
CVIEWDETAILSTYLE
350
140
  3
CVIEWSECTIONSTYLE
350
141
  3
DIMASSOC
350
14A
  3
HIDETEXT
350
149
  3
INDEXCTL
350
148
  3
LAYEREVAL
350
145
  3
LAYERNOTIFY
350
146
  3
LIGHTINGUNITS
350
144
  3
MSLTSCALE
350
142
  3
SORTENTS
350
147
  3
XCLIPFRAME
350
14B
  0
ACDBDETAILVIEWSTYLE
  5
6B
102
{ACAD_XDICTIONARY
360
188
102
}
102
{ACAD_REACTORS
330
6A
102
}
330
6A
100
AcDbModelDocViewStyle
 70
     0
  3
Imperial24
290
     0
100
AcDbDetailViewStyle
 70
     0
 71
     0
 90
        3
 71
     1
340
55
 40
0.24
340
0
 40
0.24
300

 40
0.36
280
     3
 71
     2
340
5D
 90
       25
 71
     3
340
55
 40
0.24
 90
        1
 40
0.75
 90
        1
300
%<\AcVar ViewType \f "%tc1">% %<\AcVar ViewDetailId>%\PSCALE %<\AcVar ViewScale \f "%sn">%
 71
     4
340
5D
 90
       25
340
5D
 90
       25
280
     0
  0
LAYOUT
  5
6F
102
{ACAD_XDICTIONARY
360
18A
102
}
102
{ACAD_REACTORS
330
62
102
}
330
62
100
AcDbPlotSettings
  1

  2

  4

  6

 40
0.0
 41
0.0
 42
0.0
 43
0.0
 44
0.0
 45
0.0
 46
0.0
 47
0.0
 48
0.0
 49
0.0
140
0.0
141
0.0
142
1.0
143
1.0
 70
   688
 72
     0
 73
     0
 74
     5
  7

 75
    16
147
1.0
148
0.0
149
0.0
100
AcDbLayout
  1
Layout1
 70
     1
 71
     1
 10
0.0
 20
0.0
 11
12.0
 21
9.0
 12
0.0
 22
0.0
 32
0.0
 14
0.0
 24
0.0
 34
0.0
 15
0.0
 25
0.0
 35
0.0
146
0.0
 13
0.0
 23
0.0
 33
0.0
 16
1.0
 26
0.0
 36
0.0
 17
0.0
 27
1.0
 37
0.0
 76
     0
330
6C
  0
LAYOUT
  5
77
102
{ACAD_XDICTIONARY
360
18E
102
}
102
{ACAD_REACTORS
330
62
102
}
330
62
100
AcDbPlotSettings
  1

  2

  4

  6

 40
0.0
 41
0.0
 42
0.0
 43
0.0
 44
0.0
 45
0.0
 46
0.0
 47
0.0
 48
0.0
 49
0.0
140
0.0
141
0.0
142
1.0
143
1.0
 70
   688
 72
     0
 73
     0
 74
     5
  7

 75
    16
147
1.0
148
0.0
149
0.0
100
AcDbLayout
  1
Layout2
 70
     1
 71
     2
 10
0.0
 20
0.0
 11
12.0
 21
9.0
 12
0.0
 22
0.0
 32
0.0
 14
0.0
 24
0.0
 34
0.0
 15
0.0
 25
0.0
 35
0.0
146
0.0
 13
0.0
 23
0.0
 33
0.0
 16
1.0
 26
0.0
 36
0.0
 17
0.0
 27
1.0
 37
0.0
 76
     0
330
74
  0
LAYOUT
  5
73
102
{ACAD_XDICTIONARY
360
18C
102
}
102
{ACAD_REACTORS
330
62
102
}
330
62
100
AcDbPlotSettings
  1

  2

  4

  6

 40
0.0
 41
0.0
 42
0.0
 43
0.0
 44
0.0
 45
0.0
 46
0.0
 47
0.0
 48
0.0
 49
0.0
140
0.0
141
0.0
142
1.0
143
1.0
 70
  1712
 72
     0
 73
     0
 74
     0
  7

 75
     0
147
1.0
148
0.0
149
0.0
100
AcDbLayout
  1
Model
 70
     1
 71
     0
 10
0.0
 20
0.0
 11
12.0
 21
9.0
 12
0.0
 22
0.0
 32
0.0
 14
0.0
 24
0.0
 34
0.0
 15
0.0
 25
0.0
 35
0.0
146
0.0
 13
0.0
 23
0.0
 33
0.0
 16
1.0
 26
0.0
 36
0.0
 17
0.0
 27
1.0
 37
0.0
 76
     0
330
70
  0
MATERIAL
  5
19
102
{ACAD_XDICTIONARY
360
1A
102
}
102
{ACAD_REACTORS
330
10
102
}
330
10
100
AcDbMaterial
  1
ByBlock
 72
     0
 43
0.020833
 43
0.0
 43
0.0
 43
0.0
 43
0.0
 43
0.020833
 43
0.0
 43
0.0
 43
0.0
 43
0.0
 43
1.0
 43
0.0
 43
0.0
 43
0.0
 43
0.0
 43
1.0
 77
     0
 47
0.020833
 47
0.0
 47
0.0
 47
0.0
 47
0.0
 47
0.020833
 47
0.0
 47
0.0
 47
0.0
 47
0.0
 47
1.0
 47
0.0
 47
0.0
 47
0.0
 47
0.0
 47
1.0
171
     0
 49
0.020833
 49
0.0
 49
0.0
 49
0.0
 49
0.0
 49
0.020833
 49
0.0
 49
0.0
 49
0.0
 49
0.0
 49
1.0
 49
0.0
 49
0.0
 49
0.0
 49
0.0
 49
1.0
175
     0
142
0.020833
142
0.0
142
0.0
142
0.0
142
0.0
142
0.020833
142
0.0
142
0.0
142
0.0
142
0.0
142
1.0
142
0.0
142
0.0
142
0.0
142
0.0
142
1.0
179
     0
144
0.020833
144
0.0
144
0.0
144
0.0
144
0.0
144
0.020833
144
0.0
144
0.0
144
0.0
144
0.0
144
1.0
144
0.0
144
0.0
144
0.0
144
0.0
144
1.0
147
0.020833
147
0.0
147
0.0
147
0.0
147
0.0
147
0.020833
147
0.0
147
0.0
147
0.0
147
0.0
147
1.0
147
0.0
147
0.0
147
0.0
147
0.0
147
1.0
  0
MATERIAL
  5
11
102
{ACAD_XDICTIONARY
360
12
102
}
102
{ACAD_REACTORS
330
10
102
}
330
10
100
AcDbMaterial
  1
ByLayer
 72
     0
 43
0.020833
 43
0.0
 43
0.0
 43
0.0
 43
0.0
 43
0.020833
 43
0.0
 43
0.0
 43
0.0
 43
0.0
 43
1.0
 43
0.0
 43
0.0
 43
0.0
 43
0.0
 43
1.0
 77
     0
 47
0.020833
 47
0.0
 47
0.0
 47
0.0
 47
0.0
 47
0.020833
 47
0.0
 47
0.0
 47
0.0
 47
0.0
 47
1.0
 47
0.0
 47
0.0
 47
0.0
 47
0.0
 47
1.0
171
     0
 49
0.020833
 49
0.0
 49
0.0
 49
0.0
 49
0.0
 49
0.020833
 49
0.0
 49
0.0
 49
0.0
 49
0.0
 49
1.0
 49
0.0
 49
0.0
 49
0.0
 49
0.0
 49
1.0
175
     0
142
0.020833
142
0.0
142
0.0
142
0.0
142
0.0
142
0.020833
142
0.0
142
0.0
142
0.0
142
0.0
142
1.0
142
0.0
142
0.0
142
0.0
142
0.0
142
1.0
179
     0
144
0.020833
144
0.0
144
0.0
144
0.0
144
0.0
144
0.020833
144
0.0
144
0.0
144
0.0
144
0.0
144
1.0
144
0.0
144
0.0
144
0.0
144
0.0
144
1.0
147
0.020833
147
0.0
147
0.0
147
0.0
147
0.0
147
0.020833
147
0.0
147
0.0
147
0.0
147
0.0
147
1.0
147
0.0
147
0.0
147
0.0
147
0.0
147
1.0
  0
MATERIAL
  5
21
102
{ACAD_XDICTIONARY
360
22
102
}
102
{ACAD_REACTORS
330
10
102
}
330
10
100
AcDbMaterial
  1
Global
 72
     0
 43
0.020833
 43
0.0
 43
0.0
 43
0.0
 43
0.0
 43
0.020833
 43
0.0
 43
0.0
 43
0.0
 43
0.0
 43
1.0
 43
0.0
 43
0.0
 43
0.0
 43
0.0
 43
1.0
 77
     0
 47
0.020833
 47
0.0
 47
0.0
 47
0.0
 47
0.0
 47
0.020833
 47
0.0
 47
0.0
 47
0.0
 47
0.0
 47
1.0
 47
0.0
 47
0.0
 47
0.0
 47
0.0
 47
1.0
171
     0
 49
0.020833
 49
0.0
 49
0.0
 49
0.0
 49
0.0
 49
0.020833
 49
0.0
 49
0.0
 49
0.0
 49
0.0
 49
1.0
 49
0.0
 49
0.0
 49
0.0
 49
0.0
 49
1.0
175
     0
142
0.020833
142
0.0
142
0.0
142
0.0
142
0.0
142
0.020833
142
0.0
142
0.0
142
0.0
142
0.0
142
1.0
142
0.0
142
0.0
142
0.0
142
0.0
142
1.0
179
     0
144
0.020833
144
0.0
144
0.0
144
0.0
144
0.0
144
0.020833
144
0.0
144
0.0
144
0.0
144
0.0
144
1.0
144
0.0
144
0.0
144
0.0
144
0.0
144
1.0
147
0.020833
147
0.0
147
0.0
147
0.0
147
0.0
147
0.020833
147
0.0
147
0.0
147
0.0
147
0.0
147
1.0
147
0.0
147
0.0
147
0.0
147
0.0
147
1.0
  0
MLEADERSTYLE
  5
67
102
{ACAD_XDICTIONARY
360
184
102
}
102
{ACAD_REACTORS
330
66
102
}
330
66
100
AcDbMLeaderStyle
170
     2
171
     1
172
     0
 90
        2
 40
0.0
 41
0.0
173
     1
 91
-1056964608
340
5B
 92
       -2
290
     1
 42
0.09
291
     1
 43
0.36
  3
Standard
 44
0.18
300

342
55
174
     1
178
     6
175
     1
176
     0
 93
-1056964608
 45
0.18
292
     0
297
     0
 46
0.18
 94
-1056964608
 47
1.0
 49
1.0
140
1.0
293
     1
141
0.0
294
     1
177
     0
142
1.0
295
     0
296
     0
143
0.125
1001
ACAD_MLEADERVER
1070
     2
  0
MLINESTYLE
  5
60
102
{ACAD_REACTORS
330
5F
102
}
330
5F
100
AcDbMlineStyle
  2
STANDARD
 70
     0
  3

 62
   256
 51
90.0
 52
90.0
 71
     2
 49
0.5
 62
   256
  6
BYLAYER
 49
-0.5
 62
   256
  6
BYLAYER
  0
ACDBPLACEHOLDER
  5
F
102
{ACAD_REACTORS
330
E
102
}
330
E
  0
SCALE
  5
43
102
{ACAD_REACTORS
330
42
102
}
330
42
100
AcDbScale
 70
     0
300
1:1
140
1.0
141
1.0
290
     1
  0
SCALE
  5
44
102
{ACAD_REACTORS
330
42
102
}
330
42
100
AcDbScale
 70
     0
300
1/128" = 1'-0"
140
0.007813
141
12.0
290
     0
  0
SCALE
  5
45
102
{ACAD_REACTORS
330
42
102
}
330
42
100
AcDbScale
 70
     0
300
1/64" = 1'-0"
140
0.015625
141
12.0
290
     0
  0
SCALE
  5
46
102
{ACAD_REACTORS
330
42
102
}
330
42
100
AcDbScale
 70
     0
300
1/32" = 1'-0"
140
0.03125
141
12.0
290
     0
  0
SCALE
  5
47
102
{ACAD_REACTORS
330
42
102
}
330
42
100
AcDbScale
 70
     0
300
1/16" = 1'-0"
140
0.0625
141
12.0
290
     0
  0
SCALE
  5
48
102
{ACAD_REACTORS
330
42
102
}
330
42
100
AcDbScale
 70
     0
300
3/32" = 1'-0"
140
0.09375
141
12.0
290
     0
  0
SCALE
  5
49
102
{ACAD_REACTORS
330
42
102
}
330
42
100
AcDbScale
 70
     0
300
1/8" = 1'-0"
140
0.125
141
12.0
290
     0
  0
SCALE
  5
4A
102
{ACAD_REACTORS
330
42
102
}
330
42
100
AcDbScale
 70
     0
300
3/16" = 1'-0"
140
0.1875
141
12.0
290
     0
  0
SCALE
  5
4B
102
{ACAD_REACTORS
330
42
102
}
330
42
100
AcDbScale
 70
     0
300
1/4" = 1'-0"
140
0.25
141
12.0
290
     0
  0
SCALE
  5
4C
102
{ACAD_REACTORS
330
42
102
}
330
42
100
AcDbScale
 70
     0
300
3/8" = 1'-0"
140
0.375
141
12.0
290
     0
  0
SCALE
  5
4D
102
{ACAD_REACTORS
330
42
102
}
330
42
100
AcDbScale
 70
     0
300
1/2" = 1'-0"
140
0.5
141
12.0
290
     0
  0
SCALE
  5
4E
102
{ACAD_REACTORS
330
42
102
}
330
42
100
AcDbScale
 70
     0
300
3/4" = 1'-0"
140
0.75
141
12.0
290
     0
  0
SCALE
  5
4F
102
{ACAD_REACTORS
330
42
102
}
330
42
100
AcDbScale
 70
     0
300
1" = 1'-0"
140
1.0
141
12.0
290
     0
  0
SCALE
  5
50
102
{ACAD_REACTORS
330
42
102
}
330
42
100
AcDbScale
 70
     0
300
1-1/2" = 1'-0"
140
1.5
141
12.0
290
     0
  0
SCALE
  5
51
102
{ACAD_REACTORS
330
42
102
}
330
42
100
AcDbScale
 70
     0
300
3" = 1'-0"
140
3.0
141
12.0
290
     0
  0
SCALE
  5
52
102
{ACAD_REACTORS
330
42
102
}
330
42
100
AcDbScale
 70
     0
300
6" = 1'-0"
140
6.0
141
12.0
290
     0
  0
SCALE
  5
53
102
{ACAD_REACTORS
330
42
102
}
330
42
100
AcDbScale
 70
     0
300
1'-0" = 1'-0"
140
12.0
141
12.0
290
     0
  0
ACDBSECTIONVIEWSTYLE
  5
69
102
{ACAD_XDICTIONARY
360
186
102
}
102
{ACAD_REACTORS
330
68
102
}
330
68
100
AcDbModelDocViewStyle
 70
     0
  3
Imperial24
290
     0
100
AcDbSectionViewStyle
 70
     0
 71
     0
 90
       78
 71
     1
340
55
 40
0.24
340
0
340
0
 40
0.24
300
I, O, Q, S, X, Z
 40
0.48
 90
        3
 40
0.18
 90
        1
 71
     2
340
5D
 90
       25
340
5D
 90
       50
 40
0.24
 40
0.0
 40
0.24
 71
     3
340
55
 40
0.24
 90
        1
 40
0.75
 90
        1
300
%<\AcVar ViewType \f "%tc1">% %<\AcVar ViewSectionStartId>%-%<\AcVar ViewSectionEndId>%\PSCALE %<\AcVar ViewScale \f "%sn">%
 71
     4
300
ANSI31
 40
1.0
 90
        0
290
     0
290
     0
 90
        6
 40
0.0
 40
1.570796
 40
0.261799
 40
1.308997
 40
-0.261799
 40
1.832596
  0
TABLESTYLE
  5
65
102
{ACAD_XDICTIONARY
360
14C
102
}
102
{ACAD_REACTORS
330
64
102
}
330
64
100
AcDbTableStyle
  3
Standard
 70
     0
 71
     0
 40
0.06
 41
0.06
280
     0
281
     0
  7
Standard
140
0.18
170
     2
 62
     0
 63
     7
283
     0
274
    -2
284
     1
 64
     0
275
    -2
285
     1
 65
     0
276
    -2
286
     1
 66
     0
277
    -2
287
     1
 67
     0
278
    -2
288
     1
 68
     0
279
    -2
289
     1
 69
     0
  7
Standard
140
0.25
170
     5
 62
     0
 63
     7
283
     0
274
    -2
284
     1
 64
     0
275
    -2
285
     1
 65
     0
276
    -2
286
     1
 66
     0
277
    -2
287
     1
 67
     0
278
    -2
288
     1
 68
     0
279
    -2
289
     1
 69
     0
  7
Standard
140
0.18
170
     5
 62
     0
 63
     7
283
     0
274
    -2
284
     1
 64
     0
275
    -2
285
     1
 65
     0
276
    -2
286
     1
 66
     0
277
    -2
287
     1
 67
     0
278
    -2
288
     1
 68
     0
279
    -2
289
     1
 69
     0
  0
VISUALSTYLE
  5
2F
102
{ACAD_XDICTIONARY
360
15C
102
}
102
{ACAD_REACTORS
330
29
102
}
330
29
100
AcDbVisualStyle
  2
2dWireframe
 70
     4
 71
     0
 72
     2
 73
     0
 90
        0
 40
-0.6
 41
-30.0
 62
     5
 63
     7
 74
     1
 91
        4
 64
     7
 65
   257
 75
     1
175
     1
 42
1.0
 92
        0
 66
   257
 43
1.0
 76
     1
 77
     6
 78
     2
 67
     7
 79
     5
170
     0
171
     0
290
     0
174
     0
 93
        1
 44
0.0
173
     0
291
     0
 45
0.0
1001
ACAD
1000
AcDbSavedByObjectVersion
1070
     0
  0
VISUALSTYLE
  5
2E
102
{ACAD_XDICTIONARY
360
15A
102
}
102
{ACAD_REACTORS
330
29
102
}
330
29
100
AcDbVisualStyle
  2
Basic
 70
     7
 71
     1
 72
     0
 73
     1
 90
        0
 40
-0.6
 41
-30.0
 62
     5
 63
     7
 74
     0
 91
        4
 64
     7
 65
   257
 75
     1
175
     1
 42
1.0
 92
        8
 66
     7
 43
1.0
 76
     1
 77
     6
 78
     2
 67
     7
 79
     5
170
     0
171
     0
290
     0
174
     0
 93
        1
 44
0.0
173
     0
291
     1
 45
0.0
1001
ACAD
1000
AcDbSavedByObjectVersion
1070
     0
  0
VISUALSTYLE
  5
35
102
{ACAD_XDICTIONARY
360
168
102
}
102
{ACAD_REACTORS
330
29
102
}
330
29
100
AcDbVisualStyle
  2
Brighten
 70
    12
 71
     2
 72
     2
 73
     0
 90
        0
 40
-0.6
 41
-30.0
 62
     5
 63
     7
 74
     1
 91
        4
 64
     7
 65
   257
 75
     1
175
     1
 42
1.0
 92
        8
 66
     7
 43
1.0
 76
     1
 77
     6
 78
     2
 67
     7
 79
     5
170
     0
171
     0
290
     0
174
     0
 93
        1
 44
50.0
173
     0
291
     1
 45
0.0
1001
ACAD
1000
AcDbSavedByObjectVersion
1070
     0
  0
VISUALSTYLE
  5
39
102
{ACAD_XDICTIONARY
360
170
102
}
102
{ACAD_REACTORS
330
29
102
}
330
29
100
AcDbVisualStyle
  2
ColorChange
 70
    16
 71
     2
 72
     2
 73
     3
 90
        0
 40
-0.6
 41
-30.0
 62
     5
 63
     8
 74
     1
 91
        4
 64
     7
 65
   257
 75
     1
175
     1
 42
1.0
 92
        8
 66
     8
 43
1.0
 76
     1
 77
     6
 78
     2
 67
     7
 79
     5
170
     0
171
     0
290
     0
174
     0
 93
        1
 44
0.0
173
     0
291
     1
 45
0.0
1001
ACAD
1000
AcDbSavedByObjectVersion
1070
     0
  0
VISUALSTYLE
  5
32
102
{ACAD_XDICTIONARY
360
162
102
}
102
{ACAD_REACTORS
330
29
102
}
330
29
100
AcDbVisualStyle
  2
Conceptual
 70
     9
 71
     3
 72
     2
 73
     0
 90
        0
 40
-0.6
 41
-30.0
 62
     5
 63
     7
 74
     2
 91
        2
 64
     7
 65
   257
 75
     1
175
     1
 42
179.0
 92
        8
 66
     7
 43
1.0
 76
     1
 77
     6
 78
     2
 67
     7
 79
     3
170
     0
171
     0
290
     0
174
     0
 93
        1
 44
0.0
173
     0
291
     0
 45
0.0
1001
ACAD
1000
AcDbSavedByObjectVersion
1070
     0
  0
VISUALSTYLE
  5
34
102
{ACAD_XDICTIONARY
360
166
102
}
102
{ACAD_REACTORS
330
29
102
}
330
29
100
AcDbVisualStyle
  2
Dim
 70
    11
 71
     2
 72
     2
 73
     0
 90
        0
 40
-0.6
 41
-30.0
 62
     5
 63
     7
 74
     1
 91
        4
 64
     7
 65
   257
 75
     1
175
     1
 42
1.0
 92
        8
 66
     7
 43
1.0
 76
     1
 77
     6
 78
     2
 67
     7
 79
     5
170
     0
171
     0
290
     0
174
     0
 93
        1
 44
-50.0
173
     0
291
     1
 45
0.0
1001
ACAD
1000
AcDbSavedByObjectVersion
1070
     0
  0
VISUALSTYLE
  5
41
102
{ACAD_XDICTIONARY
360
180
102
}
102
{ACAD_REACTORS
330
29
102
}
330
29
100
AcDbVisualStyle
  2
EdgeColorOff
 70
    22
 71
     2
 72
     2
 73
     0
 90
        0
 40
-0.6
 41
-30.0
 62
     5
 63
     7
 74
     1
 91
        4
 64
     7
 65
   257
 75
     1
175
     1
 42
1.0
 92
        8
 66
     7
 43
1.0
 76
     1
 77
     6
 78
     2
 67
     7
 79
     5
170
     0
171
     0
290
     0
174
     0
 93
        1
 44
0.0
173
     0
291
     1
 45
0.0
1001
ACAD
1000
AcDbSavedByObjectVersion
1070
     0
  0
VISUALSTYLE
  5
38
102
{ACAD_XDICTIONARY
360
16E
102
}
102
{ACAD_REACTORS
330
29
102
}
330
29
100
AcDbVisualStyle
  2
Facepattern
 70
    15
 71
     2
 72
     2
 73
     0
 90
        0
 40
-0.6
 41
-30.0
 62
     5
 63
     7
 74
     1
 91
        4
 64
     7
 65
   257
 75
     1
175
     1
 42
1.0
 92
        8
 66
     7
 43
1.0
 76
     1
 77
     6
 78
     2
 67
     7
 79
     5
170
     0
171
     0
290
     0
174
     0
 93
        1
 44
0.0
173
     0
291
     1
 45
0.0
1001
ACAD
1000
AcDbSavedByObjectVersion
1070
     0
  0
VISUALSTYLE
  5
2A
102
{ACAD_XDICTIONARY
360
152
102
}
102
{ACAD_REACTORS
330
29
102
}
330
29
100
AcDbVisualStyle
  2
Flat
 70
     0
 71
     2
 72
     1
 73
     1
 90
        2
 40
-0.6
 41
30.0
 62
     5
 63
     7
 74
     0
 91
        0
 64
     7
 65
   257
 75
     1
175
     1
 42
1.0
 92
        8
 66
     7
 43
1.0
 76
     1
 77
     6
 78
     2
 67
     7
 79
     5
170
     0
171
     0
290
     0
174
     0
 93
       13
 44
0.0
173
     0
291
     1
 45
0.0
1001
ACAD
1000
AcDbSavedByObjectVersion
1070
     0
  0
VISUALSTYLE
  5
2B
102
{ACAD_XDICTIONARY
360
154
102
}
102
{ACAD_REACTORS
330
29
102
}
330
29
100
AcDbVisualStyle
  2
FlatWithEdges
 70
     1
 71
     2
 72
     1
 73
     1
 90
        2
 40
-0.6
 41
30.0
 62
     5
 63
     7
 74
     1
 91
        0
 64
     7
 65
   257
 75
     1
175
     1
 42
1.0
 92
        0
 66
   257
 43
1.0
 76
     1
 77
     6
 78
     2
 67
     7
 79
     5
170
     0
171
     0
290
     0
174
     0
 93
       13
 44
0.0
173
     0
291
     1
 45
0.0
1001
ACAD
1000
AcDbSavedByObjectVersion
1070
     0
  0
VISUALSTYLE
  5
2C
102
{ACAD_XDICTIONARY
360
156
102
}
102
{ACAD_REACTORS
330
29
102
}
330
29
100
AcDbVisualStyle
  2
Gouraud
 70
     2
 71
     2
 72
     2
 73
     1
 90
        2
 40
-0.6
 41
30.0
 62
     5
 63
     7
 74
     0
 91
        0
 64
     7
 65
   257
 75
     1
175
     1
 42
1.0
 92
        0
 66
     7
 43
1.0
 76
     1
 77
     6
 78
     2
 67
     7
 79
     5
170
     0
171
     0
290
     0
174
     0
 93
       13
 44
0.0
173
     0
291
     1
 45
0.0
1001
ACAD
1000
AcDbSavedByObjectVersion
1070
     0
  0
VISUALSTYLE
  5
2D
102
{ACAD_XDICTIONARY
360
158
102
}
102
{ACAD_REACTORS
330
29
102
}
330
29
100
AcDbVisualStyle
  2
GouraudWithEdges
 70
     3
 71
     2
 72
     2
 73
     1
 90
        2
 40
-0.6
 41
30.0
 62
     5
 63
     7
 74
     1
 91
        0
 64
     7
 65
   257
 75
     1
175
     1
 42
1.0
 92
        0
 66
   257
 43
1.0
 76
     1
 77
     6
 78
     2
 67
     7
 79
     5
170
     0
171
     0
290
     0
174
     0
 93
       13
 44
0.0
173
     0
291
     1
 45
0.0
1001
ACAD
1000
AcDbSavedByObjectVersion
1070
     0
  0
VISUALSTYLE
  5
31
102
{ACAD_XDICTIONARY
360
160
102
}
102
{ACAD_REACTORS
330
29
102
}
330
29
100
AcDbVisualStyle
  2
Hidden
 70
     6
 71
     1
 72
     2
 73
     2
 90
        0
 40
-0.6
 41
-30.0
 62
     5
 63
     7
 74
     2
 91
        2
 64
     7
 65
   257
 75
     2
175
     1
 42
40.0
 92
        0
 66
   257
 43
1.0
 76
     1
 77
     6
 78
     2
 67
     7
 79
     3
170
     0
171
     0
290
     0
174
     0
 93
        1
 44
0.0
173
     0
291
     0
 45
0.0
1001
ACAD
1000
AcDbSavedByObjectVersion
1070
     0
  0
VISUALSTYLE
  5
3F
102
{ACAD_XDICTIONARY
360
17C
102
}
102
{ACAD_REACTORS
330
29
102
}
330
29
100
AcDbVisualStyle
  2
JitterOff
 70
    20
 71
     2
 72
     2
 73
     0
 90
        0
 40
-0.6
 41
-30.0
 62
     5
 63
     7
 74
     1
 91
        4
 64
     7
 65
   257
 75
     1
175
     1
 42
1.0
 92
       10
 66
     7
 43
1.0
 76
     1
 77
     6
 78
     2
 67
     7
 79
     5
170
     0
171
     0
290
     0
174
     0
 93
        1
 44
0.0
173
     0
291
     1
 45
0.0
1001
ACAD
1000
AcDbSavedByObjectVersion
1070
     0
  0
VISUALSTYLE
  5
37
102
{ACAD_XDICTIONARY
360
16C
102
}
102
{ACAD_REACTORS
330
29
102
}
330
29
100
AcDbVisualStyle
  2
Linepattern
 70
    14
 71
     2
 72
     2
 73
     0
 90
        0
 40
-0.6
 41
-30.0
 62
     5
 63
     7
 74
     1
 91
        4
 64
     7
 65
   257
 75
     7
175
     7
 42
1.0
 92
        8
 66
     7
 43
1.0
 76
     1
 77
     6
 78
     2
 67
     7
 79
     5
170
     0
171
     0
290
     0
174
     0
 93
        1
 44
0.0
173
     0
291
     1
 45
0.0
1001
ACAD
1000
AcDbSavedByObjectVersion
1070
     0
  0
VISUALSTYLE
  5
40
102
{ACAD_XDICTIONARY
360
17E
102
}
102
{ACAD_REACTORS
330
29
102
}
330
29
100
AcDbVisualStyle
  2
OverhangOff
 70
    21
 71
     2
 72
     2
 73
     0
 90
        0
 40
-0.6
 41
-30.0
 62
     5
 63
     7
 74
     1
 91
        4
 64
     7
 65
   257
 75
     1
175
     1
 42
1.0
 92
        9
 66
     7
 43
1.0
 76
     1
 77
     6
 78
     2
 67
     7
 79
     5
170
     0
171
     0
290
     0
174
     0
 93
        1
 44
0.0
173
     0
291
     1
 45
0.0
1001
ACAD
1000
AcDbSavedByObjectVersion
1070
     0
  0
VISUALSTYLE
  5
33
102
{ACAD_XDICTIONARY
360
164
102
}
102
{ACAD_REACTORS
330
29
102
}
330
29
100
AcDbVisualStyle
  2
Realistic
 70
     8
 71
     2
 72
     3
 73
     0
 90
        2
 40
-0.6
 41
30.0
 62
     5
 63
     7
 74
     0
 91
        0
 64
     7
 65
   257
 75
     1
175
     1
 42
1.0
 92
        8
 66
   257
 43
1.0
 76
     1
 77
     6
 78
     2
 67
     7
 79
     3
170
     0
171
     0
290
     0
174
     0
 93
       13
 44
0.0
173
     0
291
     0
 45
0.0
1001
ACAD
1000
AcDbSavedByObjectVersion
1070
     0
  0
VISUALSTYLE
  5
3E
102
{ACAD_XDICTIONARY
360
17A
102
}
102
{ACAD_REACTORS
330
29
102
}
330
29
100
AcDbVisualStyle
  2
Shaded
 70
    27
 71
     2
 72
     2
 73
     1
 90
        2
 40
-0.6
 41
30.0
 62
     5
 63
     7
 74
     0
 91
        4
 64
     7
 65
   257
 75
     1
175
     1
 42
1.0
 92
        8
 66
   257
 43
1.0
 76
     1
 77
     6
 78
     2
 67
     8
 79
     3
170
     0
171
     0
290
     0
174
     0
 93
        5
 44
0.0
173
     0
291
     0
 45
0.0
1001
ACAD
1000
AcDbSavedByObjectVersion
1070
     0
  0
VISUALSTYLE
  5
3D
102
{ACAD_XDICTIONARY
360
178
102
}
102
{ACAD_REACTORS
330
29
102
}
330
29
100
AcDbVisualStyle
  2
Shaded with edges
 70
    26
 71
     2
 72
     2
 73
     1
 90
        2
 40
-0.6
 41
30.0
 62
     5
 63
     7
 74
     1
 91
        2
 64
     7
 65
   257
 75
     2
175
     1
 42
1.0
 92
        8
 66
   257
 43
1.0
 76
     1
 77
     6
 78
     2
 67
     7
 79
     3
170
     0
171
     0
290
     0
174
     0
 93
        5
 44
0.0
173
     0
291
     0
 45
0.0
1001
ACAD
1000
AcDbSavedByObjectVersion
1070
     0
  0
VISUALSTYLE
  5
3A
102
{ACAD_XDICTIONARY
360
172
102
}
102
{ACAD_REACTORS
330
29
102
}
330
29
100
AcDbVisualStyle
  2
Shades of Gray
 70
    23
 71
     2
 72
     2
 73
     3
 90
        0
 40
-0.6
 41
-30.0
 62
     5
 63
     7
 74
     2
 91
        2
 64
     7
 65
     7
 75
     1
175
     1
 42
40.0
 92
        8
 66
     7
 43
1.0
 76
     1
 77
     6
 78
     2
 67
     7
 79
     3
170
     0
171
     0
290
     0
174
     0
 93
        1
 44
0.0
173
     0
291
     0
 45
0.0
1001
ACAD
1000
AcDbSavedByObjectVersion
1070
     0
  0
VISUALSTYLE
  5
3B
102
{ACAD_XDICTIONARY
360
174
102
}
102
{ACAD_REACTORS
330
29
102
}
330
29
100
AcDbVisualStyle
  2
Sketchy
 70
    24
 71
     1
 72
     2
 73
     2
 90
        0
 40
-0.6
 41
-30.0
 62
     5
 63
     7
 74
     2
 91
        2
 64
     7
 65
     7
 75
     1
175
     1
 42
40.0
 92
       11
 66
     7
 43
1.0
 76
     1
 77
     6
 78
     2
 67
     7
 79
     6
170
     0
171
     0
290
     0
174
     0
 93
        1
 44
0.0
173
     0
291
     0
 45
0.0
1001
ACAD
1000
AcDbSavedByObjectVersion
1070
     0
  0
VISUALSTYLE
  5
36
102
{ACAD_XDICTIONARY
360
16A
102
}
102
{ACAD_REACTORS
330
29
102
}
330
29
100
AcDbVisualStyle
  2
Thicken
 70
    13
 71
     2
 72
     2
 73
     0
 90
        0
 40
-0.6
 41
-30.0
 62
     5
 63
     7
 74
     1
 91
        4
 64
     7
 65
   257
 75
     1
175
     1
 42
1.0
 92
       12
 66
     7
 43
1.0
 76
     1
 77
     6
 78
     2
 67
     7
 79
     5
170
     0
171
     0
290
     0
174
     0
 93
        1
 44
0.0
173
     0
291
     1
 45
0.0
1001
ACAD
1000
AcDbSavedByObjectVersion
1070
     0
  0
VISUALSTYLE
  5
30
102
{ACAD_XDICTIONARY
360
15E
102
}
102
{ACAD_REACTORS
330
29
102
}
330
29
100
AcDbVisualStyle
  2
Wireframe
 70
     5
 71
     0
 72
     2
 73
     0
 90
        0
 40
-0.6
 41
-30.0
 62
     5
 63
     7
 74
     1
 91
        4
 64
     7
 65
   257
 75
     1
175
     1
 42
1.0
 92
        0
 66
   257
 43
1.0
 76
     1
 77
     6
 78
     2
 67
     7
 79
     3
170
     0
171
     0
290
     0
174
     0
 93
        1
 44
0.0
173
     0
291
     0
 45
0.0
1001
ACAD
1000
AcDbSavedByObjectVersion
1070
     0
  0
VISUALSTYLE
  5
3C
102
{ACAD_XDICTIONARY
360
176
102
}
102
{ACAD_REACTORS
330
29
102
}
330
29
100
AcDbVisualStyle
  2
X-Ray
 70
    25
 71
     2
 72
     2
 73
     1
 90
        1
 40
0.5
 41
-30.0
 62
     5
 63
     7
 74
     1
 91
        0
 64
     7
 65
   257
 75
     1
175
     1
 42
1.0
 92
        8
 66
     7
 43
1.0
 76
     1
 77
     6
 78
     2
 67
     7
 79
     3
170
     0
171
     0
290
     0
174
     0
 93
       13
 44
0.0
173
     0
291
     0
 45
0.0
1001
ACAD
1000
AcDbSavedByObjectVersion
1070
     0
  0
DICTIONARYVAR
  5
143
102
{ACAD_REACTORS
330
13D
102
}
330
13D
100
DictionaryVariables
280
     0
  1
1:1
  0
DICTIONARYVAR
  5
13F
102
{ACAD_REACTORS
330
13D
102
}
330
13D
100
DictionaryVariables
280
     0
  1
STANDARD
  0
DICTIONARYVAR
  5
13E
102
{ACAD_REACTORS
330
13D
102
}
330
13D
100
DictionaryVariables
280
     0
  1
STANDARD
  0
DICTIONARYVAR
  5
140
102
{ACAD_REACTORS
330
13D
102
}
330
13D
100
DictionaryVariables
280
     0
  1
Imperial24
  0
DICTIONARYVAR
  5
141
102
{ACAD_REACTORS
330
13D
102
}
330
13D
100
DictionaryVariables
280
     0
  1
Imperial24
  0
DICTIONARYVAR
  5
14A
102
{ACAD_REACTORS
330
13D
102
}
330
13D
100
DictionaryVariables
280
     0
  1
2
  0
DICTIONARYVAR
  5
149
102
{ACAD_REACTORS
330
13D
102
}
330
13D
100
DictionaryVariables
280
     0
  1
1
  0
DICTIONARYVAR
  5
148
102
{ACAD_REACTORS
330
13D
102
}
330
13D
100
DictionaryVariables
280
     0
  1
0
  0
DICTIONARYVAR
  5
145
102
{ACAD_REACTORS
330
13D
102
}
330
13D
100
DictionaryVariables
280
     0
  1
0
  0
DICTIONARYVAR
  5
146
102
{ACAD_REACTORS
330
13D
102
}
330
13D
100
DictionaryVariables
280
     0
  1
0
  0
DICTIONARYVAR
  5
144
102
{ACAD_REACTORS
330
13D
102
}
330
13D
100
DictionaryVariables
280
     0
  1
2
  0
DICTIONARYVAR
  5
142
102
{ACAD_REACTORS
330
13D
102
}
330
13D
100
DictionaryVariables
280
     0
  1
1
  0
DICTIONARYVAR
  5
147
102
{ACAD_REACTORS
330
13D
102
}
330
13D
100
DictionaryVariables
280
     0
  1
127
  0
DICTIONARYVAR
  5
14B
102
{ACAD_REACTORS
330
13D
102
}
330
13D
100
DictionaryVariables
280
     0
  1
2
  0
DICTIONARY
  5
188
330
6B
100
AcDbDictionary
280
     1
281
     1
  3
ACAD_XREC_ROUNDTRIP
360
189
  0
DICTIONARY
  5
18A
330
6F
100
AcDbDictionary
280
     1
281
     1
  3
ACAD_XREC_ROUNDTRIP
360
18B
  0
DICTIONARY
  5
18E
330
77
100
AcDbDictionary
280
     1
281
     1
  3
ACAD_XREC_ROUNDTRIP
360
18F
  0
DICTIONARY
  5
18C
330
73
100
AcDbDictionary
280
     1
281
     1
  3
ACAD_XREC_ROUNDTRIP
360
18D
  0
DICTIONARY
  5
1A
330
19
100
AcDbDictionary
280
     1
281
     1
  3
ACAD_XREC_ROUNDTRIP
360
150
  3
BUMPTILE
360
1C
  3
DIFFUSETILE
360
1B
  3
OPACITYTILE
360
1F
  3
REFLECTIONTILE
360
1E
  3
REFRACTIONTILE
360
20
  3
SPECULARTILE
360
1D
  0
DICTIONARY
  5
12
330
11
100
AcDbDictionary
280
     1
281
     1
  3
ACAD_XREC_ROUNDTRIP
360
14F
  3
BUMPTILE
360
14
  3
DIFFUSETILE
360
13
  3
OPACITYTILE
360
17
  3
REFLECTIONTILE
360
16
  3
REFRACTIONTILE
360
18
  3
SPECULARTILE
360
15
  0
DICTIONARY
  5
22
330
21
100
AcDbDictionary
280
     1
281
     1
  3
ACAD_XREC_ROUNDTRIP
360
151
  3
BUMPTILE
360
24
  3
DIFFUSETILE
360
23
  3
OPACITYTILE
360
27
  3
REFLECTIONTILE
360
26
  3
REFRACTIONTILE
360
28
  3
SPECULARTILE
360
25
  0
DICTIONARY
  5
184
330
67
100
AcDbDictionary
280
     1
281
     1
  3
ACAD_XREC_ROUNDTRIP
360
185
  0
DICTIONARY
  5
186
330
69
100
AcDbDictionary
280
     1
281
     1
  3
ACAD_XREC_ROUNDTRIP
360
187
  0
DICTIONARY
  5
14C
330
65
100
AcDbDictionary
280
     1
281
     1
  3
ACAD_ROUNDTRIP_2008_TABLESTYLE_CELLSTYLEMAP
360
14D
  3
ACAD_XREC_ROUNDTRIP
360
182
  0
DICTIONARY
  5
15C
330
2F
100
AcDbDictionary
280
     1
281
     1
  3
ACAD_XREC_ROUNDTRIP
360
15D
  0
DICTIONARY
  5
15A
330
2E
100
AcDbDictionary
280
     1
281
     1
  3
ACAD_XREC_ROUNDTRIP
360
15B
  0
DICTIONARY
  5
168
330
35
100
AcDbDictionary
280
     1
281
     1
  3
ACAD_XREC_ROUNDTRIP
360
169
  0
DICTIONARY
  5
170
330
39
100
AcDbDictionary
280
     1
281
     1
  3
ACAD_XREC_ROUNDTRIP
360
171
  0
DICTIONARY
  5
162
330
32
100
AcDbDictionary
280
     1
281
     1
  3
ACAD_XREC_ROUNDTRIP
360
163
  0
DICTIONARY
  5
166
330
34
100
AcDbDictionary
280
     1
281
     1
  3
ACAD_XREC_ROUNDTRIP
360
167
  0
DICTIONARY
  5
180
330
41
100
AcDbDictionary
280
     1
281
     1
  3
ACAD_XREC_ROUNDTRIP
360
181
  0
DICTIONARY
  5
16E
330
38
100
AcDbDictionary
280
     1
281
     1
  3
ACAD_XREC_ROUNDTRIP
360
16F
  0
DICTIONARY
  5
152
330
2A
100
AcDbDictionary
280
     1
281
     1
  3
ACAD_XREC_ROUNDTRIP
360
153
  0
DICTIONARY
  5
154
330
2B
100
AcDbDictionary
280
     1
281
     1
  3
ACAD_XREC_ROUNDTRIP
360
155
  0
DICTIONARY
  5
156
330
2C
100
AcDbDictionary
280
     1
281
     1
  3
ACAD_XREC_ROUNDTRIP
360
157
  0
DICTIONARY
  5
158
330
2D
100
AcDbDictionary
280
     1
281
     1
  3
ACAD_XREC_ROUNDTRIP
360
159
  0
DICTIONARY
  5
160
330
31
100
AcDbDictionary
280
     1
281
     1
  3
ACAD_XREC_ROUNDTRIP
360
161
  0
DICTIONARY
  5
17C
330
3F
100
AcDbDictionary
280
     1
281
     1
  3
ACAD_XREC_ROUNDTRIP
360
17D
  0
DICTIONARY
  5
16C
330
37
100
AcDbDictionary
280
     1
281
     1
  3
ACAD_XREC_ROUNDTRIP
360
16D
  0
DICTIONARY
  5
17E
330
40
100
AcDbDictionary
280
     1
281
     1
  3
ACAD_XREC_ROUNDTRIP
360
17F
  0
DICTIONARY
  5
164
330
33
100
AcDbDictionary
280
     1
281
     1
  3
ACAD_XREC_ROUNDTRIP
360
165
  0
DICTIONARY
  5
17A
330
3E
100
AcDbDictionary
280
     1
281
     1
  3
ACAD_XREC_ROUNDTRIP
360
17B
  0
DICTIONARY
  5
178
330
3D
100
AcDbDictionary
280
     1
281
     1
  3
ACAD_XREC_ROUNDTRIP
360
179
  0
DICTIONARY
  5
172
330
3A
100
AcDbDictionary
280
     1
281
     1
  3
ACAD_XREC_ROUNDTRIP
360
173
  0
DICTIONARY
  5
174
330
3B
100
AcDbDictionary
280
     1
281
     1
  3
ACAD_XREC_ROUNDTRIP
360
175
  0
DICTIONARY
  5
16A
330
36
100
AcDbDictionary
280
     1
281
     1
  3
ACAD_XREC_ROUNDTRIP
360
16B
  0
DICTIONARY
  5
15E
330
30
100
AcDbDictionary
280
     1
281
     1
  3
ACAD_XREC_ROUNDTRIP
360
15F
  0
DICTIONARY
  5
176
330
3C
100
AcDbDictionary
280
     1
281
     1
  3
ACAD_XREC_ROUNDTRIP
360
177
  0
XRECORD
  5
189
102
{ACAD_REACTORS
330
188
102
}
330
188
100
AcDbXrecord
280
     1
102
DISPLAYNAME
  1
Imperial24
102
FLAGS
 90
        0
  0
XRECORD
  5
18B
102
{ACAD_REACTORS
330
18A
102
}
330
18A
100
AcDbXrecord
280
     1
102
SHADEPLOT
 70
     0
102
SHADEPLOTRESLEVEL
 70
     2
102
SHADEPLOTCUSTOMDPI
 70
   300
  0
XRECORD
  5
18F
102
{ACAD_REACTORS
330
18E
102
}
330
18E
100
AcDbXrecord
280
     1
102
SHADEPLOT
 70
     0
102
SHADEPLOTRESLEVEL
 70
     2
102
SHADEPLOTCUSTOMDPI
 70
   300
  0
XRECORD
  5
18D
102
{ACAD_REACTORS
330
18C
102
}
330
18C
100
AcDbXrecord
280
     1
102
SHADEPLOT
 70
     0
102
SHADEPLOTRESLEVEL
 70
     2
102
SHADEPLOTCUSTOMDPI
 70
   300
  0
XRECORD
  5
150
102
{ACAD_REACTORS
330
1A
102
}
330
1A
100
AcDbXrecord
280
     1
102
MATERIAL
148
0.0
149
0.0
149
0.0
 93
        0
 94
      127
282
     0
 72
     0
 77
     0
171
     0
175
     0
179
     0
273
     0
  0
XRECORD
  5
1C
102
{ACAD_REACTORS
330
1A
102
}
330
1A
100
AcDbXrecord
280
     1
270
     1
271
     1
  0
XRECORD
  5
1B
102
{ACAD_REACTORS
330
1A
102
}
330
1A
100
AcDbXrecord
280
     1
270
     1
271
     1
  0
XRECORD
  5
1F
102
{ACAD_REACTORS
330
1A
102
}
330
1A
100
AcDbXrecord
280
     1
270
     1
271
     1
  0
XRECORD
  5
1E
102
{ACAD_REACTORS
330
1A
102
}
330
1A
100
AcDbXrecord
280
     1
270
     1
271
     1
  0
XRECORD
  5
20
102
{ACAD_REACTORS
330
1A
102
}
330
1A
100
AcDbXrecord
280
     1
270
     1
271
     1
  0
XRECORD
  5
1D
102
{ACAD_REACTORS
330
1A
102
}
330
1A
100
AcDbXrecord
280
     1
270
     1
271
     1
  0
XRECORD
  5
14F
102
{ACAD_REACTORS
330
12
102
}
330
12
100
AcDbXrecord
280
     1
102
MATERIAL
148
0.0
149
0.0
149
0.0
 93
        0
 94
      127
282
     0
 72
     0
 77
     0
171
     0
175
     0
179
     0
273
     0
  0
XRECORD
  5
14
102
{ACAD_REACTORS
330
12
102
}
330
12
100
AcDbXrecord
280
     1
270
     1
271
     1
  0
XRECORD
  5
13
102
{ACAD_REACTORS
330
12
102
}
330
12
100
AcDbXrecord
280
     1
270
     1
271
     1
  0
XRECORD
  5
17
102
{ACAD_REACTORS
330
12
102
}
330
12
100
AcDbXrecord
280
     1
270
     1
271
     1
  0
XRECORD
  5
16
102
{ACAD_REACTORS
330
12
102
}
330
12
100
AcDbXrecord
280
     1
270
     1
271
     1
  0
XRECORD
  5
18
102
{ACAD_REACTORS
330
12
102
}
330
12
100
AcDbXrecord
280
     1
270
     1
271
     1
  0
XRECORD
  5
15
102
{ACAD_REACTORS
330
12
102
}
330
12
100
AcDbXrecord
280
     1
270
     1
271
     1
  0
XRECORD
  5
151
102
{ACAD_REACTORS
330
22
102
}
330
22
100
AcDbXrecord
280
     1
102
MATERIAL
148
0.0
149
0.0
149
0.0
 93
        0
 94
      127
282
     0
 72
     0
 77
     0
171
     0
175
     0
179
     0
273
     0
  0
XRECORD
  5
24
102
{ACAD_REACTORS
330
22
102
}
330
22
100
AcDbXrecord
280
     1
270
     1
271
     1
  0
XRECORD
  5
23
102
{ACAD_REACTORS
330
22
102
}
330
22
100
AcDbXrecord
280
     1
270
     1
271
     1
  0
XRECORD
  5
27
102
{ACAD_REACTORS
330
22
102
}
330
22
100
AcDbXrecord
280
     1
270
     1
271
     1
  0
XRECORD
  5
26
102
{ACAD_REACTORS
330
22
102
}
330
22
100
AcDbXrecord
280
     1
270
     1
271
     1
  0
XRECORD
  5
28
102
{ACAD_REACTORS
330
22
102
}
330
22
100
AcDbXrecord
280
     1
270
     1
271
     1
  0
XRECORD
  5
25
102
{ACAD_REACTORS
330
22
102
}
330
22
100
AcDbXrecord
280
     1
270
     1
271
     1
  0
XRECORD
  5
185
102
{ACAD_REACTORS
330
184
102
}
330
184
100
AcDbXrecord
280
     1
102
ACAD_ROUNDTRIP_2012_MLEADER_STYLE
298
     1
  0
XRECORD
  5
187
102
{ACAD_REACTORS
330
186
102
}
330
186
100
AcDbXrecord
280
     1
102
DISPLAYNAME
  1
Imperial24
102
FLAGS
 90
        0
  0
CELLSTYLEMAP
  5
14D
102
{ACAD_REACTORS
330
14C
102
}
330
14C
100
AcDbCellStyleMap
 90
        3
300
CELLSTYLE
  1
TABLEFORMAT_BEGIN
 90
        5
170
     1
 91
        0
 92
    32768
 62
   257
 93
        1
300
CONTENTFORMAT
  1
CONTENTFORMAT_BEGIN
 90
        0
 91
        0
 92
      512
 93
        0
300

 40
0.0
140
1.0
 94
        5
 62
     0
340
55
144
0.25
309
CONTENTFORMAT_END
171
     0
 94
        0
309
TABLEFORMAT_END
  1
CELLSTYLE_BEGIN
 90
        1
 91
        1
300
_TITLE
309
CELLSTYLE_END
300
CELLSTYLE
  1
TABLEFORMAT_BEGIN
 90
        5
170
     1
 91
        0
 92
        0
 62
   257
 93
        1
300
CONTENTFORMAT
  1
CONTENTFORMAT_BEGIN
 90
        0
 91
        0
 92
      512
 93
        0
300

 40
0.0
140
1.0
 94
        5
 62
     0
340
55
144
0.18
309
CONTENTFORMAT_END
171
     0
 94
        0
309
TABLEFORMAT_END
  1
CELLSTYLE_BEGIN
 90
        2
 91
        1
300
_HEADER
309
CELLSTYLE_END
300
CELLSTYLE
  1
TABLEFORMAT_BEGIN
 90
        5
170
     1
 91
        0
 92
        0
 62
   257
 93
        1
300
CONTENTFORMAT
  1
CONTENTFORMAT_BEGIN
 90
        0
 91
        0
 92
      512
 93
        0
300

 40
0.0
140
1.0
 94
        2
 62
     0
340
55
144
0.18
309
CONTENTFORMAT_END
171
     0
 94
        0
309
TABLEFORMAT_END
  1
CELLSTYLE_BEGIN
 90
        3
 91
        2
300
_DATA
309
CELLSTYLE_END
  0
XRECORD
  5
182
102
{ACAD_REACTORS
330
14C
102
}
330
14C
100
AcDbXrecord
280
     1
102
ACAD_ROUNDTRIP_PRE2007_TABLESTYLE
 90
      512
 91
        0
  1

 92
      512
 93
        0
  2

 94
      512
 95
        0
  3

  0
XRECORD
  5
15D
102
{ACAD_REACTORS
330
15C
102
}
330
15C
100
AcDbXrecord
280
     1
102
RTVSPost2010Prop28
280
     1
102
RTVSPost2010PropOp28
 70
     1
102
RTVSPost2010Prop29
280
     1
102
RTVSPost2010PropOp29
 70
     1
102
RTVSPost2010Prop30
280
     0
102
RTVSPost2010PropOp30
 70
     1
102
RTVSPost2010Prop31
280
     0
102
RTVSPost2010PropOp31
 70
     1
102
RTVSPost2010Prop32
280
     0
102
RTVSPost2010PropOp32
 70
     1
102
RTVSPost2010Prop33
280
     0
102
RTVSPost2010PropOp33
 70
     1
102
RTVSPost2010Prop34
280
     0
102
RTVSPost2010PropOp34
 70
     1
102
RTVSPost2010Prop35
280
     0
102
RTVSPost2010PropOp35
 70
     1
102
RTVSPost2010Prop36
280
     0
102
RTVSPost2010PropOp36
 70
     1
102
RTVSPost2010Prop37
 90
       50
102
RTVSPost2010PropOp37
 70
     1
102
RTVSPost2010Prop38
140
0.0
102
RTVSPost2010PropOp38
 70
     1
102
RTVSPost2010Prop39
140
1.0
102
RTVSPost2010PropOp39
 70
     1
102
RTVSPost2010Prop40
 90
        0
102
RTVSPost2010PropOp40
 70
     1
102
RTVSPost2010Prop41ColorIndex
 90
       18
102
RTVSPost2010Prop41ColorRGB
 90
        0
102
RTVSPost2010PropOp41
 70
     1
102
RTVSPost2010Prop42
 90
       50
102
RTVSPost2010PropOp42
 70
     1
102
RTVSPost2010Prop43
 90
        3
102
RTVSPost2010PropOp43
 70
     1
102
RTVSPost2010Prop44ColorIndex
 90
        5
102
RTVSPost2010Prop44ColorRGB
 90
      255
102
RTVSPost2010PropOp44
 70
     1
102
RTVSPost2010Prop45
280
     0
102
RTVSPost2010PropOp45
 70
     1
102
RTVSPost2010Prop46
 90
       50
102
RTVSPost2010PropOp46
 70
     1
102
RTVSPost2010Prop47
 90
       50
102
RTVSPost2010PropOp47
 70
     1
102
RTVSPost2010Prop48
 90
       50
102
RTVSPost2010PropOp48
 70
     1
102
RTVSPost2010Prop49
280
     0
102
RTVSPost2010PropOp49
 70
     1
102
RTVSPost2010Prop50
 90
       50
102
RTVSPost2010PropOp50
 70
     1
102
RTVSPost2010Prop51ColorIndex
 90
      256
102
RTVSPost2010Prop51ColorRGB
 90
-16777216
102
RTVSPost2010PropOp51
 70
     0
102
RTVSPost2010Prop52
140
1.0
102
RTVSPost2010PropOp52
 70
     0
102
RTVSPost2010Prop53
 90
        2
102
RTVSPost2010PropOp53
 70
     1
102
RTVSPost2010Prop54
  1
strokes_ogs.tif
102
RTVSPost2010PropOp54
 70
     1
102
RTVSPost2010Prop55
280
     0
102
RTVSPost2010PropOp55
 70
     1
102
RTVSPost2010Prop56
140
1.0
102
RTVSPost2010PropOp56
 70
     1
102
RTVSPost2010Prop57
140
1.0
102
RTVSPost2010PropOp57
 70
     1
102
RTVSPropertyOp0
 70
     1
102
RTVSPropertyOp1
 70
     1
102
RTVSPropertyOp2
 70
     1
102
RTVSPropertyOp3
 70
     1
102
RTVSPropertyOp4
 70
     1
102
RTVSPropertyOp5
 70
     1
102
RTVSPropertyOp6
 70
     1
102
RTVSPropertyOp7
 70
     1
102
RTVSPropertyOp8
 70
     1
102
RTVSPropertyOp9
 70
     1
102
RTVSPropertyOp10
 70
     1
102
RTVSPropertyOp11
 70
     1
102
RTVSPropertyOp12
 70
     1
102
RTVSPropertyOp13
 70
     1
102
RTVSPropertyOp14
 70
     1
102
RTVSPropertyOp15
 70
     1
102
RTVSPropertyOp16
 70
     1
102
RTVSPropertyOp17
 70
     1
102
RTVSPropertyOp18
 70
     1
102
RTVSPropertyOp19
 70
     1
102
RTVSPropertyOp20
 70
     1
102
RTVSPropertyOp21
 70
     1
102
RTVSPropertyOp22
 70
     1
102
RTVSPropertyOp23
 70
     1
102
RTVSPropertyOp24
 70
     1
102
RTVSPropertyOp25
 70
     1
102
RTVSPropertyOp26
 70
     1
102
RTVSPropertyOp27
 70
     1
102
RTVSPropertyOp28
 70
     1
102
RTVSPropertyOp29
 70
     1
102
RTVSPropertyOp30
 70
     1
102
RTVSPropertyOp31
 70
     1
102
RTVSPropertyOp32
 70
     1
102
RTVSPropertyOp33
 70
     1
102
RTVSPropertyOp34
 70
     1
102
RTVSPropertyOp35
 70
     1
102
RTVSPropertyOp36
 70
     1
102
RTVSPropertyOp37
 70
     1
102
RTVSPropertyOp38
 70
     1
102
RTVSPropertyOp39
 70
     1
102
RTVSPropertyOp40
 70
     1
102
RTVSPropertyOp41
 70
     1
102
RTVSPropertyOp42
 70
     1
102
RTVSPropertyOp43
 70
     1
102
RTVSPropertyOp44
 70
     1
102
RTVSPropertyOp45
 70
     1
102
RTVSPropertyOp46
 70
     1
102
RTVSPropertyOp47
 70
     1
102
RTVSPropertyOp48
 70
     1
102
RTVSPropertyOp49
 70
     1
102
RTVSPropertyOp50
 70
     1
102
RTVSPropertyOp51
 70
     0
102
RTVSPropertyOp52
 70
     0
102
RTVSPropertyOp53
 70
     1
102
RTVSPropertyOp54
 70
     1
102
RTVSPropertyOp55
 70
     1
102
RTVSPropertyOp56
 70
     1
102
RTVSPropertyOp57
 70
     1
102
RTVSPropertyOp58
 70
     1
102
RTVSPropertyOp59
 70
     1
102
RTVSPropertyOp60
 70
     1
102
RTVSPropertyOp61
 70
     1
102
RTVSPropertyOp62
 70
     1
  0
XRECORD
  5
15B
102
{ACAD_REACTORS
330
15A
102
}
330
15A
100
AcDbXrecord
280
     1
102
RTVSPost2010Prop28
280
     0
102
RTVSPost2010PropOp28
 70
     1
102
RTVSPost2010Prop29
280
     1
102
RTVSPost2010PropOp29
 70
     1
102
RTVSPost2010Prop30
280
     1
102
RTVSPost2010PropOp30
 70
     1
102
RTVSPost2010Prop31
280
     0
102
RTVSPost2010PropOp31
 70
     1
102
RTVSPost2010Prop32
280
     0
102
RTVSPost2010PropOp32
 70
     1
102
RTVSPost2010Prop33
280
     0
102
RTVSPost2010PropOp33
 70
     1
102
RTVSPost2010Prop34
280
     0
102
RTVSPost2010PropOp34
 70
     1
102
RTVSPost2010Prop35
280
     0
102
RTVSPost2010PropOp35
 70
     1
102
RTVSPost2010Prop36
280
     0
102
RTVSPost2010PropOp36
 70
     1
102
RTVSPost2010Prop37
 90
       50
102
RTVSPost2010PropOp37
 70
     1
102
RTVSPost2010Prop38
140
0.0
102
RTVSPost2010PropOp38
 70
     1
102
RTVSPost2010Prop39
140
1.0
102
RTVSPost2010PropOp39
 70
     1
102
RTVSPost2010Prop40
 90
        0
102
RTVSPost2010PropOp40
 70
     1
102
RTVSPost2010Prop41ColorIndex
 90
       18
102
RTVSPost2010Prop41ColorRGB
 90
        0
102
RTVSPost2010PropOp41
 70
     1
102
RTVSPost2010Prop42
 90
       50
102
RTVSPost2010PropOp42
 70
     1
102
RTVSPost2010Prop43
 90
        3
102
RTVSPost2010PropOp43
 70
     1
102
RTVSPost2010Prop44ColorIndex
 90
        5
102
RTVSPost2010Prop44ColorRGB
 90
      255
102
RTVSPost2010PropOp44
 70
     1
102
RTVSPost2010Prop45
280
     0
102
RTVSPost2010PropOp45
 70
     1
102
RTVSPost2010Prop46
 90
       50
102
RTVSPost2010PropOp46
 70
     1
102
RTVSPost2010Prop47
 90
       50
102
RTVSPost2010PropOp47
 70
     1
102
RTVSPost2010Prop48
 90
       50
102
RTVSPost2010PropOp48
 70
     1
102
RTVSPost2010Prop49
280
     0
102
RTVSPost2010PropOp49
 70
     1
102
RTVSPost2010Prop50
 90
       50
102
RTVSPost2010PropOp50
 70
     1
102
RTVSPost2010Prop51ColorIndex
 90
      256
102
RTVSPost2010Prop51ColorRGB
 90
-16777216
102
RTVSPost2010PropOp51
 70
     0
102
RTVSPost2010Prop52
140
1.0
102
RTVSPost2010PropOp52
 70
     0
102
RTVSPost2010Prop53
 90
        2
102
RTVSPost2010PropOp53
 70
     1
102
RTVSPost2010Prop54
  1
strokes_ogs.tif
102
RTVSPost2010PropOp54
 70
     1
102
RTVSPost2010Prop55
280
     0
102
RTVSPost2010PropOp55
 70
     1
102
RTVSPost2010Prop56
140
1.0
102
RTVSPost2010PropOp56
 70
     1
102
RTVSPost2010Prop57
140
1.0
102
RTVSPost2010PropOp57
 70
     1
102
RTVSPropertyOp0
 70
     1
102
RTVSPropertyOp1
 70
     1
102
RTVSPropertyOp2
 70
     1
102
RTVSPropertyOp3
 70
     1
102
RTVSPropertyOp4
 70
     1
102
RTVSPropertyOp5
 70
     1
102
RTVSPropertyOp6
 70
     1
102
RTVSPropertyOp7
 70
     1
102
RTVSPropertyOp8
 70
     1
102
RTVSPropertyOp9
 70
     1
102
RTVSPropertyOp10
 70
     1
102
RTVSPropertyOp11
 70
     1
102
RTVSPropertyOp12
 70
     1
102
RTVSPropertyOp13
 70
     1
102
RTVSPropertyOp14
 70
     1
102
RTVSPropertyOp15
 70
     1
102
RTVSPropertyOp16
 70
     1
102
RTVSPropertyOp17
 70
     1
102
RTVSPropertyOp18
 70
     1
102
RTVSPropertyOp19
 70
     1
102
RTVSPropertyOp20
 70
     1
102
RTVSPropertyOp21
 70
     1
102
RTVSPropertyOp22
 70
     1
102
RTVSPropertyOp23
 70
     1
102
RTVSPropertyOp24
 70
     1
102
RTVSPropertyOp25
 70
     1
102
RTVSPropertyOp26
 70
     1
102
RTVSPropertyOp27
 70
     1
102
RTVSPropertyOp28
 70
     1
102
RTVSPropertyOp29
 70
     1
102
RTVSPropertyOp30
 70
     1
102
RTVSPropertyOp31
 70
     1
102
RTVSPropertyOp32
 70
     1
102
RTVSPropertyOp33
 70
     1
102
RTVSPropertyOp34
 70
     1
102
RTVSPropertyOp35
 70
     1
102
RTVSPropertyOp36
 70
     1
102
RTVSPropertyOp37
 70
     1
102
RTVSPropertyOp38
 70
     1
102
RTVSPropertyOp39
 70
     1
102
RTVSPropertyOp40
 70
     1
102
RTVSPropertyOp41
 70
     1
102
RTVSPropertyOp42
 70
     1
102
RTVSPropertyOp43
 70
     1
102
RTVSPropertyOp44
 70
     1
102
RTVSPropertyOp45
 70
     1
102
RTVSPropertyOp46
 70
     1
102
RTVSPropertyOp47
 70
     1
102
RTVSPropertyOp48
 70
     1
102
RTVSPropertyOp49
 70
     1
102
RTVSPropertyOp50
 70
     1
102
RTVSPropertyOp51
 70
     0
102
RTVSPropertyOp52
 70
     0
102
RTVSPropertyOp53
 70
     1
102
RTVSPropertyOp54
 70
     1
102
RTVSPropertyOp55
 70
     1
102
RTVSPropertyOp56
 70
     1
102
RTVSPropertyOp57
 70
     1
102
RTVSPropertyOp58
 70
     1
102
RTVSPropertyOp59
 70
     1
102
RTVSPropertyOp60
 70
     1
102
RTVSPropertyOp61
 70
     1
102
RTVSPropertyOp62
 70
     1
  0
XRECORD
  5
169
102
{ACAD_REACTORS
330
168
102
}
330
168
100
AcDbXrecord
280
     1
102
RTVSPost2010Prop28
280
     0
102
RTVSPost2010PropOp28
 70
     1
102
RTVSPost2010Prop29
280
     1
102
RTVSPost2010PropOp29
 70
     1
102
RTVSPost2010Prop30
280
     1
102
RTVSPost2010PropOp30
 70
     1
102
RTVSPost2010Prop31
280
     0
102
RTVSPost2010PropOp31
 70
     1
102
RTVSPost2010Prop32
280
     0
102
RTVSPost2010PropOp32
 70
     1
102
RTVSPost2010Prop33
280
     0
102
RTVSPost2010PropOp33
 70
     1
102
RTVSPost2010Prop34
280
     0
102
RTVSPost2010PropOp34
 70
     1
102
RTVSPost2010Prop35
280
     0
102
RTVSPost2010PropOp35
 70
     1
102
RTVSPost2010Prop36
280
     0
102
RTVSPost2010PropOp36
 70
     1
102
RTVSPost2010Prop37
 90
       50
102
RTVSPost2010PropOp37
 70
     1
102
RTVSPost2010Prop38
140
0.0
102
RTVSPost2010PropOp38
 70
     1
102
RTVSPost2010Prop39
140
1.0
102
RTVSPost2010PropOp39
 70
     1
102
RTVSPost2010Prop40
 90
        0
102
RTVSPost2010PropOp40
 70
     1
102
RTVSPost2010Prop41ColorIndex
 90
       18
102
RTVSPost2010Prop41ColorRGB
 90
        0
102
RTVSPost2010PropOp41
 70
     1
102
RTVSPost2010Prop42
 90
       50
102
RTVSPost2010PropOp42
 70
     1
102
RTVSPost2010Prop43
 90
        3
102
RTVSPost2010PropOp43
 70
     1
102
RTVSPost2010Prop44ColorIndex
 90
        5
102
RTVSPost2010Prop44ColorRGB
 90
      255
102
RTVSPost2010PropOp44
 70
     1
102
RTVSPost2010Prop45
280
     0
102
RTVSPost2010PropOp45
 70
     1
102
RTVSPost2010Prop46
 90
       50
102
RTVSPost2010PropOp46
 70
     1
102
RTVSPost2010Prop47
 90
       50
102
RTVSPost2010PropOp47
 70
     1
102
RTVSPost2010Prop48
 90
       50
102
RTVSPost2010PropOp48
 70
     1
102
RTVSPost2010Prop49
280
     0
102
RTVSPost2010PropOp49
 70
     1
102
RTVSPost2010Prop50
 90
       50
102
RTVSPost2010PropOp50
 70
     1
102
RTVSPost2010Prop51ColorIndex
 90
      256
102
RTVSPost2010Prop51ColorRGB
 90
-16777216
102
RTVSPost2010PropOp51
 70
     0
102
RTVSPost2010Prop52
140
1.0
102
RTVSPost2010PropOp52
 70
     0
102
RTVSPost2010Prop53
 90
        2
102
RTVSPost2010PropOp53
 70
     1
102
RTVSPost2010Prop54
  1
strokes_ogs.tif
102
RTVSPost2010PropOp54
 70
     1
102
RTVSPost2010Prop55
280
     0
102
RTVSPost2010PropOp55
 70
     1
102
RTVSPost2010Prop56
140
1.0
102
RTVSPost2010PropOp56
 70
     1
102
RTVSPost2010Prop57
140
1.0
102
RTVSPost2010PropOp57
 70
     1
102
RTVSPropertyOp0
 70
     1
102
RTVSPropertyOp1
 70
     1
102
RTVSPropertyOp2
 70
     1
102
RTVSPropertyOp3
 70
     1
102
RTVSPropertyOp4
 70
     1
102
RTVSPropertyOp5
 70
     1
102
RTVSPropertyOp6
 70
     1
102
RTVSPropertyOp7
 70
     1
102
RTVSPropertyOp8
 70
     1
102
RTVSPropertyOp9
 70
     1
102
RTVSPropertyOp10
 70
     1
102
RTVSPropertyOp11
 70
     1
102
RTVSPropertyOp12
 70
     1
102
RTVSPropertyOp13
 70
     1
102
RTVSPropertyOp14
 70
     1
102
RTVSPropertyOp15
 70
     1
102
RTVSPropertyOp16
 70
     1
102
RTVSPropertyOp17
 70
     1
102
RTVSPropertyOp18
 70
     1
102
RTVSPropertyOp19
 70
     1
102
RTVSPropertyOp20
 70
     1
102
RTVSPropertyOp21
 70
     1
102
RTVSPropertyOp22
 70
     1
102
RTVSPropertyOp23
 70
     1
102
RTVSPropertyOp24
 70
     1
102
RTVSPropertyOp25
 70
     1
102
RTVSPropertyOp26
 70
     1
102
RTVSPropertyOp27
 70
     1
102
RTVSPropertyOp28
 70
     1
102
RTVSPropertyOp29
 70
     1
102
RTVSPropertyOp30
 70
     1
102
RTVSPropertyOp31
 70
     1
102
RTVSPropertyOp32
 70
     1
102
RTVSPropertyOp33
 70
     1
102
RTVSPropertyOp34
 70
     1
102
RTVSPropertyOp35
 70
     1
102
RTVSPropertyOp36
 70
     1
102
RTVSPropertyOp37
 70
     1
102
RTVSPropertyOp38
 70
     1
102
RTVSPropertyOp39
 70
     1
102
RTVSPropertyOp40
 70
     1
102
RTVSPropertyOp41
 70
     1
102
RTVSPropertyOp42
 70
     1
102
RTVSPropertyOp43
 70
     1
102
RTVSPropertyOp44
 70
     1
102
RTVSPropertyOp45
 70
     1
102
RTVSPropertyOp46
 70
     1
102
RTVSPropertyOp47
 70
     1
102
RTVSPropertyOp48
 70
     1
102
RTVSPropertyOp49
 70
     1
102
RTVSPropertyOp50
 70
     1
102
RTVSPropertyOp51
 70
     0
102
RTVSPropertyOp52
 70
     0
102
RTVSPropertyOp53
 70
     1
102
RTVSPropertyOp54
 70
     1
102
RTVSPropertyOp55
 70
     1
102
RTVSPropertyOp56
 70
     1
102
RTVSPropertyOp57
 70
     1
102
RTVSPropertyOp58
 70
     1
102
RTVSPropertyOp59
 70
     1
102
RTVSPropertyOp60
 70
     1
102
RTVSPropertyOp61
 70
     1
102
RTVSPropertyOp62
 70
     1
  0
XRECORD
  5
171
102
{ACAD_REACTORS
330
170
102
}
330
170
100
AcDbXrecord
280
     1
102
RTVSPost2010Prop28
280
     0
102
RTVSPost2010PropOp28
 70
     1
102
RTVSPost2010Prop29
280
     1
102
RTVSPost2010PropOp29
 70
     1
102
RTVSPost2010Prop30
280
     1
102
RTVSPost2010PropOp30
 70
     1
102
RTVSPost2010Prop31
280
     0
102
RTVSPost2010PropOp31
 70
     1
102
RTVSPost2010Prop32
280
     0
102
RTVSPost2010PropOp32
 70
     1
102
RTVSPost2010Prop33
280
     0
102
RTVSPost2010PropOp33
 70
     1
102
RTVSPost2010Prop34
280
     0
102
RTVSPost2010PropOp34
 70
     1
102
RTVSPost2010Prop35
280
     0
102
RTVSPost2010PropOp35
 70
     1
102
RTVSPost2010Prop36
280
     0
102
RTVSPost2010PropOp36
 70
     1
102
RTVSPost2010Prop37
 90
       50
102
RTVSPost2010PropOp37
 70
     1
102
RTVSPost2010Prop38
140
0.0
102
RTVSPost2010PropOp38
 70
     1
102
RTVSPost2010Prop39
140
1.0
102
RTVSPost2010PropOp39
 70
     1
102
RTVSPost2010Prop40
 90
        0
102
RTVSPost2010PropOp40
 70
     1
102
RTVSPost2010Prop41ColorIndex
 90
       18
102
RTVSPost2010Prop41ColorRGB
 90
        0
102
RTVSPost2010PropOp41
 70
     1
102
RTVSPost2010Prop42
 90
       50
102
RTVSPost2010PropOp42
 70
     1
102
RTVSPost2010Prop43
 90
        3
102
RTVSPost2010PropOp43
 70
     1
102
RTVSPost2010Prop44ColorIndex
 90
        5
102
RTVSPost2010Prop44ColorRGB
 90
      255
102
RTVSPost2010PropOp44
 70
     1
102
RTVSPost2010Prop45
280
     0
102
RTVSPost2010PropOp45
 70
     1
102
RTVSPost2010Prop46
 90
       50
102
RTVSPost2010PropOp46
 70
     1
102
RTVSPost2010Prop47
 90
       50
102
RTVSPost2010PropOp47
 70
     1
102
RTVSPost2010Prop48
 90
       50
102
RTVSPost2010PropOp48
 70
     1
102
RTVSPost2010Prop49
280
     0
102
RTVSPost2010PropOp49
 70
     1
102
RTVSPost2010Prop50
 90
       50
102
RTVSPost2010PropOp50
 70
     1
102
RTVSPost2010Prop51ColorIndex
 90
      256
102
RTVSPost2010Prop51ColorRGB
 90
-16777216
102
RTVSPost2010PropOp51
 70
     0
102
RTVSPost2010Prop52
140
1.0
102
RTVSPost2010PropOp52
 70
     0
102
RTVSPost2010Prop53
 90
        2
102
RTVSPost2010PropOp53
 70
     1
102
RTVSPost2010Prop54
  1
strokes_ogs.tif
102
RTVSPost2010PropOp54
 70
     1
102
RTVSPost2010Prop55
280
     0
102
RTVSPost2010PropOp55
 70
     1
102
RTVSPost2010Prop56
140
1.0
102
RTVSPost2010PropOp56
 70
     1
102
RTVSPost2010Prop57
140
1.0
102
RTVSPost2010PropOp57
 70
     1
102
RTVSPropertyOp0
 70
     1
102
RTVSPropertyOp1
 70
     1
102
RTVSPropertyOp2
 70
     1
102
RTVSPropertyOp3
 70
     1
102
RTVSPropertyOp4
 70
     1
102
RTVSPropertyOp5
 70
     1
102
RTVSPropertyOp6
 70
     1
102
RTVSPropertyOp7
 70
     1
102
RTVSPropertyOp8
 70
     1
102
RTVSPropertyOp9
 70
     1
102
RTVSPropertyOp10
 70
     1
102
RTVSPropertyOp11
 70
     1
102
RTVSPropertyOp12
 70
     1
102
RTVSPropertyOp13
 70
     1
102
RTVSPropertyOp14
 70
     1
102
RTVSPropertyOp15
 70
     1
102
RTVSPropertyOp16
 70
     1
102
RTVSPropertyOp17
 70
     1
102
RTVSPropertyOp18
 70
     1
102
RTVSPropertyOp19
 70
     1
102
RTVSPropertyOp20
 70
     1
102
RTVSPropertyOp21
 70
     1
102
RTVSPropertyOp22
 70
     1
102
RTVSPropertyOp23
 70
     1
102
RTVSPropertyOp24
 70
     1
102
RTVSPropertyOp25
 70
     1
102
RTVSPropertyOp26
 70
     1
102
RTVSPropertyOp27
 70
     1
102
RTVSPropertyOp28
 70
     1
102
RTVSPropertyOp29
 70
     1
102
RTVSPropertyOp30
 70
     1
102
RTVSPropertyOp31
 70
     1
102
RTVSPropertyOp32
 70
     1
102
RTVSPropertyOp33
 70
     1
102
RTVSPropertyOp34
 70
     1
102
RTVSPropertyOp35
 70
     1
102
RTVSPropertyOp36
 70
     1
102
RTVSPropertyOp37
 70
     1
102
RTVSPropertyOp38
 70
     1
102
RTVSPropertyOp39
 70
     1
102
RTVSPropertyOp40
 70
     1
102
RTVSPropertyOp41
 70
     1
102
RTVSPropertyOp42
 70
     1
102
RTVSPropertyOp43
 70
     1
102
RTVSPropertyOp44
 70
     1
102
RTVSPropertyOp45
 70
     1
102
RTVSPropertyOp46
 70
     1
102
RTVSPropertyOp47
 70
     1
102
RTVSPropertyOp48
 70
     1
102
RTVSPropertyOp49
 70
     1
102
RTVSPropertyOp50
 70
     1
102
RTVSPropertyOp51
 70
     0
102
RTVSPropertyOp52
 70
     0
102
RTVSPropertyOp53
 70
     1
102
RTVSPropertyOp54
 70
     1
102
RTVSPropertyOp55
 70
     1
102
RTVSPropertyOp56
 70
     1
102
RTVSPropertyOp57
 70
     1
102
RTVSPropertyOp58
 70
     1
102
RTVSPropertyOp59
 70
     1
102
RTVSPropertyOp60
 70
     1
102
RTVSPropertyOp61
 70
     1
102
RTVSPropertyOp62
 70
     1
  0
XRECORD
  5
163
102
{ACAD_REACTORS
330
162
102
}
330
162
100
AcDbXrecord
280
     1
102
RTVSPost2010Prop28
280
     0
102
RTVSPost2010PropOp28
 70
     1
102
RTVSPost2010Prop29
280
     1
102
RTVSPost2010PropOp29
 70
     1
102
RTVSPost2010Prop30
280
     1
102
RTVSPost2010PropOp30
 70
     1
102
RTVSPost2010Prop31
280
     0
102
RTVSPost2010PropOp31
 70
     1
102
RTVSPost2010Prop32
280
     0
102
RTVSPost2010PropOp32
 70
     1
102
RTVSPost2010Prop33
280
     0
102
RTVSPost2010PropOp33
 70
     1
102
RTVSPost2010Prop34
280
     0
102
RTVSPost2010PropOp34
 70
     1
102
RTVSPost2010Prop35
280
     0
102
RTVSPost2010PropOp35
 70
     1
102
RTVSPost2010Prop36
280
     0
102
RTVSPost2010PropOp36
 70
     1
102
RTVSPost2010Prop37
 90
       50
102
RTVSPost2010PropOp37
 70
     1
102
RTVSPost2010Prop38
140
0.0
102
RTVSPost2010PropOp38
 70
     1
102
RTVSPost2010Prop39
140
1.0
102
RTVSPost2010PropOp39
 70
     1
102
RTVSPost2010Prop40
 90
        0
102
RTVSPost2010PropOp40
 70
     1
102
RTVSPost2010Prop41ColorIndex
 90
       18
102
RTVSPost2010Prop41ColorRGB
 90
        0
102
RTVSPost2010PropOp41
 70
     1
102
RTVSPost2010Prop42
 90
       50
102
RTVSPost2010PropOp42
 70
     1
102
RTVSPost2010Prop43
 90
        3
102
RTVSPost2010PropOp43
 70
     1
102
RTVSPost2010Prop44ColorIndex
 90
        5
102
RTVSPost2010Prop44ColorRGB
 90
      255
102
RTVSPost2010PropOp44
 70
     1
102
RTVSPost2010Prop45
280
     0
102
RTVSPost2010PropOp45
 70
     1
102
RTVSPost2010Prop46
 90
       50
102
RTVSPost2010PropOp46
 70
     1
102
RTVSPost2010Prop47
 90
       50
102
RTVSPost2010PropOp47
 70
     1
102
RTVSPost2010Prop48
 90
       50
102
RTVSPost2010PropOp48
 70
     1
102
RTVSPost2010Prop49
280
     0
102
RTVSPost2010PropOp49
 70
     1
102
RTVSPost2010Prop50
 90
       50
102
RTVSPost2010PropOp50
 70
     1
102
RTVSPost2010Prop51ColorIndex
 90
      256
102
RTVSPost2010Prop51ColorRGB
 90
-16777216
102
RTVSPost2010PropOp51
 70
     0
102
RTVSPost2010Prop52
140
1.0
102
RTVSPost2010PropOp52
 70
     0
102
RTVSPost2010Prop53
 90
        2
102
RTVSPost2010PropOp53
 70
     1
102
RTVSPost2010Prop54
  1
strokes_ogs.tif
102
RTVSPost2010PropOp54
 70
     1
102
RTVSPost2010Prop55
280
     0
102
RTVSPost2010PropOp55
 70
     1
102
RTVSPost2010Prop56
140
1.0
102
RTVSPost2010PropOp56
 70
     1
102
RTVSPost2010Prop57
140
1.0
102
RTVSPost2010PropOp57
 70
     1
102
RTVSPropertyOp0
 70
     1
102
RTVSPropertyOp1
 70
     1
102
RTVSPropertyOp2
 70
     1
102
RTVSPropertyOp3
 70
     1
102
RTVSPropertyOp4
 70
     1
102
RTVSPropertyOp5
 70
     1
102
RTVSPropertyOp6
 70
     1
102
RTVSPropertyOp7
 70
     1
102
RTVSPropertyOp8
 70
     1
102
RTVSPropertyOp9
 70
     1
102
RTVSPropertyOp10
 70
     1
102
RTVSPropertyOp11
 70
     1
102
RTVSPropertyOp12
 70
     1
102
RTVSPropertyOp13
 70
     1
102
RTVSPropertyOp14
 70
     1
102
RTVSPropertyOp15
 70
     1
102
RTVSPropertyOp16
 70
     1
102
RTVSPropertyOp17
 70
     1
102
RTVSPropertyOp18
 70
     1
102
RTVSPropertyOp19
 70
     1
102
RTVSPropertyOp20
 70
     1
102
RTVSPropertyOp21
 70
     1
102
RTVSPropertyOp22
 70
     1
102
RTVSPropertyOp23
 70
     1
102
RTVSPropertyOp24
 70
     1
102
RTVSPropertyOp25
 70
     1
102
RTVSPropertyOp26
 70
     1
102
RTVSPropertyOp27
 70
     1
102
RTVSPropertyOp28
 70
     1
102
RTVSPropertyOp29
 70
     1
102
RTVSPropertyOp30
 70
     1
102
RTVSPropertyOp31
 70
     1
102
RTVSPropertyOp32
 70
     1
102
RTVSPropertyOp33
 70
     1
102
RTVSPropertyOp34
 70
     1
102
RTVSPropertyOp35
 70
     1
102
RTVSPropertyOp36
 70
     1
102
RTVSPropertyOp37
 70
     1
102
RTVSPropertyOp38
 70
     1
102
RTVSPropertyOp39
 70
     1
102
RTVSPropertyOp40
 70
     1
102
RTVSPropertyOp41
 70
     1
102
RTVSPropertyOp42
 70
     1
102
RTVSPropertyOp43
 70
     1
102
RTVSPropertyOp44
 70
     1
102
RTVSPropertyOp45
 70
     1
102
RTVSPropertyOp46
 70
     1
102
RTVSPropertyOp47
 70
     1
102
RTVSPropertyOp48
 70
     1
102
RTVSPropertyOp49
 70
     1
102
RTVSPropertyOp50
 70
     1
102
RTVSPropertyOp51
 70
     0
102
RTVSPropertyOp52
 70
     0
102
RTVSPropertyOp53
 70
     1
102
RTVSPropertyOp54
 70
     1
102
RTVSPropertyOp55
 70
     1
102
RTVSPropertyOp56
 70
     1
102
RTVSPropertyOp57
 70
     1
102
RTVSPropertyOp58
 70
     1
102
RTVSPropertyOp59
 70
     1
102
RTVSPropertyOp60
 70
     1
102
RTVSPropertyOp61
 70
     1
102
RTVSPropertyOp62
 70
     1
  0
XRECORD
  5
167
102
{ACAD_REACTORS
330
166
102
}
330
166
100
AcDbXrecord
280
     1
102
RTVSPost2010Prop28
280
     0
102
RTVSPost2010PropOp28
 70
     1
102
RTVSPost2010Prop29
280
     1
102
RTVSPost2010PropOp29
 70
     1
102
RTVSPost2010Prop30
280
     1
102
RTVSPost2010PropOp30
 70
     1
102
RTVSPost2010Prop31
280
     0
102
RTVSPost2010PropOp31
 70
     1
102
RTVSPost2010Prop32
280
     0
102
RTVSPost2010PropOp32
 70
     1
102
RTVSPost2010Prop33
280
     0
102
RTVSPost2010PropOp33
 70
     1
102
RTVSPost2010Prop34
280
     0
102
RTVSPost2010PropOp34
 70
     1
102
RTVSPost2010Prop35
280
     0
102
RTVSPost2010PropOp35
 70
     1
102
RTVSPost2010Prop36
280
     0
102
RTVSPost2010PropOp36
 70
     1
102
RTVSPost2010Prop37
 90
       50
102
RTVSPost2010PropOp37
 70
     1
102
RTVSPost2010Prop38
140
0.0
102
RTVSPost2010PropOp38
 70
     1
102
RTVSPost2010Prop39
140
1.0
102
RTVSPost2010PropOp39
 70
     1
102
RTVSPost2010Prop40
 90
        0
102
RTVSPost2010PropOp40
 70
     1
102
RTVSPost2010Prop41ColorIndex
 90
       18
102
RTVSPost2010Prop41ColorRGB
 90
        0
102
RTVSPost2010PropOp41
 70
     1
102
RTVSPost2010Prop42
 90
       50
102
RTVSPost2010PropOp42
 70
     1
102
RTVSPost2010Prop43
 90
        3
102
RTVSPost2010PropOp43
 70
     1
102
RTVSPost2010Prop44ColorIndex
 90
        5
102
RTVSPost2010Prop44ColorRGB
 90
      255
102
RTVSPost2010PropOp44
 70
     1
102
RTVSPost2010Prop45
280
     0
102
RTVSPost2010PropOp45
 70
     1
102
RTVSPost2010Prop46
 90
       50
102
RTVSPost2010PropOp46
 70
     1
102
RTVSPost2010Prop47
 90
       50
102
RTVSPost2010PropOp47
 70
     1
102
RTVSPost2010Prop48
 90
       50
102
RTVSPost2010PropOp48
 70
     1
102
RTVSPost2010Prop49
280
     0
102
RTVSPost2010PropOp49
 70
     1
102
RTVSPost2010Prop50
 90
       50
102
RTVSPost2010PropOp50
 70
     1
102
RTVSPost2010Prop51ColorIndex
 90
      256
102
RTVSPost2010Prop51ColorRGB
 90
-16777216
102
RTVSPost2010PropOp51
 70
     0
102
RTVSPost2010Prop52
140
1.0
102
RTVSPost2010PropOp52
 70
     0
102
RTVSPost2010Prop53
 90
        2
102
RTVSPost2010PropOp53
 70
     1
102
RTVSPost2010Prop54
  1
strokes_ogs.tif
102
RTVSPost2010PropOp54
 70
     1
102
RTVSPost2010Prop55
280
     0
102
RTVSPost2010PropOp55
 70
     1
102
RTVSPost2010Prop56
140
1.0
102
RTVSPost2010PropOp56
 70
     1
102
RTVSPost2010Prop57
140
1.0
102
RTVSPost2010PropOp57
 70
     1
102
RTVSPropertyOp0
 70
     1
102
RTVSPropertyOp1
 70
     1
102
RTVSPropertyOp2
 70
     1
102
RTVSPropertyOp3
 70
     1
102
RTVSPropertyOp4
 70
     1
102
RTVSPropertyOp5
 70
     1
102
RTVSPropertyOp6
 70
     1
102
RTVSPropertyOp7
 70
     1
102
RTVSPropertyOp8
 70
     1
102
RTVSPropertyOp9
 70
     1
102
RTVSPropertyOp10
 70
     1
102
RTVSPropertyOp11
 70
     1
102
RTVSPropertyOp12
 70
     1
102
RTVSPropertyOp13
 70
     1
102
RTVSPropertyOp14
 70
     1
102
RTVSPropertyOp15
 70
     1
102
RTVSPropertyOp16
 70
     1
102
RTVSPropertyOp17
 70
     1
102
RTVSPropertyOp18
 70
     1
102
RTVSPropertyOp19
 70
     1
102
RTVSPropertyOp20
 70
     1
102
RTVSPropertyOp21
 70
     1
102
RTVSPropertyOp22
 70
     1
102
RTVSPropertyOp23
 70
     1
102
RTVSPropertyOp24
 70
     1
102
RTVSPropertyOp25
 70
     1
102
RTVSPropertyOp26
 70
     1
102
RTVSPropertyOp27
 70
     1
102
RTVSPropertyOp28
 70
     1
102
RTVSPropertyOp29
 70
     1
102
RTVSPropertyOp30
 70
     1
102
RTVSPropertyOp31
 70
     1
102
RTVSPropertyOp32
 70
     1
102
RTVSPropertyOp33
 70
     1
102
RTVSPropertyOp34
 70
     1
102
RTVSPropertyOp35
 70
     1
102
RTVSPropertyOp36
 70
     1
102
RTVSPropertyOp37
 70
     1
102
RTVSPropertyOp38
 70
     1
102
RTVSPropertyOp39
 70
     1
102
RTVSPropertyOp40
 70
     1
102
RTVSPropertyOp41
 70
     1
102
RTVSPropertyOp42
 70
     1
102
RTVSPropertyOp43
 70
     1
102
RTVSPropertyOp44
 70
     1
102
RTVSPropertyOp45
 70
     1
102
RTVSPropertyOp46
 70
     1
102
RTVSPropertyOp47
 70
     1
102
RTVSPropertyOp48
 70
     1
102
RTVSPropertyOp49
 70
     1
102
RTVSPropertyOp50
 70
     1
102
RTVSPropertyOp51
 70
     0
102
RTVSPropertyOp52
 70
     0
102
RTVSPropertyOp53
 70
     1
102
RTVSPropertyOp54
 70
     1
102
RTVSPropertyOp55
 70
     1
102
RTVSPropertyOp56
 70
     1
102
RTVSPropertyOp57
 70
     1
102
RTVSPropertyOp58
 70
     1
102
RTVSPropertyOp59
 70
     1
102
RTVSPropertyOp60
 70
     1
102
RTVSPropertyOp61
 70
     1
102
RTVSPropertyOp62
 70
     1
  0
XRECORD
  5
181
102
{ACAD_REACTORS
330
180
102
}
330
180
100
AcDbXrecord
280
     1
102
RTVSPost2010Prop28
280
     0
102
RTVSPost2010PropOp28
 70
     0
102
RTVSPost2010Prop29
280
     1
102
RTVSPost2010PropOp29
 70
     0
102
RTVSPost2010Prop30
280
     1
102
RTVSPost2010PropOp30
 70
     0
102
RTVSPost2010Prop31
280
     0
102
RTVSPost2010PropOp31
 70
     0
102
RTVSPost2010Prop32
280
     0
102
RTVSPost2010PropOp32
 70
     0
102
RTVSPost2010Prop33
280
     0
102
RTVSPost2010PropOp33
 70
     0
102
RTVSPost2010Prop34
280
     0
102
RTVSPost2010PropOp34
 70
     0
102
RTVSPost2010Prop35
280
     0
102
RTVSPost2010PropOp35
 70
     0
102
RTVSPost2010Prop36
280
     0
102
RTVSPost2010PropOp36
 70
     0
102
RTVSPost2010Prop37
 90
       50
102
RTVSPost2010PropOp37
 70
     0
102
RTVSPost2010Prop38
140
0.0
102
RTVSPost2010PropOp38
 70
     0
102
RTVSPost2010Prop39
140
1.0
102
RTVSPost2010PropOp39
 70
     0
102
RTVSPost2010Prop40
 90
        0
102
RTVSPost2010PropOp40
 70
     0
102
RTVSPost2010Prop41ColorIndex
 90
       18
102
RTVSPost2010Prop41ColorRGB
 90
        0
102
RTVSPost2010PropOp41
 70
     0
102
RTVSPost2010Prop42
 90
       50
102
RTVSPost2010PropOp42
 70
     0
102
RTVSPost2010Prop43
 90
        3
102
RTVSPost2010PropOp43
 70
     0
102
RTVSPost2010Prop44ColorIndex
 90
        5
102
RTVSPost2010Prop44ColorRGB
 90
      255
102
RTVSPost2010PropOp44
 70
     0
102
RTVSPost2010Prop45
280
     0
102
RTVSPost2010PropOp45
 70
     0
102
RTVSPost2010Prop46
 90
       50
102
RTVSPost2010PropOp46
 70
     0
102
RTVSPost2010Prop47
 90
       50
102
RTVSPost2010PropOp47
 70
     0
102
RTVSPost2010Prop48
 90
       50
102
RTVSPost2010PropOp48
 70
     0
102
RTVSPost2010Prop49
280
     0
102
RTVSPost2010PropOp49
 70
     0
102
RTVSPost2010Prop50
 90
       50
102
RTVSPost2010PropOp50
 70
     0
102
RTVSPost2010Prop51ColorIndex
 90
      256
102
RTVSPost2010Prop51ColorRGB
 90
-16777216
102
RTVSPost2010PropOp51
 70
     0
102
RTVSPost2010Prop52
140
1.0
102
RTVSPost2010PropOp52
 70
     0
102
RTVSPost2010Prop53
 90
        2
102
RTVSPost2010PropOp53
 70
     0
102
RTVSPost2010Prop54
  1
strokes_ogs.tif
102
RTVSPost2010PropOp54
 70
     0
102
RTVSPost2010Prop55
280
     0
102
RTVSPost2010PropOp55
 70
     0
102
RTVSPost2010Prop56
140
1.0
102
RTVSPost2010PropOp56
 70
     0
102
RTVSPost2010Prop57
140
1.0
102
RTVSPost2010PropOp57
 70
     0
102
RTVSPropertyOp0
 70
     0
102
RTVSPropertyOp1
 70
     0
102
RTVSPropertyOp2
 70
     0
102
RTVSPropertyOp3
 70
     0
102
RTVSPropertyOp4
 70
     0
102
RTVSPropertyOp5
 70
     0
102
RTVSPropertyOp6
 70
     0
102
RTVSPropertyOp7
 70
     0
102
RTVSPropertyOp8
 70
     0
102
RTVSPropertyOp9
 70
     0
102
RTVSPropertyOp10
 70
     0
102
RTVSPropertyOp11
 70
     0
102
RTVSPropertyOp12
 70
     0
102
RTVSPropertyOp13
 70
     0
102
RTVSPropertyOp14
 70
     2
102
RTVSPropertyOp15
 70
     0
102
RTVSPropertyOp16
 70
     0
102
RTVSPropertyOp17
 70
     0
102
RTVSPropertyOp18
 70
     0
102
RTVSPropertyOp19
 70
     0
102
RTVSPropertyOp20
 70
     0
102
RTVSPropertyOp21
 70
     0
102
RTVSPropertyOp22
 70
     0
102
RTVSPropertyOp23
 70
     0
102
RTVSPropertyOp24
 70
     0
102
RTVSPropertyOp25
 70
     0
102
RTVSPropertyOp26
 70
     0
102
RTVSPropertyOp27
 70
     0
102
RTVSPropertyOp28
 70
     0
102
RTVSPropertyOp29
 70
     0
102
RTVSPropertyOp30
 70
     0
102
RTVSPropertyOp31
 70
     0
102
RTVSPropertyOp32
 70
     0
102
RTVSPropertyOp33
 70
     0
102
RTVSPropertyOp34
 70
     0
102
RTVSPropertyOp35
 70
     0
102
RTVSPropertyOp36
 70
     0
102
RTVSPropertyOp37
 70
     0
102
RTVSPropertyOp38
 70
     0
102
RTVSPropertyOp39
 70
     0
102
RTVSPropertyOp40
 70
     0
102
RTVSPropertyOp41
 70
     0
102
RTVSPropertyOp42
 70
     0
102
RTVSPropertyOp43
 70
     0
102
RTVSPropertyOp44
 70
     0
102
RTVSPropertyOp45
 70
     0
102
RTVSPropertyOp46
 70
     0
102
RTVSPropertyOp47
 70
     0
102
RTVSPropertyOp48
 70
     0
102
RTVSPropertyOp49
 70
     0
102
RTVSPropertyOp50
 70
     0
102
RTVSPropertyOp51
 70
     0
102
RTVSPropertyOp52
 70
     0
102
RTVSPropertyOp53
 70
     0
102
RTVSPropertyOp54
 70
     0
102
RTVSPropertyOp55
 70
     0
102
RTVSPropertyOp56
 70
     0
102
RTVSPropertyOp57
 70
     0
102
RTVSPropertyOp58
 70
     0
102
RTVSPropertyOp59
 70
     0
102
RTVSPropertyOp60
 70
     0
102
RTVSPropertyOp61
 70
     0
102
RTVSPropertyOp62
 70
     0
  0
XRECORD
  5
16F
102
{ACAD_REACTORS
330
16E
102
}
330
16E
100
AcDbXrecord
280
     1
102
RTVSPost2010Prop28
280
     0
102
RTVSPost2010PropOp28
 70
     1
102
RTVSPost2010Prop29
280
     1
102
RTVSPost2010PropOp29
 70
     1
102
RTVSPost2010Prop30
280
     1
102
RTVSPost2010PropOp30
 70
     1
102
RTVSPost2010Prop31
280
     0
102
RTVSPost2010PropOp31
 70
     1
102
RTVSPost2010Prop32
280
     0
102
RTVSPost2010PropOp32
 70
     1
102
RTVSPost2010Prop33
280
     0
102
RTVSPost2010PropOp33
 70
     1
102
RTVSPost2010Prop34
280
     0
102
RTVSPost2010PropOp34
 70
     1
102
RTVSPost2010Prop35
280
     0
102
RTVSPost2010PropOp35
 70
     1
102
RTVSPost2010Prop36
280
     0
102
RTVSPost2010PropOp36
 70
     1
102
RTVSPost2010Prop37
 90
       50
102
RTVSPost2010PropOp37
 70
     1
102
RTVSPost2010Prop38
140
0.0
102
RTVSPost2010PropOp38
 70
     1
102
RTVSPost2010Prop39
140
1.0
102
RTVSPost2010PropOp39
 70
     1
102
RTVSPost2010Prop40
 90
        0
102
RTVSPost2010PropOp40
 70
     1
102
RTVSPost2010Prop41ColorIndex
 90
       18
102
RTVSPost2010Prop41ColorRGB
 90
        0
102
RTVSPost2010PropOp41
 70
     1
102
RTVSPost2010Prop42
 90
       50
102
RTVSPost2010PropOp42
 70
     1
102
RTVSPost2010Prop43
 90
        3
102
RTVSPost2010PropOp43
 70
     1
102
RTVSPost2010Prop44ColorIndex
 90
        5
102
RTVSPost2010Prop44ColorRGB
 90
      255
102
RTVSPost2010PropOp44
 70
     1
102
RTVSPost2010Prop45
280
     0
102
RTVSPost2010PropOp45
 70
     1
102
RTVSPost2010Prop46
 90
       50
102
RTVSPost2010PropOp46
 70
     1
102
RTVSPost2010Prop47
 90
       50
102
RTVSPost2010PropOp47
 70
     1
102
RTVSPost2010Prop48
 90
       50
102
RTVSPost2010PropOp48
 70
     1
102
RTVSPost2010Prop49
280
     0
102
RTVSPost2010PropOp49
 70
     1
102
RTVSPost2010Prop50
 90
       50
102
RTVSPost2010PropOp50
 70
     1
102
RTVSPost2010Prop51ColorIndex
 90
      256
102
RTVSPost2010Prop51ColorRGB
 90
-16777216
102
RTVSPost2010PropOp51
 70
     0
102
RTVSPost2010Prop52
140
1.0
102
RTVSPost2010PropOp52
 70
     0
102
RTVSPost2010Prop53
 90
        2
102
RTVSPost2010PropOp53
 70
     1
102
RTVSPost2010Prop54
  1
strokes_ogs.tif
102
RTVSPost2010PropOp54
 70
     1
102
RTVSPost2010Prop55
280
     0
102
RTVSPost2010PropOp55
 70
     1
102
RTVSPost2010Prop56
140
1.0
102
RTVSPost2010PropOp56
 70
     1
102
RTVSPost2010Prop57
140
1.0
102
RTVSPost2010PropOp57
 70
     1
102
RTVSPropertyOp0
 70
     1
102
RTVSPropertyOp1
 70
     1
102
RTVSPropertyOp2
 70
     1
102
RTVSPropertyOp3
 70
     1
102
RTVSPropertyOp4
 70
     1
102
RTVSPropertyOp5
 70
     1
102
RTVSPropertyOp6
 70
     1
102
RTVSPropertyOp7
 70
     1
102
RTVSPropertyOp8
 70
     1
102
RTVSPropertyOp9
 70
     1
102
RTVSPropertyOp10
 70
     1
102
RTVSPropertyOp11
 70
     1
102
RTVSPropertyOp12
 70
     1
102
RTVSPropertyOp13
 70
     1
102
RTVSPropertyOp14
 70
     1
102
RTVSPropertyOp15
 70
     1
102
RTVSPropertyOp16
 70
     1
102
RTVSPropertyOp17
 70
     1
102
RTVSPropertyOp18
 70
     1
102
RTVSPropertyOp19
 70
     1
102
RTVSPropertyOp20
 70
     1
102
RTVSPropertyOp21
 70
     1
102
RTVSPropertyOp22
 70
     1
102
RTVSPropertyOp23
 70
     1
102
RTVSPropertyOp24
 70
     1
102
RTVSPropertyOp25
 70
     1
102
RTVSPropertyOp26
 70
     1
102
RTVSPropertyOp27
 70
     1
102
RTVSPropertyOp28
 70
     1
102
RTVSPropertyOp29
 70
     1
102
RTVSPropertyOp30
 70
     1
102
RTVSPropertyOp31
 70
     1
102
RTVSPropertyOp32
 70
     1
102
RTVSPropertyOp33
 70
     1
102
RTVSPropertyOp34
 70
     1
102
RTVSPropertyOp35
 70
     1
102
RTVSPropertyOp36
 70
     1
102
RTVSPropertyOp37
 70
     1
102
RTVSPropertyOp38
 70
     1
102
RTVSPropertyOp39
 70
     1
102
RTVSPropertyOp40
 70
     1
102
RTVSPropertyOp41
 70
     1
102
RTVSPropertyOp42
 70
     1
102
RTVSPropertyOp43
 70
     1
102
RTVSPropertyOp44
 70
     1
102
RTVSPropertyOp45
 70
     1
102
RTVSPropertyOp46
 70
     1
102
RTVSPropertyOp47
 70
     1
102
RTVSPropertyOp48
 70
     1
102
RTVSPropertyOp49
 70
     1
102
RTVSPropertyOp50
 70
     1
102
RTVSPropertyOp51
 70
     0
102
RTVSPropertyOp52
 70
     0
102
RTVSPropertyOp53
 70
     1
102
RTVSPropertyOp54
 70
     1
102
RTVSPropertyOp55
 70
     1
102
RTVSPropertyOp56
 70
     1
102
RTVSPropertyOp57
 70
     1
102
RTVSPropertyOp58
 70
     1
102
RTVSPropertyOp59
 70
     1
102
RTVSPropertyOp60
 70
     1
102
RTVSPropertyOp61
 70
     1
102
RTVSPropertyOp62
 70
     1
  0
XRECORD
  5
153
102
{ACAD_REACTORS
330
152
102
}
330
152
100
AcDbXrecord
280
     1
102
RTVSPost2010Prop28
280
     0
102
RTVSPost2010PropOp28
 70
     1
102
RTVSPost2010Prop29
280
     1
102
RTVSPost2010PropOp29
 70
     1
102
RTVSPost2010Prop30
280
     1
102
RTVSPost2010PropOp30
 70
     1
102
RTVSPost2010Prop31
280
     0
102
RTVSPost2010PropOp31
 70
     1
102
RTVSPost2010Prop32
280
     0
102
RTVSPost2010PropOp32
 70
     1
102
RTVSPost2010Prop33
280
     0
102
RTVSPost2010PropOp33
 70
     1
102
RTVSPost2010Prop34
280
     0
102
RTVSPost2010PropOp34
 70
     1
102
RTVSPost2010Prop35
280
     0
102
RTVSPost2010PropOp35
 70
     1
102
RTVSPost2010Prop36
280
     0
102
RTVSPost2010PropOp36
 70
     1
102
RTVSPost2010Prop37
 90
       50
102
RTVSPost2010PropOp37
 70
     1
102
RTVSPost2010Prop38
140
0.0
102
RTVSPost2010PropOp38
 70
     1
102
RTVSPost2010Prop39
140
1.0
102
RTVSPost2010PropOp39
 70
     1
102
RTVSPost2010Prop40
 90
        0
102
RTVSPost2010PropOp40
 70
     1
102
RTVSPost2010Prop41ColorIndex
 90
       18
102
RTVSPost2010Prop41ColorRGB
 90
        0
102
RTVSPost2010PropOp41
 70
     1
102
RTVSPost2010Prop42
 90
       50
102
RTVSPost2010PropOp42
 70
     1
102
RTVSPost2010Prop43
 90
        3
102
RTVSPost2010PropOp43
 70
     1
102
RTVSPost2010Prop44ColorIndex
 90
        5
102
RTVSPost2010Prop44ColorRGB
 90
      255
102
RTVSPost2010PropOp44
 70
     1
102
RTVSPost2010Prop45
280
     0
102
RTVSPost2010PropOp45
 70
     1
102
RTVSPost2010Prop46
 90
       50
102
RTVSPost2010PropOp46
 70
     1
102
RTVSPost2010Prop47
 90
       50
102
RTVSPost2010PropOp47
 70
     1
102
RTVSPost2010Prop48
 90
       50
102
RTVSPost2010PropOp48
 70
     1
102
RTVSPost2010Prop49
280
     0
102
RTVSPost2010PropOp49
 70
     1
102
RTVSPost2010Prop50
 90
       50
102
RTVSPost2010PropOp50
 70
     1
102
RTVSPost2010Prop51ColorIndex
 90
      256
102
RTVSPost2010Prop51ColorRGB
 90
-16777216
102
RTVSPost2010PropOp51
 70
     0
102
RTVSPost2010Prop52
140
1.0
102
RTVSPost2010PropOp52
 70
     0
102
RTVSPost2010Prop53
 90
        2
102
RTVSPost2010PropOp53
 70
     1
102
RTVSPost2010Prop54
  1
strokes_ogs.tif
102
RTVSPost2010PropOp54
 70
     1
102
RTVSPost2010Prop55
280
     0
102
RTVSPost2010PropOp55
 70
     1
102
RTVSPost2010Prop56
140
1.0
102
RTVSPost2010PropOp56
 70
     1
102
RTVSPost2010Prop57
140
1.0
102
RTVSPost2010PropOp57
 70
     1
102
RTVSPropertyOp0
 70
     1
102
RTVSPropertyOp1
 70
     1
102
RTVSPropertyOp2
 70
     1
102
RTVSPropertyOp3
 70
     1
102
RTVSPropertyOp4
 70
     1
102
RTVSPropertyOp5
 70
     1
102
RTVSPropertyOp6
 70
     1
102
RTVSPropertyOp7
 70
     1
102
RTVSPropertyOp8
 70
     1
102
RTVSPropertyOp9
 70
     1
102
RTVSPropertyOp10
 70
     1
102
RTVSPropertyOp11
 70
     1
102
RTVSPropertyOp12
 70
     1
102
RTVSPropertyOp13
 70
     1
102
RTVSPropertyOp14
 70
     1
102
RTVSPropertyOp15
 70
     1
102
RTVSPropertyOp16
 70
     1
102
RTVSPropertyOp17
 70
     1
102
RTVSPropertyOp18
 70
     1
102
RTVSPropertyOp19
 70
     1
102
RTVSPropertyOp20
 70
     1
102
RTVSPropertyOp21
 70
     1
102
RTVSPropertyOp22
 70
     1
102
RTVSPropertyOp23
 70
     1
102
RTVSPropertyOp24
 70
     1
102
RTVSPropertyOp25
 70
     1
102
RTVSPropertyOp26
 70
     1
102
RTVSPropertyOp27
 70
     1
102
RTVSPropertyOp28
 70
     1
102
RTVSPropertyOp29
 70
     1
102
RTVSPropertyOp30
 70
     1
102
RTVSPropertyOp31
 70
     1
102
RTVSPropertyOp32
 70
     1
102
RTVSPropertyOp33
 70
     1
102
RTVSPropertyOp34
 70
     1
102
RTVSPropertyOp35
 70
     1
102
RTVSPropertyOp36
 70
     1
102
RTVSPropertyOp37
 70
     1
102
RTVSPropertyOp38
 70
     1
102
RTVSPropertyOp39
 70
     1
102
RTVSPropertyOp40
 70
     1
102
RTVSPropertyOp41
 70
     1
102
RTVSPropertyOp42
 70
     1
102
RTVSPropertyOp43
 70
     1
102
RTVSPropertyOp44
 70
     1
102
RTVSPropertyOp45
 70
     1
102
RTVSPropertyOp46
 70
     1
102
RTVSPropertyOp47
 70
     1
102
RTVSPropertyOp48
 70
     1
102
RTVSPropertyOp49
 70
     1
102
RTVSPropertyOp50
 70
     1
102
RTVSPropertyOp51
 70
     0
102
RTVSPropertyOp52
 70
     0
102
RTVSPropertyOp53
 70
     1
102
RTVSPropertyOp54
 70
     1
102
RTVSPropertyOp55
 70
     1
102
RTVSPropertyOp56
 70
     1
102
RTVSPropertyOp57
 70
     1
102
RTVSPropertyOp58
 70
     1
102
RTVSPropertyOp59
 70
     1
102
RTVSPropertyOp60
 70
     1
102
RTVSPropertyOp61
 70
     1
102
RTVSPropertyOp62
 70
     1
  0
XRECORD
  5
155
102
{ACAD_REACTORS
330
154
102
}
330
154
100
AcDbXrecord
280
     1
102
RTVSPost2010Prop28
280
     0
102
RTVSPost2010PropOp28
 70
     1
102
RTVSPost2010Prop29
280
     1
102
RTVSPost2010PropOp29
 70
     1
102
RTVSPost2010Prop30
280
     1
102
RTVSPost2010PropOp30
 70
     1
102
RTVSPost2010Prop31
280
     0
102
RTVSPost2010PropOp31
 70
     1
102
RTVSPost2010Prop32
280
     0
102
RTVSPost2010PropOp32
 70
     1
102
RTVSPost2010Prop33
280
     0
102
RTVSPost2010PropOp33
 70
     1
102
RTVSPost2010Prop34
280
     0
102
RTVSPost2010PropOp34
 70
     1
102
RTVSPost2010Prop35
280
     0
102
RTVSPost2010PropOp35
 70
     1
102
RTVSPost2010Prop36
280
     0
102
RTVSPost2010PropOp36
 70
     1
102
RTVSPost2010Prop37
 90
       50
102
RTVSPost2010PropOp37
 70
     1
102
RTVSPost2010Prop38
140
0.0
102
RTVSPost2010PropOp38
 70
     1
102
RTVSPost2010Prop39
140
1.0
102
RTVSPost2010PropOp39
 70
     1
102
RTVSPost2010Prop40
 90
        0
102
RTVSPost2010PropOp40
 70
     1
102
RTVSPost2010Prop41ColorIndex
 90
       18
102
RTVSPost2010Prop41ColorRGB
 90
        0
102
RTVSPost2010PropOp41
 70
     1
102
RTVSPost2010Prop42
 90
       50
102
RTVSPost2010PropOp42
 70
     1
102
RTVSPost2010Prop43
 90
        3
102
RTVSPost2010PropOp43
 70
     1
102
RTVSPost2010Prop44ColorIndex
 90
        5
102
RTVSPost2010Prop44ColorRGB
 90
      255
102
RTVSPost2010PropOp44
 70
     1
102
RTVSPost2010Prop45
280
     0
102
RTVSPost2010PropOp45
 70
     1
102
RTVSPost2010Prop46
 90
       50
102
RTVSPost2010PropOp46
 70
     1
102
RTVSPost2010Prop47
 90
       50
102
RTVSPost2010PropOp47
 70
     1
102
RTVSPost2010Prop48
 90
       50
102
RTVSPost2010PropOp48
 70
     1
102
RTVSPost2010Prop49
280
     0
102
RTVSPost2010PropOp49
 70
     1
102
RTVSPost2010Prop50
 90
       50
102
RTVSPost2010PropOp50
 70
     1
102
RTVSPost2010Prop51ColorIndex
 90
      256
102
RTVSPost2010Prop51ColorRGB
 90
-16777216
102
RTVSPost2010PropOp51
 70
     0
102
RTVSPost2010Prop52
140
1.0
102
RTVSPost2010PropOp52
 70
     0
102
RTVSPost2010Prop53
 90
        2
102
RTVSPost2010PropOp53
 70
     1
102
RTVSPost2010Prop54
  1
strokes_ogs.tif
102
RTVSPost2010PropOp54
 70
     1
102
RTVSPost2010Prop55
280
     0
102
RTVSPost2010PropOp55
 70
     1
102
RTVSPost2010Prop56
140
1.0
102
RTVSPost2010PropOp56
 70
     1
102
RTVSPost2010Prop57
140
1.0
102
RTVSPost2010PropOp57
 70
     1
102
RTVSPropertyOp0
 70
     1
102
RTVSPropertyOp1
 70
     1
102
RTVSPropertyOp2
 70
     1
102
RTVSPropertyOp3
 70
     1
102
RTVSPropertyOp4
 70
     1
102
RTVSPropertyOp5
 70
     1
102
RTVSPropertyOp6
 70
     1
102
RTVSPropertyOp7
 70
     1
102
RTVSPropertyOp8
 70
     1
102
RTVSPropertyOp9
 70
     1
102
RTVSPropertyOp10
 70
     1
102
RTVSPropertyOp11
 70
     1
102
RTVSPropertyOp12
 70
     1
102
RTVSPropertyOp13
 70
     1
102
RTVSPropertyOp14
 70
     1
102
RTVSPropertyOp15
 70
     1
102
RTVSPropertyOp16
 70
     1
102
RTVSPropertyOp17
 70
     1
102
RTVSPropertyOp18
 70
     1
102
RTVSPropertyOp19
 70
     1
102
RTVSPropertyOp20
 70
     1
102
RTVSPropertyOp21
 70
     1
102
RTVSPropertyOp22
 70
     1
102
RTVSPropertyOp23
 70
     1
102
RTVSPropertyOp24
 70
     1
102
RTVSPropertyOp25
 70
     1
102
RTVSPropertyOp26
 70
     1
102
RTVSPropertyOp27
 70
     1
102
RTVSPropertyOp28
 70
     1
102
RTVSPropertyOp29
 70
     1
102
RTVSPropertyOp30
 70
     1
102
RTVSPropertyOp31
 70
     1
102
RTVSPropertyOp32
 70
     1
102
RTVSPropertyOp33
 70
     1
102
RTVSPropertyOp34
 70
     1
102
RTVSPropertyOp35
 70
     1
102
RTVSPropertyOp36
 70
     1
102
RTVSPropertyOp37
 70
     1
102
RTVSPropertyOp38
 70
     1
102
RTVSPropertyOp39
 70
     1
102
RTVSPropertyOp40
 70
     1
102
RTVSPropertyOp41
 70
     1
102
RTVSPropertyOp42
 70
     1
102
RTVSPropertyOp43
 70
     1
102
RTVSPropertyOp44
 70
     1
102
RTVSPropertyOp45
 70
     1
102
RTVSPropertyOp46
 70
     1
102
RTVSPropertyOp47
 70
     1
102
RTVSPropertyOp48
 70
     1
102
RTVSPropertyOp49
 70
     1
102
RTVSPropertyOp50
 70
     1
102
RTVSPropertyOp51
 70
     0
102
RTVSPropertyOp52
 70
     0
102
RTVSPropertyOp53
 70
     1
102
RTVSPropertyOp54
 70
     1
102
RTVSPropertyOp55
 70
     1
102
RTVSPropertyOp56
 70
     1
102
RTVSPropertyOp57
 70
     1
102
RTVSPropertyOp58
 70
     1
102
RTVSPropertyOp59
 70
     1
102
RTVSPropertyOp60
 70
     1
102
RTVSPropertyOp61
 70
     1
102
RTVSPropertyOp62
 70
     1
  0
XRECORD
  5
157
102
{ACAD_REACTORS
330
156
102
}
330
156
100
AcDbXrecord
280
     1
102
RTVSPost2010Prop28
280
     0
102
RTVSPost2010PropOp28
 70
     1
102
RTVSPost2010Prop29
280
     1
102
RTVSPost2010PropOp29
 70
     1
102
RTVSPost2010Prop30
280
     1
102
RTVSPost2010PropOp30
 70
     1
102
RTVSPost2010Prop31
280
     0
102
RTVSPost2010PropOp31
 70
     1
102
RTVSPost2010Prop32
280
     0
102
RTVSPost2010PropOp32
 70
     1
102
RTVSPost2010Prop33
280
     0
102
RTVSPost2010PropOp33
 70
     1
102
RTVSPost2010Prop34
280
     0
102
RTVSPost2010PropOp34
 70
     1
102
RTVSPost2010Prop35
280
     0
102
RTVSPost2010PropOp35
 70
     1
102
RTVSPost2010Prop36
280
     0
102
RTVSPost2010PropOp36
 70
     1
102
RTVSPost2010Prop37
 90
       50
102
RTVSPost2010PropOp37
 70
     1
102
RTVSPost2010Prop38
140
0.0
102
RTVSPost2010PropOp38
 70
     1
102
RTVSPost2010Prop39
140
1.0
102
RTVSPost2010PropOp39
 70
     1
102
RTVSPost2010Prop40
 90
        0
102
RTVSPost2010PropOp40
 70
     1
102
RTVSPost2010Prop41ColorIndex
 90
       18
102
RTVSPost2010Prop41ColorRGB
 90
        0
102
RTVSPost2010PropOp41
 70
     1
102
RTVSPost2010Prop42
 90
       50
102
RTVSPost2010PropOp42
 70
     1
102
RTVSPost2010Prop43
 90
        3
102
RTVSPost2010PropOp43
 70
     1
102
RTVSPost2010Prop44ColorIndex
 90
        5
102
RTVSPost2010Prop44ColorRGB
 90
      255
102
RTVSPost2010PropOp44
 70
     1
102
RTVSPost2010Prop45
280
     0
102
RTVSPost2010PropOp45
 70
     1
102
RTVSPost2010Prop46
 90
       50
102
RTVSPost2010PropOp46
 70
     1
102
RTVSPost2010Prop47
 90
       50
102
RTVSPost2010PropOp47
 70
     1
102
RTVSPost2010Prop48
 90
       50
102
RTVSPost2010PropOp48
 70
     1
102
RTVSPost2010Prop49
280
     0
102
RTVSPost2010PropOp49
 70
     1
102
RTVSPost2010Prop50
 90
       50
102
RTVSPost2010PropOp50
 70
     1
102
RTVSPost2010Prop51ColorIndex
 90
      256
102
RTVSPost2010Prop51ColorRGB
 90
-16777216
102
RTVSPost2010PropOp51
 70
     0
102
RTVSPost2010Prop52
140
1.0
102
RTVSPost2010PropOp52
 70
     0
102
RTVSPost2010Prop53
 90
        2
102
RTVSPost2010PropOp53
 70
     1
102
RTVSPost2010Prop54
  1
strokes_ogs.tif
102
RTVSPost2010PropOp54
 70
     1
102
RTVSPost2010Prop55
280
     0
102
RTVSPost2010PropOp55
 70
     1
102
RTVSPost2010Prop56
140
1.0
102
RTVSPost2010PropOp56
 70
     1
102
RTVSPost2010Prop57
140
1.0
102
RTVSPost2010PropOp57
 70
     1
102
RTVSPropertyOp0
 70
     1
102
RTVSPropertyOp1
 70
     1
102
RTVSPropertyOp2
 70
     1
102
RTVSPropertyOp3
 70
     1
102
RTVSPropertyOp4
 70
     1
102
RTVSPropertyOp5
 70
     1
102
RTVSPropertyOp6
 70
     1
102
RTVSPropertyOp7
 70
     1
102
RTVSPropertyOp8
 70
     1
102
RTVSPropertyOp9
 70
     1
102
RTVSPropertyOp10
 70
     1
102
RTVSPropertyOp11
 70
     1
102
RTVSPropertyOp12
 70
     1
102
RTVSPropertyOp13
 70
     1
102
RTVSPropertyOp14
 70
     1
102
RTVSPropertyOp15
 70
     1
102
RTVSPropertyOp16
 70
     1
102
RTVSPropertyOp17
 70
     1
102
RTVSPropertyOp18
 70
     1
102
RTVSPropertyOp19
 70
     1
102
RTVSPropertyOp20
 70
     1
102
RTVSPropertyOp21
 70
     1
102
RTVSPropertyOp22
 70
     1
102
RTVSPropertyOp23
 70
     1
102
RTVSPropertyOp24
 70
     1
102
RTVSPropertyOp25
 70
     1
102
RTVSPropertyOp26
 70
     1
102
RTVSPropertyOp27
 70
     1
102
RTVSPropertyOp28
 70
     1
102
RTVSPropertyOp29
 70
     1
102
RTVSPropertyOp30
 70
     1
102
RTVSPropertyOp31
 70
     1
102
RTVSPropertyOp32
 70
     1
102
RTVSPropertyOp33
 70
     1
102
RTVSPropertyOp34
 70
     1
102
RTVSPropertyOp35
 70
     1
102
RTVSPropertyOp36
 70
     1
102
RTVSPropertyOp37
 70
     1
102
RTVSPropertyOp38
 70
     1
102
RTVSPropertyOp39
 70
     1
102
RTVSPropertyOp40
 70
     1
102
RTVSPropertyOp41
 70
     1
102
RTVSPropertyOp42
 70
     1
102
RTVSPropertyOp43
 70
     1
102
RTVSPropertyOp44
 70
     1
102
RTVSPropertyOp45
 70
     1
102
RTVSPropertyOp46
 70
     1
102
RTVSPropertyOp47
 70
     1
102
RTVSPropertyOp48
 70
     1
102
RTVSPropertyOp49
 70
     1
102
RTVSPropertyOp50
 70
     1
102
RTVSPropertyOp51
 70
     0
102
RTVSPropertyOp52
 70
     0
102
RTVSPropertyOp53
 70
     1
102
RTVSPropertyOp54
 70
     1
102
RTVSPropertyOp55
 70
     1
102
RTVSPropertyOp56
 70
     1
102
RTVSPropertyOp57
 70
     1
102
RTVSPropertyOp58
 70
     1
102
RTVSPropertyOp59
 70
     1
102
RTVSPropertyOp60
 70
     1
102
RTVSPropertyOp61
 70
     1
102
RTVSPropertyOp62
 70
     1
  0
XRECORD
  5
159
102
{ACAD_REACTORS
330
158
102
}
330
158
100
AcDbXrecord
280
     1
102
RTVSPost2010Prop28
280
     0
102
RTVSPost2010PropOp28
 70
     1
102
RTVSPost2010Prop29
280
     1
102
RTVSPost2010PropOp29
 70
     1
102
RTVSPost2010Prop30
280
     1
102
RTVSPost2010PropOp30
 70
     1
102
RTVSPost2010Prop31
280
     0
102
RTVSPost2010PropOp31
 70
     1
102
RTVSPost2010Prop32
280
     0
102
RTVSPost2010PropOp32
 70
     1
102
RTVSPost2010Prop33
280
     0
102
RTVSPost2010PropOp33
 70
     1
102
RTVSPost2010Prop34
280
     0
102
RTVSPost2010PropOp34
 70
     1
102
RTVSPost2010Prop35
280
     0
102
RTVSPost2010PropOp35
 70
     1
102
RTVSPost2010Prop36
280
     0
102
RTVSPost2010PropOp36
 70
     1
102
RTVSPost2010Prop37
 90
       50
102
RTVSPost2010PropOp37
 70
     1
102
RTVSPost2010Prop38
140
0.0
102
RTVSPost2010PropOp38
 70
     1
102
RTVSPost2010Prop39
140
1.0
102
RTVSPost2010PropOp39
 70
     1
102
RTVSPost2010Prop40
 90
        0
102
RTVSPost2010PropOp40
 70
     1
102
RTVSPost2010Prop41ColorIndex
 90
       18
102
RTVSPost2010Prop41ColorRGB
 90
        0
102
RTVSPost2010PropOp41
 70
     1
102
RTVSPost2010Prop42
 90
       50
102
RTVSPost2010PropOp42
 70
     1
102
RTVSPost2010Prop43
 90
        3
102
RTVSPost2010PropOp43
 70
     1
102
RTVSPost2010Prop44ColorIndex
 90
        5
102
RTVSPost2010Prop44ColorRGB
 90
      255
102
RTVSPost2010PropOp44
 70
     1
102
RTVSPost2010Prop45
280
     0
102
RTVSPost2010PropOp45
 70
     1
102
RTVSPost2010Prop46
 90
       50
102
RTVSPost2010PropOp46
 70
     1
102
RTVSPost2010Prop47
 90
       50
102
RTVSPost2010PropOp47
 70
     1
102
RTVSPost2010Prop48
 90
       50
102
RTVSPost2010PropOp48
 70
     1
102
RTVSPost2010Prop49
280
     0
102
RTVSPost2010PropOp49
 70
     1
102
RTVSPost2010Prop50
 90
       50
102
RTVSPost2010PropOp50
 70
     1
102
RTVSPost2010Prop51ColorIndex
 90
      256
102
RTVSPost2010Prop51ColorRGB
 90
-16777216
102
RTVSPost2010PropOp51
 70
     0
102
RTVSPost2010Prop52
140
1.0
102
RTVSPost2010PropOp52
 70
     0
102
RTVSPost2010Prop53
 90
        2
102
RTVSPost2010PropOp53
 70
     1
102
RTVSPost2010Prop54
  1
strokes_ogs.tif
102
RTVSPost2010PropOp54
 70
     1
102
RTVSPost2010Prop55
280
     0
102
RTVSPost2010PropOp55
 70
     1
102
RTVSPost2010Prop56
140
1.0
102
RTVSPost2010PropOp56
 70
     1
102
RTVSPost2010Prop57
140
1.0
102
RTVSPost2010PropOp57
 70
     1
102
RTVSPropertyOp0
 70
     1
102
RTVSPropertyOp1
 70
     1
102
RTVSPropertyOp2
 70
     1
102
RTVSPropertyOp3
 70
     1
102
RTVSPropertyOp4
 70
     1
102
RTVSPropertyOp5
 70
     1
102
RTVSPropertyOp6
 70
     1
102
RTVSPropertyOp7
 70
     1
102
RTVSPropertyOp8
 70
     1
102
RTVSPropertyOp9
 70
     1
102
RTVSPropertyOp10
 70
     1
102
RTVSPropertyOp11
 70
     1
102
RTVSPropertyOp12
 70
     1
102
RTVSPropertyOp13
 70
     1
102
RTVSPropertyOp14
 70
     1
102
RTVSPropertyOp15
 70
     1
102
RTVSPropertyOp16
 70
     1
102
RTVSPropertyOp17
 70
     1
102
RTVSPropertyOp18
 70
     1
102
RTVSPropertyOp19
 70
     1
102
RTVSPropertyOp20
 70
     1
102
RTVSPropertyOp21
 70
     1
102
RTVSPropertyOp22
 70
     1
102
RTVSPropertyOp23
 70
     1
102
RTVSPropertyOp24
 70
     1
102
RTVSPropertyOp25
 70
     1
102
RTVSPropertyOp26
 70
     1
102
RTVSPropertyOp27
 70
     1
102
RTVSPropertyOp28
 70
     1
102
RTVSPropertyOp29
 70
     1
102
RTVSPropertyOp30
 70
     1
102
RTVSPropertyOp31
 70
     1
102
RTVSPropertyOp32
 70
     1
102
RTVSPropertyOp33
 70
     1
102
RTVSPropertyOp34
 70
     1
102
RTVSPropertyOp35
 70
     1
102
RTVSPropertyOp36
 70
     1
102
RTVSPropertyOp37
 70
     1
102
RTVSPropertyOp38
 70
     1
102
RTVSPropertyOp39
 70
     1
102
RTVSPropertyOp40
 70
     1
102
RTVSPropertyOp41
 70
     1
102
RTVSPropertyOp42
 70
     1
102
RTVSPropertyOp43
 70
     1
102
RTVSPropertyOp44
 70
     1
102
RTVSPropertyOp45
 70
     1
102
RTVSPropertyOp46
 70
     1
102
RTVSPropertyOp47
 70
     1
102
RTVSPropertyOp48
 70
     1
102
RTVSPropertyOp49
 70
     1
102
RTVSPropertyOp50
 70
     1
102
RTVSPropertyOp51
 70
     0
102
RTVSPropertyOp52
 70
     0
102
RTVSPropertyOp53
 70
     1
102
RTVSPropertyOp54
 70
     1
102
RTVSPropertyOp55
 70
     1
102
RTVSPropertyOp56
 70
     1
102
RTVSPropertyOp57
 70
     1
102
RTVSPropertyOp58
 70
     1
102
RTVSPropertyOp59
 70
     1
102
RTVSPropertyOp60
 70
     1
102
RTVSPropertyOp61
 70
     1
102
RTVSPropertyOp62
 70
     1
  0
XRECORD
  5
161
102
{ACAD_REACTORS
330
160
102
}
330
160
100
AcDbXrecord
280
     1
102
RTVSPost2010Prop28
280
     0
102
RTVSPost2010PropOp28
 70
     1
102
RTVSPost2010Prop29
280
     1
102
RTVSPost2010PropOp29
 70
     1
102
RTVSPost2010Prop30
280
     1
102
RTVSPost2010PropOp30
 70
     1
102
RTVSPost2010Prop31
280
     0
102
RTVSPost2010PropOp31
 70
     1
102
RTVSPost2010Prop32
280
     0
102
RTVSPost2010PropOp32
 70
     1
102
RTVSPost2010Prop33
280
     0
102
RTVSPost2010PropOp33
 70
     1
102
RTVSPost2010Prop34
280
     0
102
RTVSPost2010PropOp34
 70
     1
102
RTVSPost2010Prop35
280
     0
102
RTVSPost2010PropOp35
 70
     1
102
RTVSPost2010Prop36
280
     0
102
RTVSPost2010PropOp36
 70
     1
102
RTVSPost2010Prop37
 90
       50
102
RTVSPost2010PropOp37
 70
     1
102
RTVSPost2010Prop38
140
0.0
102
RTVSPost2010PropOp38
 70
     1
102
RTVSPost2010Prop39
140
1.0
102
RTVSPost2010PropOp39
 70
     1
102
RTVSPost2010Prop40
 90
        0
102
RTVSPost2010PropOp40
 70
     1
102
RTVSPost2010Prop41ColorIndex
 90
       18
102
RTVSPost2010Prop41ColorRGB
 90
        0
102
RTVSPost2010PropOp41
 70
     1
102
RTVSPost2010Prop42
 90
       50
102
RTVSPost2010PropOp42
 70
     1
102
RTVSPost2010Prop43
 90
        3
102
RTVSPost2010PropOp43
 70
     1
102
RTVSPost2010Prop44ColorIndex
 90
        5
102
RTVSPost2010Prop44ColorRGB
 90
      255
102
RTVSPost2010PropOp44
 70
     1
102
RTVSPost2010Prop45
280
     0
102
RTVSPost2010PropOp45
 70
     1
102
RTVSPost2010Prop46
 90
       50
102
RTVSPost2010PropOp46
 70
     1
102
RTVSPost2010Prop47
 90
       50
102
RTVSPost2010PropOp47
 70
     1
102
RTVSPost2010Prop48
 90
       50
102
RTVSPost2010PropOp48
 70
     1
102
RTVSPost2010Prop49
280
     0
102
RTVSPost2010PropOp49
 70
     1
102
RTVSPost2010Prop50
 90
       50
102
RTVSPost2010PropOp50
 70
     1
102
RTVSPost2010Prop51ColorIndex
 90
      256
102
RTVSPost2010Prop51ColorRGB
 90
-16777216
102
RTVSPost2010PropOp51
 70
     0
102
RTVSPost2010Prop52
140
1.0
102
RTVSPost2010PropOp52
 70
     0
102
RTVSPost2010Prop53
 90
        2
102
RTVSPost2010PropOp53
 70
     1
102
RTVSPost2010Prop54
  1
strokes_ogs.tif
102
RTVSPost2010PropOp54
 70
     1
102
RTVSPost2010Prop55
280
     0
102
RTVSPost2010PropOp55
 70
     1
102
RTVSPost2010Prop56
140
1.0
102
RTVSPost2010PropOp56
 70
     1
102
RTVSPost2010Prop57
140
1.0
102
RTVSPost2010PropOp57
 70
     1
102
RTVSPropertyOp0
 70
     1
102
RTVSPropertyOp1
 70
     1
102
RTVSPropertyOp2
 70
     1
102
RTVSPropertyOp3
 70
     1
102
RTVSPropertyOp4
 70
     1
102
RTVSPropertyOp5
 70
     1
102
RTVSPropertyOp6
 70
     1
102
RTVSPropertyOp7
 70
     1
102
RTVSPropertyOp8
 70
     1
102
RTVSPropertyOp9
 70
     1
102
RTVSPropertyOp10
 70
     1
102
RTVSPropertyOp11
 70
     1
102
RTVSPropertyOp12
 70
     1
102
RTVSPropertyOp13
 70
     1
102
RTVSPropertyOp14
 70
     1
102
RTVSPropertyOp15
 70
     1
102
RTVSPropertyOp16
 70
     1
102
RTVSPropertyOp17
 70
     1
102
RTVSPropertyOp18
 70
     1
102
RTVSPropertyOp19
 70
     1
102
RTVSPropertyOp20
 70
     1
102
RTVSPropertyOp21
 70
     1
102
RTVSPropertyOp22
 70
     1
102
RTVSPropertyOp23
 70
     1
102
RTVSPropertyOp24
 70
     1
102
RTVSPropertyOp25
 70
     1
102
RTVSPropertyOp26
 70
     1
102
RTVSPropertyOp27
 70
     1
102
RTVSPropertyOp28
 70
     1
102
RTVSPropertyOp29
 70
     1
102
RTVSPropertyOp30
 70
     1
102
RTVSPropertyOp31
 70
     1
102
RTVSPropertyOp32
 70
     1
102
RTVSPropertyOp33
 70
     1
102
RTVSPropertyOp34
 70
     1
102
RTVSPropertyOp35
 70
     1
102
RTVSPropertyOp36
 70
     1
102
RTVSPropertyOp37
 70
     1
102
RTVSPropertyOp38
 70
     1
102
RTVSPropertyOp39
 70
     1
102
RTVSPropertyOp40
 70
     1
102
RTVSPropertyOp41
 70
     1
102
RTVSPropertyOp42
 70
     1
102
RTVSPropertyOp43
 70
     1
102
RTVSPropertyOp44
 70
     1
102
RTVSPropertyOp45
 70
     1
102
RTVSPropertyOp46
 70
     1
102
RTVSPropertyOp47
 70
     1
102
RTVSPropertyOp48
 70
     1
102
RTVSPropertyOp49
 70
     1
102
RTVSPropertyOp50
 70
     1
102
RTVSPropertyOp51
 70
     0
102
RTVSPropertyOp52
 70
     0
102
RTVSPropertyOp53
 70
     1
102
RTVSPropertyOp54
 70
     1
102
RTVSPropertyOp55
 70
     1
102
RTVSPropertyOp56
 70
     1
102
RTVSPropertyOp57
 70
     1
102
RTVSPropertyOp58
 70
     1
102
RTVSPropertyOp59
 70
     1
102
RTVSPropertyOp60
 70
     1
102
RTVSPropertyOp61
 70
     1
102
RTVSPropertyOp62
 70
     1
  0
XRECORD
  5
17D
102
{ACAD_REACTORS
330
17C
102
}
330
17C
100
AcDbXrecord
280
     1
102
RTVSPost2010Prop28
280
     0
102
RTVSPost2010PropOp28
 70
     0
102
RTVSPost2010Prop29
280
     1
102
RTVSPost2010PropOp29
 70
     0
102
RTVSPost2010Prop30
280
     1
102
RTVSPost2010PropOp30
 70
     0
102
RTVSPost2010Prop31
280
     0
102
RTVSPost2010PropOp31
 70
     0
102
RTVSPost2010Prop32
280
     0
102
RTVSPost2010PropOp32
 70
     0
102
RTVSPost2010Prop33
280
     0
102
RTVSPost2010PropOp33
 70
     0
102
RTVSPost2010Prop34
280
     0
102
RTVSPost2010PropOp34
 70
     0
102
RTVSPost2010Prop35
280
     0
102
RTVSPost2010PropOp35
 70
     0
102
RTVSPost2010Prop36
280
     0
102
RTVSPost2010PropOp36
 70
     0
102
RTVSPost2010Prop37
 90
       50
102
RTVSPost2010PropOp37
 70
     0
102
RTVSPost2010Prop38
140
0.0
102
RTVSPost2010PropOp38
 70
     0
102
RTVSPost2010Prop39
140
1.0
102
RTVSPost2010PropOp39
 70
     0
102
RTVSPost2010Prop40
 90
        0
102
RTVSPost2010PropOp40
 70
     0
102
RTVSPost2010Prop41ColorIndex
 90
       18
102
RTVSPost2010Prop41ColorRGB
 90
        0
102
RTVSPost2010PropOp41
 70
     0
102
RTVSPost2010Prop42
 90
       50
102
RTVSPost2010PropOp42
 70
     0
102
RTVSPost2010Prop43
 90
        3
102
RTVSPost2010PropOp43
 70
     0
102
RTVSPost2010Prop44ColorIndex
 90
        5
102
RTVSPost2010Prop44ColorRGB
 90
      255
102
RTVSPost2010PropOp44
 70
     0
102
RTVSPost2010Prop45
280
     0
102
RTVSPost2010PropOp45
 70
     0
102
RTVSPost2010Prop46
 90
       50
102
RTVSPost2010PropOp46
 70
     0
102
RTVSPost2010Prop47
 90
       50
102
RTVSPost2010PropOp47
 70
     0
102
RTVSPost2010Prop48
 90
       50
102
RTVSPost2010PropOp48
 70
     0
102
RTVSPost2010Prop49
280
     0
102
RTVSPost2010PropOp49
 70
     0
102
RTVSPost2010Prop50
 90
       50
102
RTVSPost2010PropOp50
 70
     0
102
RTVSPost2010Prop51ColorIndex
 90
      256
102
RTVSPost2010Prop51ColorRGB
 90
-16777216
102
RTVSPost2010PropOp51
 70
     0
102
RTVSPost2010Prop52
140
1.0
102
RTVSPost2010PropOp52
 70
     0
102
RTVSPost2010Prop53
 90
        2
102
RTVSPost2010PropOp53
 70
     0
102
RTVSPost2010Prop54
  1
strokes_ogs.tif
102
RTVSPost2010PropOp54
 70
     0
102
RTVSPost2010Prop55
280
     0
102
RTVSPost2010PropOp55
 70
     0
102
RTVSPost2010Prop56
140
1.0
102
RTVSPost2010PropOp56
 70
     0
102
RTVSPost2010Prop57
140
1.0
102
RTVSPost2010PropOp57
 70
     0
102
RTVSPropertyOp0
 70
     0
102
RTVSPropertyOp1
 70
     0
102
RTVSPropertyOp2
 70
     0
102
RTVSPropertyOp3
 70
     0
102
RTVSPropertyOp4
 70
     0
102
RTVSPropertyOp5
 70
     0
102
RTVSPropertyOp6
 70
     0
102
RTVSPropertyOp7
 70
     0
102
RTVSPropertyOp8
 70
     0
102
RTVSPropertyOp9
 70
     0
102
RTVSPropertyOp10
 70
     0
102
RTVSPropertyOp11
 70
     0
102
RTVSPropertyOp12
 70
     0
102
RTVSPropertyOp13
 70
     0
102
RTVSPropertyOp14
 70
     2
102
RTVSPropertyOp15
 70
     0
102
RTVSPropertyOp16
 70
     0
102
RTVSPropertyOp17
 70
     0
102
RTVSPropertyOp18
 70
     0
102
RTVSPropertyOp19
 70
     0
102
RTVSPropertyOp20
 70
     0
102
RTVSPropertyOp21
 70
     0
102
RTVSPropertyOp22
 70
     0
102
RTVSPropertyOp23
 70
     0
102
RTVSPropertyOp24
 70
     0
102
RTVSPropertyOp25
 70
     0
102
RTVSPropertyOp26
 70
     0
102
RTVSPropertyOp27
 70
     0
102
RTVSPropertyOp28
 70
     0
102
RTVSPropertyOp29
 70
     0
102
RTVSPropertyOp30
 70
     0
102
RTVSPropertyOp31
 70
     0
102
RTVSPropertyOp32
 70
     0
102
RTVSPropertyOp33
 70
     0
102
RTVSPropertyOp34
 70
     0
102
RTVSPropertyOp35
 70
     0
102
RTVSPropertyOp36
 70
     0
102
RTVSPropertyOp37
 70
     0
102
RTVSPropertyOp38
 70
     0
102
RTVSPropertyOp39
 70
     0
102
RTVSPropertyOp40
 70
     0
102
RTVSPropertyOp41
 70
     0
102
RTVSPropertyOp42
 70
     0
102
RTVSPropertyOp43
 70
     0
102
RTVSPropertyOp44
 70
     0
102
RTVSPropertyOp45
 70
     0
102
RTVSPropertyOp46
 70
     0
102
RTVSPropertyOp47
 70
     0
102
RTVSPropertyOp48
 70
     0
102
RTVSPropertyOp49
 70
     0
102
RTVSPropertyOp50
 70
     0
102
RTVSPropertyOp51
 70
     0
102
RTVSPropertyOp52
 70
     0
102
RTVSPropertyOp53
 70
     0
102
RTVSPropertyOp54
 70
     0
102
RTVSPropertyOp55
 70
     0
102
RTVSPropertyOp56
 70
     0
102
RTVSPropertyOp57
 70
     0
102
RTVSPropertyOp58
 70
     0
102
RTVSPropertyOp59
 70
     0
102
RTVSPropertyOp60
 70
     0
102
RTVSPropertyOp61
 70
     0
102
RTVSPropertyOp62
 70
     0
  0
XRECORD
  5
16D
102
{ACAD_REACTORS
330
16C
102
}
330
16C
100
AcDbXrecord
280
     1
102
RTVSPost2010Prop28
280
     0
102
RTVSPost2010PropOp28
 70
     1
102
RTVSPost2010Prop29
280
     1
102
RTVSPost2010PropOp29
 70
     1
102
RTVSPost2010Prop30
280
     1
102
RTVSPost2010PropOp30
 70
     1
102
RTVSPost2010Prop31
280
     0
102
RTVSPost2010PropOp31
 70
     1
102
RTVSPost2010Prop32
280
     0
102
RTVSPost2010PropOp32
 70
     1
102
RTVSPost2010Prop33
280
     0
102
RTVSPost2010PropOp33
 70
     1
102
RTVSPost2010Prop34
280
     0
102
RTVSPost2010PropOp34
 70
     1
102
RTVSPost2010Prop35
280
     0
102
RTVSPost2010PropOp35
 70
     1
102
RTVSPost2010Prop36
280
     0
102
RTVSPost2010PropOp36
 70
     1
102
RTVSPost2010Prop37
 90
       50
102
RTVSPost2010PropOp37
 70
     1
102
RTVSPost2010Prop38
140
0.0
102
RTVSPost2010PropOp38
 70
     1
102
RTVSPost2010Prop39
140
1.0
102
RTVSPost2010PropOp39
 70
     1
102
RTVSPost2010Prop40
 90
        0
102
RTVSPost2010PropOp40
 70
     1
102
RTVSPost2010Prop41ColorIndex
 90
       18
102
RTVSPost2010Prop41ColorRGB
 90
        0
102
RTVSPost2010PropOp41
 70
     1
102
RTVSPost2010Prop42
 90
       50
102
RTVSPost2010PropOp42
 70
     1
102
RTVSPost2010Prop43
 90
        3
102
RTVSPost2010PropOp43
 70
     1
102
RTVSPost2010Prop44ColorIndex
 90
        5
102
RTVSPost2010Prop44ColorRGB
 90
      255
102
RTVSPost2010PropOp44
 70
     1
102
RTVSPost2010Prop45
280
     0
102
RTVSPost2010PropOp45
 70
     1
102
RTVSPost2010Prop46
 90
       50
102
RTVSPost2010PropOp46
 70
     1
102
RTVSPost2010Prop47
 90
       50
102
RTVSPost2010PropOp47
 70
     1
102
RTVSPost2010Prop48
 90
       50
102
RTVSPost2010PropOp48
 70
     1
102
RTVSPost2010Prop49
280
     0
102
RTVSPost2010PropOp49
 70
     1
102
RTVSPost2010Prop50
 90
       50
102
RTVSPost2010PropOp50
 70
     1
102
RTVSPost2010Prop51ColorIndex
 90
      256
102
RTVSPost2010Prop51ColorRGB
 90
-16777216
102
RTVSPost2010PropOp51
 70
     0
102
RTVSPost2010Prop52
140
1.0
102
RTVSPost2010PropOp52
 70
     0
102
RTVSPost2010Prop53
 90
        2
102
RTVSPost2010PropOp53
 70
     1
102
RTVSPost2010Prop54
  1
strokes_ogs.tif
102
RTVSPost2010PropOp54
 70
     1
102
RTVSPost2010Prop55
280
     0
102
RTVSPost2010PropOp55
 70
     1
102
RTVSPost2010Prop56
140
1.0
102
RTVSPost2010PropOp56
 70
     1
102
RTVSPost2010Prop57
140
1.0
102
RTVSPost2010PropOp57
 70
     1
102
RTVSPropertyOp0
 70
     1
102
RTVSPropertyOp1
 70
     1
102
RTVSPropertyOp2
 70
     1
102
RTVSPropertyOp3
 70
     1
102
RTVSPropertyOp4
 70
     1
102
RTVSPropertyOp5
 70
     1
102
RTVSPropertyOp6
 70
     1
102
RTVSPropertyOp7
 70
     1
102
RTVSPropertyOp8
 70
     1
102
RTVSPropertyOp9
 70
     1
102
RTVSPropertyOp10
 70
     1
102
RTVSPropertyOp11
 70
     1
102
RTVSPropertyOp12
 70
     1
102
RTVSPropertyOp13
 70
     1
102
RTVSPropertyOp14
 70
     1
102
RTVSPropertyOp15
 70
     1
102
RTVSPropertyOp16
 70
     1
102
RTVSPropertyOp17
 70
     1
102
RTVSPropertyOp18
 70
     1
102
RTVSPropertyOp19
 70
     1
102
RTVSPropertyOp20
 70
     1
102
RTVSPropertyOp21
 70
     1
102
RTVSPropertyOp22
 70
     1
102
RTVSPropertyOp23
 70
     1
102
RTVSPropertyOp24
 70
     1
102
RTVSPropertyOp25
 70
     1
102
RTVSPropertyOp26
 70
     1
102
RTVSPropertyOp27
 70
     1
102
RTVSPropertyOp28
 70
     1
102
RTVSPropertyOp29
 70
     1
102
RTVSPropertyOp30
 70
     1
102
RTVSPropertyOp31
 70
     1
102
RTVSPropertyOp32
 70
     1
102
RTVSPropertyOp33
 70
     1
102
RTVSPropertyOp34
 70
     1
102
RTVSPropertyOp35
 70
     1
102
RTVSPropertyOp36
 70
     1
102
RTVSPropertyOp37
 70
     1
102
RTVSPropertyOp38
 70
     1
102
RTVSPropertyOp39
 70
     1
102
RTVSPropertyOp40
 70
     1
102
RTVSPropertyOp41
 70
     1
102
RTVSPropertyOp42
 70
     1
102
RTVSPropertyOp43
 70
     1
102
RTVSPropertyOp44
 70
     1
102
RTVSPropertyOp45
 70
     1
102
RTVSPropertyOp46
 70
     1
102
RTVSPropertyOp47
 70
     1
102
RTVSPropertyOp48
 70
     1
102
RTVSPropertyOp49
 70
     1
102
RTVSPropertyOp50
 70
     1
102
RTVSPropertyOp51
 70
     0
102
RTVSPropertyOp52
 70
     0
102
RTVSPropertyOp53
 70
     1
102
RTVSPropertyOp54
 70
     1
102
RTVSPropertyOp55
 70
     1
102
RTVSPropertyOp56
 70
     1
102
RTVSPropertyOp57
 70
     1
102
RTVSPropertyOp58
 70
     1
102
RTVSPropertyOp59
 70
     1
102
RTVSPropertyOp60
 70
     1
102
RTVSPropertyOp61
 70
     1
102
RTVSPropertyOp62
 70
     1
  0
XRECORD
  5
17F
102
{ACAD_REACTORS
330
17E
102
}
330
17E
100
AcDbXrecord
280
     1
102
RTVSPost2010Prop28
280
     0
102
RTVSPost2010PropOp28
 70
     0
102
RTVSPost2010Prop29
280
     1
102
RTVSPost2010PropOp29
 70
     0
102
RTVSPost2010Prop30
280
     1
102
RTVSPost2010PropOp30
 70
     0
102
RTVSPost2010Prop31
280
     0
102
RTVSPost2010PropOp31
 70
     0
102
RTVSPost2010Prop32
280
     0
102
RTVSPost2010PropOp32
 70
     0
102
RTVSPost2010Prop33
280
     0
102
RTVSPost2010PropOp33
 70
     0
102
RTVSPost2010Prop34
280
     0
102
RTVSPost2010PropOp34
 70
     0
102
RTVSPost2010Prop35
280
     0
102
RTVSPost2010PropOp35
 70
     0
102
RTVSPost2010Prop36
280
     0
102
RTVSPost2010PropOp36
 70
     0
102
RTVSPost2010Prop37
 90
       50
102
RTVSPost2010PropOp37
 70
     0
102
RTVSPost2010Prop38
140
0.0
102
RTVSPost2010PropOp38
 70
     0
102
RTVSPost2010Prop39
140
1.0
102
RTVSPost2010PropOp39
 70
     0
102
RTVSPost2010Prop40
 90
        0
102
RTVSPost2010PropOp40
 70
     0
102
RTVSPost2010Prop41ColorIndex
 90
       18
102
RTVSPost2010Prop41ColorRGB
 90
        0
102
RTVSPost2010PropOp41
 70
     0
102
RTVSPost2010Prop42
 90
       50
102
RTVSPost2010PropOp42
 70
     0
102
RTVSPost2010Prop43
 90
        3
102
RTVSPost2010PropOp43
 70
     0
102
RTVSPost2010Prop44ColorIndex
 90
        5
102
RTVSPost2010Prop44ColorRGB
 90
      255
102
RTVSPost2010PropOp44
 70
     0
102
RTVSPost2010Prop45
280
     0
102
RTVSPost2010PropOp45
 70
     0
102
RTVSPost2010Prop46
 90
       50
102
RTVSPost2010PropOp46
 70
     0
102
RTVSPost2010Prop47
 90
       50
102
RTVSPost2010PropOp47
 70
     0
102
RTVSPost2010Prop48
 90
       50
102
RTVSPost2010PropOp48
 70
     0
102
RTVSPost2010Prop49
280
     0
102
RTVSPost2010PropOp49
 70
     0
102
RTVSPost2010Prop50
 90
       50
102
RTVSPost2010PropOp50
 70
     0
102
RTVSPost2010Prop51ColorIndex
 90
      256
102
RTVSPost2010Prop51ColorRGB
 90
-16777216
102
RTVSPost2010PropOp51
 70
     0
102
RTVSPost2010Prop52
140
1.0
102
RTVSPost2010PropOp52
 70
     0
102
RTVSPost2010Prop53
 90
        2
102
RTVSPost2010PropOp53
 70
     0
102
RTVSPost2010Prop54
  1
strokes_ogs.tif
102
RTVSPost2010PropOp54
 70
     0
102
RTVSPost2010Prop55
280
     0
102
RTVSPost2010PropOp55
 70
     0
102
RTVSPost2010Prop56
140
1.0
102
RTVSPost2010PropOp56
 70
     0
102
RTVSPost2010Prop57
140
1.0
102
RTVSPost2010PropOp57
 70
     0
102
RTVSPropertyOp0
 70
     0
102
RTVSPropertyOp1
 70
     0
102
RTVSPropertyOp2
 70
     0
102
RTVSPropertyOp3
 70
     0
102
RTVSPropertyOp4
 70
     0
102
RTVSPropertyOp5
 70
     0
102
RTVSPropertyOp6
 70
     0
102
RTVSPropertyOp7
 70
     0
102
RTVSPropertyOp8
 70
     0
102
RTVSPropertyOp9
 70
     0
102
RTVSPropertyOp10
 70
     0
102
RTVSPropertyOp11
 70
     0
102
RTVSPropertyOp12
 70
     0
102
RTVSPropertyOp13
 70
     0
102
RTVSPropertyOp14
 70
     2
102
RTVSPropertyOp15
 70
     0
102
RTVSPropertyOp16
 70
     0
102
RTVSPropertyOp17
 70
     0
102
RTVSPropertyOp18
 70
     0
102
RTVSPropertyOp19
 70
     0
102
RTVSPropertyOp20
 70
     0
102
RTVSPropertyOp21
 70
     0
102
RTVSPropertyOp22
 70
     0
102
RTVSPropertyOp23
 70
     0
102
RTVSPropertyOp24
 70
     0
102
RTVSPropertyOp25
 70
     0
102
RTVSPropertyOp26
 70
     0
102
RTVSPropertyOp27
 70
     0
102
RTVSPropertyOp28
 70
     0
102
RTVSPropertyOp29
 70
     0
102
RTVSPropertyOp30
 70
     0
102
RTVSPropertyOp31
 70
     0
102
RTVSPropertyOp32
 70
     0
102
RTVSPropertyOp33
 70
     0
102
RTVSPropertyOp34
 70
     0
102
RTVSPropertyOp35
 70
     0
102
RTVSPropertyOp36
 70
     0
102
RTVSPropertyOp37
 70
     0
102
RTVSPropertyOp38
 70
     0
102
RTVSPropertyOp39
 70
     0
102
RTVSPropertyOp40
 70
     0
102
RTVSPropertyOp41
 70
     0
102
RTVSPropertyOp42
 70
     0
102
RTVSPropertyOp43
 70
     0
102
RTVSPropertyOp44
 70
     0
102
RTVSPropertyOp45
 70
     0
102
RTVSPropertyOp46
 70
     0
102
RTVSPropertyOp47
 70
     0
102
RTVSPropertyOp48
 70
     0
102
RTVSPropertyOp49
 70
     0
102
RTVSPropertyOp50
 70
     0
102
RTVSPropertyOp51
 70
     0
102
RTVSPropertyOp52
 70
     0
102
RTVSPropertyOp53
 70
     0
102
RTVSPropertyOp54
 70
     0
102
RTVSPropertyOp55
 70
     0
102
RTVSPropertyOp56
 70
     0
102
RTVSPropertyOp57
 70
     0
102
RTVSPropertyOp58
 70
     0
102
RTVSPropertyOp59
 70
     0
102
RTVSPropertyOp60
 70
     0
102
RTVSPropertyOp61
 70
     0
102
RTVSPropertyOp62
 70
     0
  0
XRECORD
  5
165
102
{ACAD_REACTORS
330
164
102
}
330
164
100
AcDbXrecord
280
     1
102
RTVSPost2010Prop28
280
     0
102
RTVSPost2010PropOp28
 70
     1
102
RTVSPost2010Prop29
280
     1
102
RTVSPost2010PropOp29
 70
     1
102
RTVSPost2010Prop30
280
     1
102
RTVSPost2010PropOp30
 70
     1
102
RTVSPost2010Prop31
280
     0
102
RTVSPost2010PropOp31
 70
     1
102
RTVSPost2010Prop32
280
     0
102
RTVSPost2010PropOp32
 70
     1
102
RTVSPost2010Prop33
280
     0
102
RTVSPost2010PropOp33
 70
     1
102
RTVSPost2010Prop34
280
     0
102
RTVSPost2010PropOp34
 70
     1
102
RTVSPost2010Prop35
280
     0
102
RTVSPost2010PropOp35
 70
     1
102
RTVSPost2010Prop36
280
     0
102
RTVSPost2010PropOp36
 70
     1
102
RTVSPost2010Prop37
 90
       50
102
RTVSPost2010PropOp37
 70
     1
102
RTVSPost2010Prop38
140
0.0
102
RTVSPost2010PropOp38
 70
     1
102
RTVSPost2010Prop39
140
1.0
102
RTVSPost2010PropOp39
 70
     1
102
RTVSPost2010Prop40
 90
        0
102
RTVSPost2010PropOp40
 70
     1
102
RTVSPost2010Prop41ColorIndex
 90
       18
102
RTVSPost2010Prop41ColorRGB
 90
        0
102
RTVSPost2010PropOp41
 70
     1
102
RTVSPost2010Prop42
 90
       50
102
RTVSPost2010PropOp42
 70
     1
102
RTVSPost2010Prop43
 90
        3
102
RTVSPost2010PropOp43
 70
     1
102
RTVSPost2010Prop44ColorIndex
 90
        5
102
RTVSPost2010Prop44ColorRGB
 90
      255
102
RTVSPost2010PropOp44
 70
     1
102
RTVSPost2010Prop45
280
     0
102
RTVSPost2010PropOp45
 70
     1
102
RTVSPost2010Prop46
 90
       50
102
RTVSPost2010PropOp46
 70
     1
102
RTVSPost2010Prop47
 90
       50
102
RTVSPost2010PropOp47
 70
     1
102
RTVSPost2010Prop48
 90
       50
102
RTVSPost2010PropOp48
 70
     1
102
RTVSPost2010Prop49
280
     0
102
RTVSPost2010PropOp49
 70
     1
102
RTVSPost2010Prop50
 90
       50
102
RTVSPost2010PropOp50
 70
     1
102
RTVSPost2010Prop51ColorIndex
 90
      256
102
RTVSPost2010Prop51ColorRGB
 90
-16777216
102
RTVSPost2010PropOp51
 70
     0
102
RTVSPost2010Prop52
140
1.0
102
RTVSPost2010PropOp52
 70
     0
102
RTVSPost2010Prop53
 90
        2
102
RTVSPost2010PropOp53
 70
     1
102
RTVSPost2010Prop54
  1
strokes_ogs.tif
102
RTVSPost2010PropOp54
 70
     1
102
RTVSPost2010Prop55
280
     0
102
RTVSPost2010PropOp55
 70
     1
102
RTVSPost2010Prop56
140
1.0
102
RTVSPost2010PropOp56
 70
     1
102
RTVSPost2010Prop57
140
1.0
102
RTVSPost2010PropOp57
 70
     1
102
RTVSPropertyOp0
 70
     1
102
RTVSPropertyOp1
 70
     1
102
RTVSPropertyOp2
 70
     1
102
RTVSPropertyOp3
 70
     1
102
RTVSPropertyOp4
 70
     1
102
RTVSPropertyOp5
 70
     1
102
RTVSPropertyOp6
 70
     1
102
RTVSPropertyOp7
 70
     1
102
RTVSPropertyOp8
 70
     1
102
RTVSPropertyOp9
 70
     1
102
RTVSPropertyOp10
 70
     1
102
RTVSPropertyOp11
 70
     1
102
RTVSPropertyOp12
 70
     1
102
RTVSPropertyOp13
 70
     1
102
RTVSPropertyOp14
 70
     1
102
RTVSPropertyOp15
 70
     1
102
RTVSPropertyOp16
 70
     1
102
RTVSPropertyOp17
 70
     1
102
RTVSPropertyOp18
 70
     1
102
RTVSPropertyOp19
 70
     1
102
RTVSPropertyOp20
 70
     1
102
RTVSPropertyOp21
 70
     1
102
RTVSPropertyOp22
 70
     1
102
RTVSPropertyOp23
 70
     1
102
RTVSPropertyOp24
 70
     1
102
RTVSPropertyOp25
 70
     1
102
RTVSPropertyOp26
 70
     1
102
RTVSPropertyOp27
 70
     1
102
RTVSPropertyOp28
 70
     1
102
RTVSPropertyOp29
 70
     1
102
RTVSPropertyOp30
 70
     1
102
RTVSPropertyOp31
 70
     1
102
RTVSPropertyOp32
 70
     1
102
RTVSPropertyOp33
 70
     1
102
RTVSPropertyOp34
 70
     1
102
RTVSPropertyOp35
 70
     1
102
RTVSPropertyOp36
 70
     1
102
RTVSPropertyOp37
 70
     1
102
RTVSPropertyOp38
 70
     1
102
RTVSPropertyOp39
 70
     1
102
RTVSPropertyOp40
 70
     1
102
RTVSPropertyOp41
 70
     1
102
RTVSPropertyOp42
 70
     1
102
RTVSPropertyOp43
 70
     1
102
RTVSPropertyOp44
 70
     1
102
RTVSPropertyOp45
 70
     1
102
RTVSPropertyOp46
 70
     1
102
RTVSPropertyOp47
 70
     1
102
RTVSPropertyOp48
 70
     1
102
RTVSPropertyOp49
 70
     1
102
RTVSPropertyOp50
 70
     1
102
RTVSPropertyOp51
 70
     0
102
RTVSPropertyOp52
 70
     0
102
RTVSPropertyOp53
 70
     1
102
RTVSPropertyOp54
 70
     1
102
RTVSPropertyOp55
 70
     1
102
RTVSPropertyOp56
 70
     1
102
RTVSPropertyOp57
 70
     1
102
RTVSPropertyOp58
 70
     1
102
RTVSPropertyOp59
 70
     1
102
RTVSPropertyOp60
 70
     1
102
RTVSPropertyOp61
 70
     1
102
RTVSPropertyOp62
 70
     1
  0
XRECORD
  5
17B
102
{ACAD_REACTORS
330
17A
102
}
330
17A
100
AcDbXrecord
280
     1
102
RTVSPost2010Prop28
280
     0
102
RTVSPost2010PropOp28
 70
     1
102
RTVSPost2010Prop29
280
     1
102
RTVSPost2010PropOp29
 70
     1
102
RTVSPost2010Prop30
280
     1
102
RTVSPost2010PropOp30
 70
     1
102
RTVSPost2010Prop31
280
     0
102
RTVSPost2010PropOp31
 70
     1
102
RTVSPost2010Prop32
280
     0
102
RTVSPost2010PropOp32
 70
     1
102
RTVSPost2010Prop33
280
     0
102
RTVSPost2010PropOp33
 70
     1
102
RTVSPost2010Prop34
280
     0
102
RTVSPost2010PropOp34
 70
     1
102
RTVSPost2010Prop35
280
     0
102
RTVSPost2010PropOp35
 70
     1
102
RTVSPost2010Prop36
280
     0
102
RTVSPost2010PropOp36
 70
     1
102
RTVSPost2010Prop37
 90
       50
102
RTVSPost2010PropOp37
 70
     1
102
RTVSPost2010Prop38
140
0.0
102
RTVSPost2010PropOp38
 70
     1
102
RTVSPost2010Prop39
140
1.0
102
RTVSPost2010PropOp39
 70
     1
102
RTVSPost2010Prop40
 90
        0
102
RTVSPost2010PropOp40
 70
     1
102
RTVSPost2010Prop41ColorIndex
 90
       18
102
RTVSPost2010Prop41ColorRGB
 90
        0
102
RTVSPost2010PropOp41
 70
     1
102
RTVSPost2010Prop42
 90
       50
102
RTVSPost2010PropOp42
 70
     1
102
RTVSPost2010Prop43
 90
        3
102
RTVSPost2010PropOp43
 70
     1
102
RTVSPost2010Prop44ColorIndex
 90
        5
102
RTVSPost2010Prop44ColorRGB
 90
      255
102
RTVSPost2010PropOp44
 70
     1
102
RTVSPost2010Prop45
280
     0
102
RTVSPost2010PropOp45
 70
     1
102
RTVSPost2010Prop46
 90
       50
102
RTVSPost2010PropOp46
 70
     1
102
RTVSPost2010Prop47
 90
       50
102
RTVSPost2010PropOp47
 70
     1
102
RTVSPost2010Prop48
 90
       50
102
RTVSPost2010PropOp48
 70
     1
102
RTVSPost2010Prop49
280
     0
102
RTVSPost2010PropOp49
 70
     1
102
RTVSPost2010Prop50
 90
       50
102
RTVSPost2010PropOp50
 70
     1
102
RTVSPost2010Prop51ColorIndex
 90
      256
102
RTVSPost2010Prop51ColorRGB
 90
-16777216
102
RTVSPost2010PropOp51
 70
     0
102
RTVSPost2010Prop52
140
1.0
102
RTVSPost2010PropOp52
 70
     0
102
RTVSPost2010Prop53
 90
        2
102
RTVSPost2010PropOp53
 70
     1
102
RTVSPost2010Prop54
  1
strokes_ogs.tif
102
RTVSPost2010PropOp54
 70
     1
102
RTVSPost2010Prop55
280
     0
102
RTVSPost2010PropOp55
 70
     1
102
RTVSPost2010Prop56
140
1.0
102
RTVSPost2010PropOp56
 70
     1
102
RTVSPost2010Prop57
140
1.0
102
RTVSPost2010PropOp57
 70
     1
102
RTVSPropertyOp0
 70
     1
102
RTVSPropertyOp1
 70
     1
102
RTVSPropertyOp2
 70
     1
102
RTVSPropertyOp3
 70
     1
102
RTVSPropertyOp4
 70
     1
102
RTVSPropertyOp5
 70
     1
102
RTVSPropertyOp6
 70
     1
102
RTVSPropertyOp7
 70
     1
102
RTVSPropertyOp8
 70
     1
102
RTVSPropertyOp9
 70
     1
102
RTVSPropertyOp10
 70
     1
102
RTVSPropertyOp11
 70
     1
102
RTVSPropertyOp12
 70
     1
102
RTVSPropertyOp13
 70
     1
102
RTVSPropertyOp14
 70
     1
102
RTVSPropertyOp15
 70
     1
102
RTVSPropertyOp16
 70
     1
102
RTVSPropertyOp17
 70
     1
102
RTVSPropertyOp18
 70
     1
102
RTVSPropertyOp19
 70
     1
102
RTVSPropertyOp20
 70
     1
102
RTVSPropertyOp21
 70
     1
102
RTVSPropertyOp22
 70
     1
102
RTVSPropertyOp23
 70
     1
102
RTVSPropertyOp24
 70
     1
102
RTVSPropertyOp25
 70
     1
102
RTVSPropertyOp26
 70
     1
102
RTVSPropertyOp27
 70
     1
102
RTVSPropertyOp28
 70
     1
102
RTVSPropertyOp29
 70
     1
102
RTVSPropertyOp30
 70
     1
102
RTVSPropertyOp31
 70
     1
102
RTVSPropertyOp32
 70
     1
102
RTVSPropertyOp33
 70
     1
102
RTVSPropertyOp34
 70
     1
102
RTVSPropertyOp35
 70
     1
102
RTVSPropertyOp36
 70
     1
102
RTVSPropertyOp37
 70
     1
102
RTVSPropertyOp38
 70
     1
102
RTVSPropertyOp39
 70
     1
102
RTVSPropertyOp40
 70
     1
102
RTVSPropertyOp41
 70
     1
102
RTVSPropertyOp42
 70
     1
102
RTVSPropertyOp43
 70
     1
102
RTVSPropertyOp44
 70
     1
102
RTVSPropertyOp45
 70
     1
102
RTVSPropertyOp46
 70
     1
102
RTVSPropertyOp47
 70
     1
102
RTVSPropertyOp48
 70
     1
102
RTVSPropertyOp49
 70
     1
102
RTVSPropertyOp50
 70
     1
102
RTVSPropertyOp51
 70
     0
102
RTVSPropertyOp52
 70
     0
102
RTVSPropertyOp53
 70
     1
102
RTVSPropertyOp54
 70
     1
102
RTVSPropertyOp55
 70
     1
102
RTVSPropertyOp56
 70
     1
102
RTVSPropertyOp57
 70
     1
102
RTVSPropertyOp58
 70
     1
102
RTVSPropertyOp59
 70
     1
102
RTVSPropertyOp60
 70
     1
102
RTVSPropertyOp61
 70
     1
102
RTVSPropertyOp62
 70
     1
  0
XRECORD
  5
179
102
{ACAD_REACTORS
330
178
102
}
330
178
100
AcDbXrecord
280
     1
102
RTVSPost2010Prop28
280
     0
102
RTVSPost2010PropOp28
 70
     1
102
RTVSPost2010Prop29
280
     1
102
RTVSPost2010PropOp29
 70
     1
102
RTVSPost2010Prop30
280
     1
102
RTVSPost2010PropOp30
 70
     1
102
RTVSPost2010Prop31
280
     0
102
RTVSPost2010PropOp31
 70
     1
102
RTVSPost2010Prop32
280
     0
102
RTVSPost2010PropOp32
 70
     1
102
RTVSPost2010Prop33
280
     0
102
RTVSPost2010PropOp33
 70
     1
102
RTVSPost2010Prop34
280
     0
102
RTVSPost2010PropOp34
 70
     1
102
RTVSPost2010Prop35
280
     0
102
RTVSPost2010PropOp35
 70
     1
102
RTVSPost2010Prop36
280
     0
102
RTVSPost2010PropOp36
 70
     1
102
RTVSPost2010Prop37
 90
       50
102
RTVSPost2010PropOp37
 70
     1
102
RTVSPost2010Prop38
140
0.0
102
RTVSPost2010PropOp38
 70
     1
102
RTVSPost2010Prop39
140
1.0
102
RTVSPost2010PropOp39
 70
     1
102
RTVSPost2010Prop40
 90
        0
102
RTVSPost2010PropOp40
 70
     1
102
RTVSPost2010Prop41ColorIndex
 90
       18
102
RTVSPost2010Prop41ColorRGB
 90
        0
102
RTVSPost2010PropOp41
 70
     1
102
RTVSPost2010Prop42
 90
       50
102
RTVSPost2010PropOp42
 70
     1
102
RTVSPost2010Prop43
 90
        3
102
RTVSPost2010PropOp43
 70
     1
102
RTVSPost2010Prop44ColorIndex
 90
        5
102
RTVSPost2010Prop44ColorRGB
 90
      255
102
RTVSPost2010PropOp44
 70
     1
102
RTVSPost2010Prop45
280
     0
102
RTVSPost2010PropOp45
 70
     1
102
RTVSPost2010Prop46
 90
       50
102
RTVSPost2010PropOp46
 70
     1
102
RTVSPost2010Prop47
 90
       50
102
RTVSPost2010PropOp47
 70
     1
102
RTVSPost2010Prop48
 90
       50
102
RTVSPost2010PropOp48
 70
     1
102
RTVSPost2010Prop49
280
     0
102
RTVSPost2010PropOp49
 70
     1
102
RTVSPost2010Prop50
 90
       50
102
RTVSPost2010PropOp50
 70
     1
102
RTVSPost2010Prop51ColorIndex
 90
      256
102
RTVSPost2010Prop51ColorRGB
 90
-16777216
102
RTVSPost2010PropOp51
 70
     0
102
RTVSPost2010Prop52
140
1.0
102
RTVSPost2010PropOp52
 70
     0
102
RTVSPost2010Prop53
 90
        2
102
RTVSPost2010PropOp53
 70
     1
102
RTVSPost2010Prop54
  1
strokes_ogs.tif
102
RTVSPost2010PropOp54
 70
     1
102
RTVSPost2010Prop55
280
     0
102
RTVSPost2010PropOp55
 70
     1
102
RTVSPost2010Prop56
140
1.0
102
RTVSPost2010PropOp56
 70
     1
102
RTVSPost2010Prop57
140
1.0
102
RTVSPost2010PropOp57
 70
     1
102
RTVSPropertyOp0
 70
     1
102
RTVSPropertyOp1
 70
     1
102
RTVSPropertyOp2
 70
     1
102
RTVSPropertyOp3
 70
     1
102
RTVSPropertyOp4
 70
     1
102
RTVSPropertyOp5
 70
     1
102
RTVSPropertyOp6
 70
     1
102
RTVSPropertyOp7
 70
     1
102
RTVSPropertyOp8
 70
     1
102
RTVSPropertyOp9
 70
     1
102
RTVSPropertyOp10
 70
     1
102
RTVSPropertyOp11
 70
     1
102
RTVSPropertyOp12
 70
     1
102
RTVSPropertyOp13
 70
     1
102
RTVSPropertyOp14
 70
     1
102
RTVSPropertyOp15
 70
     1
102
RTVSPropertyOp16
 70
     1
102
RTVSPropertyOp17
 70
     1
102
RTVSPropertyOp18
 70
     1
102
RTVSPropertyOp19
 70
     1
102
RTVSPropertyOp20
 70
     1
102
RTVSPropertyOp21
 70
     1
102
RTVSPropertyOp22
 70
     1
102
RTVSPropertyOp23
 70
     1
102
RTVSPropertyOp24
 70
     1
102
RTVSPropertyOp25
 70
     1
102
RTVSPropertyOp26
 70
     1
102
RTVSPropertyOp27
 70
     1
102
RTVSPropertyOp28
 70
     1
102
RTVSPropertyOp29
 70
     1
102
RTVSPropertyOp30
 70
     1
102
RTVSPropertyOp31
 70
     1
102
RTVSPropertyOp32
 70
     1
102
RTVSPropertyOp33
 70
     1
102
RTVSPropertyOp34
 70
     1
102
RTVSPropertyOp35
 70
     1
102
RTVSPropertyOp36
 70
     1
102
RTVSPropertyOp37
 70
     1
102
RTVSPropertyOp38
 70
     1
102
RTVSPropertyOp39
 70
     1
102
RTVSPropertyOp40
 70
     1
102
RTVSPropertyOp41
 70
     1
102
RTVSPropertyOp42
 70
     1
102
RTVSPropertyOp43
 70
     1
102
RTVSPropertyOp44
 70
     1
102
RTVSPropertyOp45
 70
     1
102
RTVSPropertyOp46
 70
     1
102
RTVSPropertyOp47
 70
     1
102
RTVSPropertyOp48
 70
     1
102
RTVSPropertyOp49
 70
     1
102
RTVSPropertyOp50
 70
     1
102
RTVSPropertyOp51
 70
     0
102
RTVSPropertyOp52
 70
     0
102
RTVSPropertyOp53
 70
     1
102
RTVSPropertyOp54
 70
     1
102
RTVSPropertyOp55
 70
     1
102
RTVSPropertyOp56
 70
     1
102
RTVSPropertyOp57
 70
     1
102
RTVSPropertyOp58
 70
     1
102
RTVSPropertyOp59
 70
     1
102
RTVSPropertyOp60
 70
     1
102
RTVSPropertyOp61
 70
     1
102
RTVSPropertyOp62
 70
     1
  0
XRECORD
  5
173
102
{ACAD_REACTORS
330
172
102
}
330
172
100
AcDbXrecord
280
     1
102
RTVSPost2010Prop28
280
     0
102
RTVSPost2010PropOp28
 70
     1
102
RTVSPost2010Prop29
280
     1
102
RTVSPost2010PropOp29
 70
     1
102
RTVSPost2010Prop30
280
     1
102
RTVSPost2010PropOp30
 70
     1
102
RTVSPost2010Prop31
280
     0
102
RTVSPost2010PropOp31
 70
     1
102
RTVSPost2010Prop32
280
     0
102
RTVSPost2010PropOp32
 70
     1
102
RTVSPost2010Prop33
280
     0
102
RTVSPost2010PropOp33
 70
     1
102
RTVSPost2010Prop34
280
     0
102
RTVSPost2010PropOp34
 70
     1
102
RTVSPost2010Prop35
280
     0
102
RTVSPost2010PropOp35
 70
     1
102
RTVSPost2010Prop36
280
     0
102
RTVSPost2010PropOp36
 70
     1
102
RTVSPost2010Prop37
 90
       50
102
RTVSPost2010PropOp37
 70
     1
102
RTVSPost2010Prop38
140
0.0
102
RTVSPost2010PropOp38
 70
     1
102
RTVSPost2010Prop39
140
1.0
102
RTVSPost2010PropOp39
 70
     1
102
RTVSPost2010Prop40
 90
        0
102
RTVSPost2010PropOp40
 70
     1
102
RTVSPost2010Prop41ColorIndex
 90
       18
102
RTVSPost2010Prop41ColorRGB
 90
        0
102
RTVSPost2010PropOp41
 70
     1
102
RTVSPost2010Prop42
 90
       50
102
RTVSPost2010PropOp42
 70
     1
102
RTVSPost2010Prop43
 90
        3
102
RTVSPost2010PropOp43
 70
     1
102
RTVSPost2010Prop44ColorIndex
 90
        5
102
RTVSPost2010Prop44ColorRGB
 90
      255
102
RTVSPost2010PropOp44
 70
     1
102
RTVSPost2010Prop45
280
     0
102
RTVSPost2010PropOp45
 70
     1
102
RTVSPost2010Prop46
 90
       50
102
RTVSPost2010PropOp46
 70
     1
102
RTVSPost2010Prop47
 90
       50
102
RTVSPost2010PropOp47
 70
     1
102
RTVSPost2010Prop48
 90
       50
102
RTVSPost2010PropOp48
 70
     1
102
RTVSPost2010Prop49
280
     0
102
RTVSPost2010PropOp49
 70
     1
102
RTVSPost2010Prop50
 90
       50
102
RTVSPost2010PropOp50
 70
     1
102
RTVSPost2010Prop51ColorIndex
 90
      256
102
RTVSPost2010Prop51ColorRGB
 90
-16777216
102
RTVSPost2010PropOp51
 70
     0
102
RTVSPost2010Prop52
140
1.0
102
RTVSPost2010PropOp52
 70
     0
102
RTVSPost2010Prop53
 90
        2
102
RTVSPost2010PropOp53
 70
     1
102
RTVSPost2010Prop54
  1
strokes_ogs.tif
102
RTVSPost2010PropOp54
 70
     1
102
RTVSPost2010Prop55
280
     0
102
RTVSPost2010PropOp55
 70
     1
102
RTVSPost2010Prop56
140
1.0
102
RTVSPost2010PropOp56
 70
     1
102
RTVSPost2010Prop57
140
1.0
102
RTVSPost2010PropOp57
 70
     1
102
RTVSPropertyOp0
 70
     1
102
RTVSPropertyOp1
 70
     1
102
RTVSPropertyOp2
 70
     1
102
RTVSPropertyOp3
 70
     1
102
RTVSPropertyOp4
 70
     1
102
RTVSPropertyOp5
 70
     1
102
RTVSPropertyOp6
 70
     1
102
RTVSPropertyOp7
 70
     1
102
RTVSPropertyOp8
 70
     1
102
RTVSPropertyOp9
 70
     1
102
RTVSPropertyOp10
 70
     1
102
RTVSPropertyOp11
 70
     1
102
RTVSPropertyOp12
 70
     1
102
RTVSPropertyOp13
 70
     1
102
RTVSPropertyOp14
 70
     1
102
RTVSPropertyOp15
 70
     1
102
RTVSPropertyOp16
 70
     1
102
RTVSPropertyOp17
 70
     1
102
RTVSPropertyOp18
 70
     1
102
RTVSPropertyOp19
 70
     1
102
RTVSPropertyOp20
 70
     1
102
RTVSPropertyOp21
 70
     1
102
RTVSPropertyOp22
 70
     1
102
RTVSPropertyOp23
 70
     1
102
RTVSPropertyOp24
 70
     1
102
RTVSPropertyOp25
 70
     1
102
RTVSPropertyOp26
 70
     1
102
RTVSPropertyOp27
 70
     1
102
RTVSPropertyOp28
 70
     1
102
RTVSPropertyOp29
 70
     1
102
RTVSPropertyOp30
 70
     1
102
RTVSPropertyOp31
 70
     1
102
RTVSPropertyOp32
 70
     1
102
RTVSPropertyOp33
 70
     1
102
RTVSPropertyOp34
 70
     1
102
RTVSPropertyOp35
 70
     1
102
RTVSPropertyOp36
 70
     1
102
RTVSPropertyOp37
 70
     1
102
RTVSPropertyOp38
 70
     1
102
RTVSPropertyOp39
 70
     1
102
RTVSPropertyOp40
 70
     1
102
RTVSPropertyOp41
 70
     1
102
RTVSPropertyOp42
 70
     1
102
RTVSPropertyOp43
 70
     1
102
RTVSPropertyOp44
 70
     1
102
RTVSPropertyOp45
 70
     1
102
RTVSPropertyOp46
 70
     1
102
RTVSPropertyOp47
 70
     1
102
RTVSPropertyOp48
 70
     1
102
RTVSPropertyOp49
 70
     1
102
RTVSPropertyOp50
 70
     1
102
RTVSPropertyOp51
 70
     0
102
RTVSPropertyOp52
 70
     0
102
RTVSPropertyOp53
 70
     1
102
RTVSPropertyOp54
 70
     1
102
RTVSPropertyOp55
 70
     1
102
RTVSPropertyOp56
 70
     1
102
RTVSPropertyOp57
 70
     1
102
RTVSPropertyOp58
 70
     1
102
RTVSPropertyOp59
 70
     1
102
RTVSPropertyOp60
 70
     1
102
RTVSPropertyOp61
 70
     1
102
RTVSPropertyOp62
 70
     1
  0
XRECORD
  5
175
102
{ACAD_REACTORS
330
174
102
}
330
174
100
AcDbXrecord
280
     1
102
RTVSPost2010Prop28
280
     0
102
RTVSPost2010PropOp28
 70
     1
102
RTVSPost2010Prop29
280
     1
102
RTVSPost2010PropOp29
 70
     1
102
RTVSPost2010Prop30
280
     1
102
RTVSPost2010PropOp30
 70
     1
102
RTVSPost2010Prop31
280
     0
102
RTVSPost2010PropOp31
 70
     1
102
RTVSPost2010Prop32
280
     0
102
RTVSPost2010PropOp32
 70
     1
102
RTVSPost2010Prop33
280
     0
102
RTVSPost2010PropOp33
 70
     1
102
RTVSPost2010Prop34
280
     0
102
RTVSPost2010PropOp34
 70
     1
102
RTVSPost2010Prop35
280
     0
102
RTVSPost2010PropOp35
 70
     1
102
RTVSPost2010Prop36
280
     0
102
RTVSPost2010PropOp36
 70
     1
102
RTVSPost2010Prop37
 90
       50
102
RTVSPost2010PropOp37
 70
     1
102
RTVSPost2010Prop38
140
0.0
102
RTVSPost2010PropOp38
 70
     1
102
RTVSPost2010Prop39
140
1.0
102
RTVSPost2010PropOp39
 70
     1
102
RTVSPost2010Prop40
 90
        0
102
RTVSPost2010PropOp40
 70
     1
102
RTVSPost2010Prop41ColorIndex
 90
       18
102
RTVSPost2010Prop41ColorRGB
 90
        0
102
RTVSPost2010PropOp41
 70
     1
102
RTVSPost2010Prop42
 90
       50
102
RTVSPost2010PropOp42
 70
     1
102
RTVSPost2010Prop43
 90
        3
102
RTVSPost2010PropOp43
 70
     1
102
RTVSPost2010Prop44ColorIndex
 90
        5
102
RTVSPost2010Prop44ColorRGB
 90
      255
102
RTVSPost2010PropOp44
 70
     1
102
RTVSPost2010Prop45
280
     0
102
RTVSPost2010PropOp45
 70
     1
102
RTVSPost2010Prop46
 90
       50
102
RTVSPost2010PropOp46
 70
     1
102
RTVSPost2010Prop47
 90
       50
102
RTVSPost2010PropOp47
 70
     1
102
RTVSPost2010Prop48
 90
       50
102
RTVSPost2010PropOp48
 70
     1
102
RTVSPost2010Prop49
280
     0
102
RTVSPost2010PropOp49
 70
     1
102
RTVSPost2010Prop50
 90
       50
102
RTVSPost2010PropOp50
 70
     1
102
RTVSPost2010Prop51ColorIndex
 90
      256
102
RTVSPost2010Prop51ColorRGB
 90
-16777216
102
RTVSPost2010PropOp51
 70
     0
102
RTVSPost2010Prop52
140
1.0
102
RTVSPost2010PropOp52
 70
     0
102
RTVSPost2010Prop53
 90
        2
102
RTVSPost2010PropOp53
 70
     1
102
RTVSPost2010Prop54
  1
strokes_ogs.tif
102
RTVSPost2010PropOp54
 70
     1
102
RTVSPost2010Prop55
280
     0
102
RTVSPost2010PropOp55
 70
     1
102
RTVSPost2010Prop56
140
1.0
102
RTVSPost2010PropOp56
 70
     1
102
RTVSPost2010Prop57
140
1.0
102
RTVSPost2010PropOp57
 70
     1
102
RTVSPropertyOp0
 70
     1
102
RTVSPropertyOp1
 70
     1
102
RTVSPropertyOp2
 70
     1
102
RTVSPropertyOp3
 70
     1
102
RTVSPropertyOp4
 70
     1
102
RTVSPropertyOp5
 70
     1
102
RTVSPropertyOp6
 70
     1
102
RTVSPropertyOp7
 70
     1
102
RTVSPropertyOp8
 70
     1
102
RTVSPropertyOp9
 70
     1
102
RTVSPropertyOp10
 70
     1
102
RTVSPropertyOp11
 70
     1
102
RTVSPropertyOp12
 70
     1
102
RTVSPropertyOp13
 70
     1
102
RTVSPropertyOp14
 70
     1
102
RTVSPropertyOp15
 70
     1
102
RTVSPropertyOp16
 70
     1
102
RTVSPropertyOp17
 70
     1
102
RTVSPropertyOp18
 70
     1
102
RTVSPropertyOp19
 70
     1
102
RTVSPropertyOp20
 70
     1
102
RTVSPropertyOp21
 70
     1
102
RTVSPropertyOp22
 70
     1
102
RTVSPropertyOp23
 70
     1
102
RTVSPropertyOp24
 70
     1
102
RTVSPropertyOp25
 70
     1
102
RTVSPropertyOp26
 70
     1
102
RTVSPropertyOp27
 70
     1
102
RTVSPropertyOp28
 70
     1
102
RTVSPropertyOp29
 70
     1
102
RTVSPropertyOp30
 70
     1
102
RTVSPropertyOp31
 70
     1
102
RTVSPropertyOp32
 70
     1
102
RTVSPropertyOp33
 70
     1
102
RTVSPropertyOp34
 70
     1
102
RTVSPropertyOp35
 70
     1
102
RTVSPropertyOp36
 70
     1
102
RTVSPropertyOp37
 70
     1
102
RTVSPropertyOp38
 70
     1
102
RTVSPropertyOp39
 70
     1
102
RTVSPropertyOp40
 70
     1
102
RTVSPropertyOp41
 70
     1
102
RTVSPropertyOp42
 70
     1
102
RTVSPropertyOp43
 70
     1
102
RTVSPropertyOp44
 70
     1
102
RTVSPropertyOp45
 70
     1
102
RTVSPropertyOp46
 70
     1
102
RTVSPropertyOp47
 70
     1
102
RTVSPropertyOp48
 70
     1
102
RTVSPropertyOp49
 70
     1
102
RTVSPropertyOp50
 70
     1
102
RTVSPropertyOp51
 70
     0
102
RTVSPropertyOp52
 70
     0
102
RTVSPropertyOp53
 70
     1
102
RTVSPropertyOp54
 70
     1
102
RTVSPropertyOp55
 70
     1
102
RTVSPropertyOp56
 70
     1
102
RTVSPropertyOp57
 70
     1
102
RTVSPropertyOp58
 70
     1
102
RTVSPropertyOp59
 70
     1
102
RTVSPropertyOp60
 70
     1
102
RTVSPropertyOp61
 70
     1
102
RTVSPropertyOp62
 70
     1
  0
XRECORD
  5
16B
102
{ACAD_REACTORS
330
16A
102
}
330
16A
100
AcDbXrecord
280
     1
102
RTVSPost2010Prop28
280
     0
102
RTVSPost2010PropOp28
 70
     1
102
RTVSPost2010Prop29
280
     1
102
RTVSPost2010PropOp29
 70
     1
102
RTVSPost2010Prop30
280
     1
102
RTVSPost2010PropOp30
 70
     1
102
RTVSPost2010Prop31
280
     0
102
RTVSPost2010PropOp31
 70
     1
102
RTVSPost2010Prop32
280
     0
102
RTVSPost2010PropOp32
 70
     1
102
RTVSPost2010Prop33
280
     0
102
RTVSPost2010PropOp33
 70
     1
102
RTVSPost2010Prop34
280
     0
102
RTVSPost2010PropOp34
 70
     1
102
RTVSPost2010Prop35
280
     0
102
RTVSPost2010PropOp35
 70
     1
102
RTVSPost2010Prop36
280
     0
102
RTVSPost2010PropOp36
 70
     1
102
RTVSPost2010Prop37
 90
       50
102
RTVSPost2010PropOp37
 70
     1
102
RTVSPost2010Prop38
140
0.0
102
RTVSPost2010PropOp38
 70
     1
102
RTVSPost2010Prop39
140
1.0
102
RTVSPost2010PropOp39
 70
     1
102
RTVSPost2010Prop40
 90
        0
102
RTVSPost2010PropOp40
 70
     1
102
RTVSPost2010Prop41ColorIndex
 90
       18
102
RTVSPost2010Prop41ColorRGB
 90
        0
102
RTVSPost2010PropOp41
 70
     1
102
RTVSPost2010Prop42
 90
       50
102
RTVSPost2010PropOp42
 70
     1
102
RTVSPost2010Prop43
 90
        3
102
RTVSPost2010PropOp43
 70
     1
102
RTVSPost2010Prop44ColorIndex
 90
        5
102
RTVSPost2010Prop44ColorRGB
 90
      255
102
RTVSPost2010PropOp44
 70
     1
102
RTVSPost2010Prop45
280
     0
102
RTVSPost2010PropOp45
 70
     1
102
RTVSPost2010Prop46
 90
       50
102
RTVSPost2010PropOp46
 70
     1
102
RTVSPost2010Prop47
 90
       50
102
RTVSPost2010PropOp47
 70
     1
102
RTVSPost2010Prop48
 90
       50
102
RTVSPost2010PropOp48
 70
     1
102
RTVSPost2010Prop49
280
     0
102
RTVSPost2010PropOp49
 70
     1
102
RTVSPost2010Prop50
 90
       50
102
RTVSPost2010PropOp50
 70
     1
102
RTVSPost2010Prop51ColorIndex
 90
      256
102
RTVSPost2010Prop51ColorRGB
 90
-16777216
102
RTVSPost2010PropOp51
 70
     0
102
RTVSPost2010Prop52
140
1.0
102
RTVSPost2010PropOp52
 70
     0
102
RTVSPost2010Prop53
 90
        2
102
RTVSPost2010PropOp53
 70
     1
102
RTVSPost2010Prop54
  1
strokes_ogs.tif
102
RTVSPost2010PropOp54
 70
     1
102
RTVSPost2010Prop55
280
     0
102
RTVSPost2010PropOp55
 70
     1
102
RTVSPost2010Prop56
140
1.0
102
RTVSPost2010PropOp56
 70
     1
102
RTVSPost2010Prop57
140
1.0
102
RTVSPost2010PropOp57
 70
     1
102
RTVSPropertyOp0
 70
     1
102
RTVSPropertyOp1
 70
     1
102
RTVSPropertyOp2
 70
     1
102
RTVSPropertyOp3
 70
     1
102
RTVSPropertyOp4
 70
     1
102
RTVSPropertyOp5
 70
     1
102
RTVSPropertyOp6
 70
     1
102
RTVSPropertyOp7
 70
     1
102
RTVSPropertyOp8
 70
     1
102
RTVSPropertyOp9
 70
     1
102
RTVSPropertyOp10
 70
     1
102
RTVSPropertyOp11
 70
     1
102
RTVSPropertyOp12
 70
     1
102
RTVSPropertyOp13
 70
     1
102
RTVSPropertyOp14
 70
     1
102
RTVSPropertyOp15
 70
     1
102
RTVSPropertyOp16
 70
     1
102
RTVSPropertyOp17
 70
     1
102
RTVSPropertyOp18
 70
     1
102
RTVSPropertyOp19
 70
     1
102
RTVSPropertyOp20
 70
     1
102
RTVSPropertyOp21
 70
     1
102
RTVSPropertyOp22
 70
     1
102
RTVSPropertyOp23
 70
     1
102
RTVSPropertyOp24
 70
     1
102
RTVSPropertyOp25
 70
     1
102
RTVSPropertyOp26
 70
     1
102
RTVSPropertyOp27
 70
     1
102
RTVSPropertyOp28
 70
     1
102
RTVSPropertyOp29
 70
     1
102
RTVSPropertyOp30
 70
     1
102
RTVSPropertyOp31
 70
     1
102
RTVSPropertyOp32
 70
     1
102
RTVSPropertyOp33
 70
     1
102
RTVSPropertyOp34
 70
     1
102
RTVSPropertyOp35
 70
     1
102
RTVSPropertyOp36
 70
     1
102
RTVSPropertyOp37
 70
     1
102
RTVSPropertyOp38
 70
     1
102
RTVSPropertyOp39
 70
     1
102
RTVSPropertyOp40
 70
     1
102
RTVSPropertyOp41
 70
     1
102
RTVSPropertyOp42
 70
     1
102
RTVSPropertyOp43
 70
     1
102
RTVSPropertyOp44
 70
     1
102
RTVSPropertyOp45
 70
     1
102
RTVSPropertyOp46
 70
     1
102
RTVSPropertyOp47
 70
     1
102
RTVSPropertyOp48
 70
     1
102
RTVSPropertyOp49
 70
     1
102
RTVSPropertyOp50
 70
     1
102
RTVSPropertyOp51
 70
     0
102
RTVSPropertyOp52
 70
     0
102
RTVSPropertyOp53
 70
     1
102
RTVSPropertyOp54
 70
     1
102
RTVSPropertyOp55
 70
     1
102
RTVSPropertyOp56
 70
     1
102
RTVSPropertyOp57
 70
     1
102
RTVSPropertyOp58
 70
     1
102
RTVSPropertyOp59
 70
     1
102
RTVSPropertyOp60
 70
     1
102
RTVSPropertyOp61
 70
     1
102
RTVSPropertyOp62
 70
     1
  0
XRECORD
  5
15F
102
{ACAD_REACTORS
330
15E
102
}
330
15E
100
AcDbXrecord
280
     1
102
RTVSPost2010Prop28
280
     0
102
RTVSPost2010PropOp28
 70
     1
102
RTVSPost2010Prop29
280
     1
102
RTVSPost2010PropOp29
 70
     1
102
RTVSPost2010Prop30
280
     1
102
RTVSPost2010PropOp30
 70
     1
102
RTVSPost2010Prop31
280
     0
102
RTVSPost2010PropOp31
 70
     1
102
RTVSPost2010Prop32
280
     0
102
RTVSPost2010PropOp32
 70
     1
102
RTVSPost2010Prop33
280
     0
102
RTVSPost2010PropOp33
 70
     1
102
RTVSPost2010Prop34
280
     0
102
RTVSPost2010PropOp34
 70
     1
102
RTVSPost2010Prop35
280
     0
102
RTVSPost2010PropOp35
 70
     1
102
RTVSPost2010Prop36
280
     0
102
RTVSPost2010PropOp36
 70
     1
102
RTVSPost2010Prop37
 90
       50
102
RTVSPost2010PropOp37
 70
     1
102
RTVSPost2010Prop38
140
0.0
102
RTVSPost2010PropOp38
 70
     1
102
RTVSPost2010Prop39
140
1.0
102
RTVSPost2010PropOp39
 70
     1
102
RTVSPost2010Prop40
 90
        0
102
RTVSPost2010PropOp40
 70
     1
102
RTVSPost2010Prop41ColorIndex
 90
       18
102
RTVSPost2010Prop41ColorRGB
 90
        0
102
RTVSPost2010PropOp41
 70
     1
102
RTVSPost2010Prop42
 90
       50
102
RTVSPost2010PropOp42
 70
     1
102
RTVSPost2010Prop43
 90
        3
102
RTVSPost2010PropOp43
 70
     1
102
RTVSPost2010Prop44ColorIndex
 90
        5
102
RTVSPost2010Prop44ColorRGB
 90
      255
102
RTVSPost2010PropOp44
 70
     1
102
RTVSPost2010Prop45
280
     0
102
RTVSPost2010PropOp45
 70
     1
102
RTVSPost2010Prop46
 90
       50
102
RTVSPost2010PropOp46
 70
     1
102
RTVSPost2010Prop47
 90
       50
102
RTVSPost2010PropOp47
 70
     1
102
RTVSPost2010Prop48
 90
       50
102
RTVSPost2010PropOp48
 70
     1
102
RTVSPost2010Prop49
280
     0
102
RTVSPost2010PropOp49
 70
     1
102
RTVSPost2010Prop50
 90
       50
102
RTVSPost2010PropOp50
 70
     1
102
RTVSPost2010Prop51ColorIndex
 90
      256
102
RTVSPost2010Prop51ColorRGB
 90
-16777216
102
RTVSPost2010PropOp51
 70
     0
102
RTVSPost2010Prop52
140
1.0
102
RTVSPost2010PropOp52
 70
     0
102
RTVSPost2010Prop53
 90
        2
102
RTVSPost2010PropOp53
 70
     1
102
RTVSPost2010Prop54
  1
strokes_ogs.tif
102
RTVSPost2010PropOp54
 70
     1
102
RTVSPost2010Prop55
280
     0
102
RTVSPost2010PropOp55
 70
     1
102
RTVSPost2010Prop56
140
1.0
102
RTVSPost2010PropOp56
 70
     1
102
RTVSPost2010Prop57
140
1.0
102
RTVSPost2010PropOp57
 70
     1
102
RTVSPropertyOp0
 70
     1
102
RTVSPropertyOp1
 70
     1
102
RTVSPropertyOp2
 70
     1
102
RTVSPropertyOp3
 70
     1
102
RTVSPropertyOp4
 70
     1
102
RTVSPropertyOp5
 70
     1
102
RTVSPropertyOp6
 70
     1
102
RTVSPropertyOp7
 70
     1
102
RTVSPropertyOp8
 70
     1
102
RTVSPropertyOp9
 70
     1
102
RTVSPropertyOp10
 70
     1
102
RTVSPropertyOp11
 70
     1
102
RTVSPropertyOp12
 70
     1
102
RTVSPropertyOp13
 70
     1
102
RTVSPropertyOp14
 70
     1
102
RTVSPropertyOp15
 70
     1
102
RTVSPropertyOp16
 70
     1
102
RTVSPropertyOp17
 70
     1
102
RTVSPropertyOp18
 70
     1
102
RTVSPropertyOp19
 70
     1
102
RTVSPropertyOp20
 70
     1
102
RTVSPropertyOp21
 70
     1
102
RTVSPropertyOp22
 70
     1
102
RTVSPropertyOp23
 70
     1
102
RTVSPropertyOp24
 70
     1
102
RTVSPropertyOp25
 70
     1
102
RTVSPropertyOp26
 70
     1
102
RTVSPropertyOp27
 70
     1
102
RTVSPropertyOp28
 70
     1
102
RTVSPropertyOp29
 70
     1
102
RTVSPropertyOp30
 70
     1
102
RTVSPropertyOp31
 70
     1
102
RTVSPropertyOp32
 70
     1
102
RTVSPropertyOp33
 70
     1
102
RTVSPropertyOp34
 70
     1
102
RTVSPropertyOp35
 70
     1
102
RTVSPropertyOp36
 70
     1
102
RTVSPropertyOp37
 70
     1
102
RTVSPropertyOp38
 70
     1
102
RTVSPropertyOp39
 70
     1
102
RTVSPropertyOp40
 70
     1
102
RTVSPropertyOp41
 70
     1
102
RTVSPropertyOp42
 70
     1
102
RTVSPropertyOp43
 70
     1
102
RTVSPropertyOp44
 70
     1
102
RTVSPropertyOp45
 70
     1
102
RTVSPropertyOp46
 70
     1
102
RTVSPropertyOp47
 70
     1
102
RTVSPropertyOp48
 70
     1
102
RTVSPropertyOp49
 70
     1
102
RTVSPropertyOp50
 70
     1
102
RTVSPropertyOp51
 70
     0
102
RTVSPropertyOp52
 70
     0
102
RTVSPropertyOp53
 70
     1
102
RTVSPropertyOp54
 70
     1
102
RTVSPropertyOp55
 70
     1
102
RTVSPropertyOp56
 70
     1
102
RTVSPropertyOp57
 70
     1
102
RTVSPropertyOp58
 70
     1
102
RTVSPropertyOp59
 70
     1
102
RTVSPropertyOp60
 70
     1
102
RTVSPropertyOp61
 70
     1
102
RTVSPropertyOp62
 70
     1
  0
XRECORD
  5
177
102
{ACAD_REACTORS
330
176
102
}
330
176
100
AcDbXrecord
280
     1
102
RTVSPost2010Prop28
280
     0
102
RTVSPost2010PropOp28
 70
     1
102
RTVSPost2010Prop29
280
     1
102
RTVSPost2010PropOp29
 70
     1
102
RTVSPost2010Prop30
280
     1
102
RTVSPost2010PropOp30
 70
     1
102
RTVSPost2010Prop31
280
     0
102
RTVSPost2010PropOp31
 70
     1
102
RTVSPost2010Prop32
280
     0
102
RTVSPost2010PropOp32
 70
     1
102
RTVSPost2010Prop33
280
     0
102
RTVSPost2010PropOp33
 70
     1
102
RTVSPost2010Prop34
280
     0
102
RTVSPost2010PropOp34
 70
     1
102
RTVSPost2010Prop35
280
     0
102
RTVSPost2010PropOp35
 70
     1
102
RTVSPost2010Prop36
280
     0
102
RTVSPost2010PropOp36
 70
     1
102
RTVSPost2010Prop37
 90
       50
102
RTVSPost2010PropOp37
 70
     1
102
RTVSPost2010Prop38
140
0.0
102
RTVSPost2010PropOp38
 70
     1
102
RTVSPost2010Prop39
140
1.0
102
RTVSPost2010PropOp39
 70
     1
102
RTVSPost2010Prop40
 90
        0
102
RTVSPost2010PropOp40
 70
     1
102
RTVSPost2010Prop41ColorIndex
 90
       18
102
RTVSPost2010Prop41ColorRGB
 90
        0
102
RTVSPost2010PropOp41
 70
     1
102
RTVSPost2010Prop42
 90
       50
102
RTVSPost2010PropOp42
 70
     1
102
RTVSPost2010Prop43
 90
        3
102
RTVSPost2010PropOp43
 70
     1
102
RTVSPost2010Prop44ColorIndex
 90
        5
102
RTVSPost2010Prop44ColorRGB
 90
      255
102
RTVSPost2010PropOp44
 70
     1
102
RTVSPost2010Prop45
280
     0
102
RTVSPost2010PropOp45
 70
     1
102
RTVSPost2010Prop46
 90
       50
102
RTVSPost2010PropOp46
 70
     1
102
RTVSPost2010Prop47
 90
       50
102
RTVSPost2010PropOp47
 70
     1
102
RTVSPost2010Prop48
 90
       50
102
RTVSPost2010PropOp48
 70
     1
102
RTVSPost2010Prop49
280
     0
102
RTVSPost2010PropOp49
 70
     1
102
RTVSPost2010Prop50
 90
       50
102
RTVSPost2010PropOp50
 70
     1
102
RTVSPost2010Prop51ColorIndex
 90
      256
102
RTVSPost2010Prop51ColorRGB
 90
-16777216
102
RTVSPost2010PropOp51
 70
     0
102
RTVSPost2010Prop52
140
1.0
102
RTVSPost2010PropOp52
 70
     0
102
RTVSPost2010Prop53
 90
        2
102
RTVSPost2010PropOp53
 70
     1
102
RTVSPost2010Prop54
  1
strokes_ogs.tif
102
RTVSPost2010PropOp54
 70
     1
102
RTVSPost2010Prop55
280
     0
102
RTVSPost2010PropOp55
 70
     1
102
RTVSPost2010Prop56
140
1.0
102
RTVSPost2010PropOp56
 70
     1
102
RTVSPost2010Prop57
140
1.0
102
RTVSPost2010PropOp57
 70
     1
102
RTVSPropertyOp0
 70
     1
102
RTVSPropertyOp1
 70
     1
102
RTVSPropertyOp2
 70
     1
102
RTVSPropertyOp3
 70
     1
102
RTVSPropertyOp4
 70
     1
102
RTVSPropertyOp5
 70
     1
102
RTVSPropertyOp6
 70
     1
102
RTVSPropertyOp7
 70
     1
102
RTVSPropertyOp8
 70
     1
102
RTVSPropertyOp9
 70
     1
102
RTVSPropertyOp10
 70
     1
102
RTVSPropertyOp11
 70
     1
102
RTVSPropertyOp12
 70
     1
102
RTVSPropertyOp13
 70
     1
102
RTVSPropertyOp14
 70
     1
102
RTVSPropertyOp15
 70
     1
102
RTVSPropertyOp16
 70
     1
102
RTVSPropertyOp17
 70
     1
102
RTVSPropertyOp18
 70
     1
102
RTVSPropertyOp19
 70
     1
102
RTVSPropertyOp20
 70
     1
102
RTVSPropertyOp21
 70
     1
102
RTVSPropertyOp22
 70
     1
102
RTVSPropertyOp23
 70
     1
102
RTVSPropertyOp24
 70
     1
102
RTVSPropertyOp25
 70
     1
102
RTVSPropertyOp26
 70
     1
102
RTVSPropertyOp27
 70
     1
102
RTVSPropertyOp28
 70
     1
102
RTVSPropertyOp29
 70
     1
102
RTVSPropertyOp30
 70
     1
102
RTVSPropertyOp31
 70
     1
102
RTVSPropertyOp32
 70
     1
102
RTVSPropertyOp33
 70
     1
102
RTVSPropertyOp34
 70
     1
102
RTVSPropertyOp35
 70
     1
102
RTVSPropertyOp36
 70
     1
102
RTVSPropertyOp37
 70
     1
102
RTVSPropertyOp38
 70
     1
102
RTVSPropertyOp39
 70
     1
102
RTVSPropertyOp40
 70
     1
102
RTVSPropertyOp41
 70
     1
102
RTVSPropertyOp42
 70
     1
102
RTVSPropertyOp43
 70
     1
102
RTVSPropertyOp44
 70
     1
102
RTVSPropertyOp45
 70
     1
102
RTVSPropertyOp46
 70
     1
102
RTVSPropertyOp47
 70
     1
102
RTVSPropertyOp48
 70
     1
102
RTVSPropertyOp49
 70
     1
102
RTVSPropertyOp50
 70
     1
102
RTVSPropertyOp51
 70
     0
102
RTVSPropertyOp52
 70
     0
102
RTVSPropertyOp53
 70
     1
102
RTVSPropertyOp54
 70
     1
102
RTVSPropertyOp55
 70
     1
102
RTVSPropertyOp56
 70
     1
102
RTVSPropertyOp57
 70
     1
102
RTVSPropertyOp58
 70
     1
102
RTVSPropertyOp59
 70
     1
102
RTVSPropertyOp60
 70
     1
102
RTVSPropertyOp61
 70
     1
102
RTVSPropertyOp62
 70
     1
  0
ENDSEC
  0
EOF
