  0
SECTION
  2
HEADER
  9
$ACADVER
  1
AC1014
  9
$ACADMAINTVER
 70
     9
  9
$DWGCODEPAGE
  3
ANSI_1250
  9
$INSBASE
 10
0.0
 20
0.0
 30
0.0
  9
$EXTMIN
 10
-55.498
 20
-33.6845
 30
0.0
  9
$EXTMAX
 10
54.048
 20
32.3158
 30
0.0
  9
$LIMMIN
 10
0.0
 20
0.0
  9
$LIMMAX
 10
12.0
 20
9.0
  9
$ORTHOMODE
 70
     0
  9
$REGENMODE
 70
     1
  9
$FILLMODE
 70
     1
  9
$QTEXTMODE
 70
     0
  9
$MIRRTEXT
 70
     1
  9
$DRAGMODE
 70
     2
  9
$LTSCALE
 40
1.0
  9
$OSMODE
 70
    37
  9
$ATTMODE
 70
     1
  9
$TEXTSIZE
 40
0.2
  9
$TRACEWID
 40
0.05
  9
$TEXTSTYLE
  7
STANDARD
  9
$CLAYER
  8
0
  9
$CELTYPE
  6
BYLAYER
  9
$CECOLOR
 62
   256
  9
$CELTSCALE
 40
1.0
  9
$DELOBJ
 70
     1
  9
$DISPSILH
 70
     0
  9
$DIMSCALE
 40
1.0
  9
$DIMASZ
 40
0.18
  9
$DIMEXO
 40
0.0625
  9
$DIMDLI
 40
0.38
  9
$DIMRND
 40
0.0
  9
$DIMDLE
 40
0.0
  9
$DIMEXE
 40
0.18
  9
$DIMTP
 40
0.0
  9
$DIMTM
 40
0.0
  9
$DIMTXT
 40
0.18
  9
$DIMCEN
 40
0.09
  9
$DIMTSZ
 40
0.0
  9
$DIMTOL
 70
     0
  9
$DIMLIM
 70
     0
  9
$DIMTIH
 70
     1
  9
$DIMTOH
 70
     1
  9
$DIMSE1
 70
     0
  9
$DIMSE2
 70
     0
  9
$DIMTAD
 70
     0
  9
$DIMZIN
 70
     0
  9
$DIMBLK
  1

  9
$DIMASO
 70
     1
  9
$DIMSHO
 70
     1
  9
$DIMPOST
  1

  9
$DIMAPOST
  1

  9
$DIMALT
 70
     0
  9
$DIMALTD
 70
     2
  9
$DIMALTF
 40
25.4
  9
$DIMLFAC
 40
1.0
  9
$DIMTOFL
 70
     0
  9
$DIMTVP
 40
0.0
  9
$DIMTIX
 70
     0
  9
$DIMSOXD
 70
     0
  9
$DIMSAH
 70
     0
  9
$DIMBLK1
  1

  9
$DIMBLK2
  1

  9
$DIMSTYLE
  2
STANDARD
  9
$DIMCLRD
 70
     0
  9
$DIMCLRE
 70
     0
  9
$DIMCLRT
 70
     0
  9
$DIMTFAC
 40
1.0
  9
$DIMGAP
 40
0.09
  9
$DIMJUST
 70
     0
  9
$DIMSD1
 70
     0
  9
$DIMSD2
 70
     0
  9
$DIMTOLJ
 70
     1
  9
$DIMTZIN
 70
     0
  9
$DIMALTZ
 70
     0
  9
$DIMALTTZ
 70
     0
  9
$DIMFIT
 70
     3
  9
$DIMUPT
 70
     0
  9
$DIMUNIT
 70
     2
  9
$DIMDEC
 70
     4
  9
$DIMTDEC
 70
     4
  9
$DIMALTU
 70
     2
  9
$DIMALTTD
 70
     2
  9
$DIMTXSTY
  7
STANDARD
  9
$DIMAUNIT
 70
     0
  9
$LUNITS
 70
     2
  9
$LUPREC
 70
     4
  9
$SKETCHINC
 40
0.1
  9
$FILLETRAD
 40
0.5
  9
$AUNITS
 70
     0
  9
$AUPREC
 70
     0
  9
$MENU
  1
.
  9
$ELEVATION
 40
0.0
  9
$PELEVATION
 40
0.0
  9
$THICKNESS
 40
0.0
  9
$LIMCHECK
 70
     0
  9
$CHAMFERA
 40
0.5
  9
$CHAMFERB
 40
0.5
  9
$CHAMFERC
 40
1.0
  9
$CHAMFERD
 40
0.0
  9
$SKPOLY
 70
     0
  9
$TDCREATE
 40
2456247.403693657
  9
$TDUPDATE
 40
2456247.403693669
  9
$TDINDWG
 40
0.0000000116
  9
$TDUSRTIMER
 40
0.0000000116
  9
$USRTIMER
 70
     1
  9
$ANGBASE
 50
0.0
  9
$ANGDIR
 70
     0
  9
$PDMODE
 70
     0
  9
$PDSIZE
 40
0.0
  9
$PLINEWID
 40
0.0
  9
$COORDS
 70
     1
  9
$SPLFRAME
 70
     0
  9
$SPLINETYPE
 70
     6
  9
$SPLINESEGS
 70
     8
  9
$ATTDIA
 70
     0
  9
$ATTREQ
 70
     1
  9
$HANDLING
 70
     1
  9
$HANDSEED
  5
D8
  9
$SURFTAB1
 70
     6
  9
$SURFTAB2
 70
     6
  9
$SURFTYPE
 70
     6
  9
$SURFU
 70
     6
  9
$SURFV
 70
     6
  9
$UCSNAME
  2

  9
$UCSORG
 10
0.0
 20
0.0
 30
0.0
  9
$UCSXDIR
 10
1.0
 20
0.0
 30
0.0
  9
$UCSYDIR
 10
0.0
 20
1.0
 30
0.0
  9
$PUCSNAME
  2

  9
$PUCSORG
 10
0.0
 20
0.0
 30
0.0
  9
$PUCSXDIR
 10
1.0
 20
0.0
 30
0.0
  9
$PUCSYDIR
 10
0.0
 20
1.0
 30
0.0
  9
$USERI1
 70
     0
  9
$USERI2
 70
     0
  9
$USERI3
 70
     0
  9
$USERI4
 70
     0
  9
$USERI5
 70
     0
  9
$USERR1
 40
0.0
  9
$USERR2
 40
0.0
  9
$USERR3
 40
0.0
  9
$USERR4
 40
0.0
  9
$USERR5
 40
0.0
  9
$WORLDVIEW
 70
     1
  9
$SHADEDGE
 70
     3
  9
$SHADEDIF
 70
    70
  9
$TILEMODE
 70
     1
  9
$MAXACTVP
 70
    64
  9
$PINSBASE
 10
0.0
 20
0.0
 30
0.0
  9
$PLIMCHECK
 70
     0
  9
$PEXTMIN
 10
1.000000000000000E+20
 20
1.000000000000000E+20
 30
1.000000000000000E+20
  9
$PEXTMAX
 10
-1.000000000000000E+20
 20
-1.000000000000000E+20
 30
-1.000000000000000E+20
  9
$PLIMMIN
 10
0.0
 20
0.0
  9
$PLIMMAX
 10
12.0
 20
9.0
  9
$UNITMODE
 70
     0
  9
$VISRETAIN
 70
     1
  9
$PLINEGEN
 70
     0
  9
$PSLTSCALE
 70
     1
  9
$TREEDEPTH
 70
  3020
  9
$PICKSTYLE
 70
     1
  9
$CMLSTYLE
  2
STANDARD
  9
$CMLJUST
 70
     0
  9
$CMLSCALE
 40
1.0
  9
$PROXYGRAPHICS
 70
     1
  9
$MEASUREMENT
 70
     0
  0
ENDSEC
  0
SECTION
  2
CLASSES
  0
CLASS
  1
ACDBDICTIONARYWDFLT
  2
AcDbDictionaryWithDefault
  3
ObjectDBX Classes
 90
        0
280
     0
281
     0
  0
CLASS
  1
VISUALSTYLE
  2
AcDbVisualStyle
  3
ObjectDBX Classes
 90
     4095
280
     0
281
     0
  0
CLASS
  1
MATERIAL
  2
AcDbMaterial
  3
ObjectDBX Classes
 90
     1153
280
     0
281
     0
  0
CLASS
  1
DICTIONARYVAR
  2
AcDbDictionaryVar
  3
ObjectDBX Classes
 90
        0
280
     0
281
     0
  0
CLASS
  1
XRECORD
  2
AcDbXrecord
  3
AutoCAD 2000
 90
        0
280
     0
281
     0
  0
CLASS
  1
LWPOLYLINE
  2
AcDbPolyline
  3
AutoCAD 2000
 90
        0
280
     0
281
     1
  0
CLASS
  1
HATCH
  2
AcDbHatch
  3
AutoCAD 2000
 90
        0
280
     0
281
     1
  0
CLASS
  1
ACDBPLACEHOLDER
  2
AcDbPlaceHolder
  3
ObjectDBX Classes
 90
        0
280
     0
281
     0
  0
CLASS
  1
LAYOUT
  2
AcDbLayout
  3
ObjectDBX Classes
 90
        0
280
     0
281
     0
  0
ENDSEC
  0
SECTION
  2
TABLES
  0
TABLE
  2
VPORT
  5
8
330
0
100
AcDbSymbolTable
 70
     1
  0
VPORT
  5
29
330
8
100
AcDbSymbolTableRecord
100
AcDbViewportTableRecord
  2
*ACTIVE
 70
     0
 10
0.0
 20
0.0
 11
1.0
 21
1.0
 12
10.42990654205607
 22
4.5
 13
0.0
 23
0.0
 14
0.5
 24
0.5
 15
0.5
 25
0.5
 16
0.0
 26
0.0
 36
1.0
 17
0.0
 27
0.0
 37
0.0
 40
9.0
 41
1.972972972850329
 42
50.0
 43
0.0
 44
0.0
 50
0.0
 51
0.0
 71
     0
 72
   100
 73
     1
 74
     3
 75
     0
 76
     0
 77
     0
 78
     0
  0
ENDTAB
  0
TABLE
  2
LTYPE
  5
5
330
0
100
AcDbSymbolTable
 70
     5
  0
LTYPE
  5
14
330
5
100
AcDbSymbolTableRecord
100
AcDbLinetypeTableRecord
  2
BYBLOCK
 70
     0
  3

 72
    65
 73
     0
 40
0.0
  0
LTYPE
  5
15
330
5
100
AcDbSymbolTableRecord
100
AcDbLinetypeTableRecord
  2
BYLAYER
 70
     0
  3

 72
    65
 73
     0
 40
0.0
  0
LTYPE
  5
16
330
5
100
AcDbSymbolTableRecord
100
AcDbLinetypeTableRecord
  2
CONTINUOUS
 70
     0
  3
Solid line
 72
    65
 73
     0
 40
0.0
  0
LTYPE
  5
72
330
5
100
AcDbSymbolTableRecord
100
AcDbLinetypeTableRecord
  2
NEW_LINE1
 70
     0
  3

 72
    65
 73
     4
 40
1.2
 49
0.5
 74
     4
 75
     0
340
0
 46
1.0
 50
0.0
 44
0.0
 45
0.0
 49
-0.3
 74
     4
 75
     0
340
0
 46
1.0
 50
0.0
 44
0.0
 45
0.0
 49
0.1
 74
     4
 75
     0
340
0
 46
1.0
 50
0.0
 44
0.0
 45
0.0
 49
-0.3
 74
     4
 75
     0
340
0
 46
1.0
 50
0.0
 44
0.0
 45
0.0
  0
LTYPE
  5
74
330
5
100
AcDbSymbolTableRecord
100
AcDbLinetypeTableRecord
  2
NEW_LINE2
 70
     0
  3

 72
    65
 73
     4
 40
1.2
 49
0.5
 74
     4
 75
     0
340
0
 46
1.0
 50
0.0
 44
0.0
 45
0.0
 49
-0.3
 74
     4
 75
     0
340
0
 46
1.0
 50
0.0
 44
0.0
 45
0.0
 49
0.1
 74
     4
 75
     0
340
0
 46
1.0
 50
0.0
 44
0.0
 45
0.0
 49
-0.3
 74
     4
 75
     0
340
0
 46
1.0
 50
0.0
 44
0.0
 45
0.0
  0
LTYPE
  5
76
330
5
100
AcDbSymbolTableRecord
100
AcDbLinetypeTableRecord
  2
NEW_LINE3
 70
     0
  3

 72
    65
 73
     4
 40
1.2
 49
0.5
 74
     4
 75
     0
340
0
 46
1.0
 50
0.0
 44
0.0
 45
0.0
 49
-0.3
 74
     4
 75
     0
340
0
 46
1.0
 50
0.0
 44
0.0
 45
0.0
 49
0.1
 74
     4
 75
     0
340
0
 46
1.0
 50
0.0
 44
0.0
 45
0.0
 49
-0.3
 74
     4
 75
     0
340
0
 46
1.0
 50
0.0
 44
0.0
 45
0.0
  0
LTYPE
  5
78
330
5
100
AcDbSymbolTableRecord
100
AcDbLinetypeTableRecord
  2
NEW_LINE4
 70
     0
  3

 72
    65
 73
     4
 40
1.2
 49
0.5
 74
     4
 75
     0
340
0
 46
1.0
 50
0.0
 44
0.0
 45
0.0
 49
-0.3
 74
     4
 75
     0
340
0
 46
1.0
 50
0.0
 44
0.0
 45
0.0
 49
0.1
 74
     4
 75
     0
340
0
 46
1.0
 50
0.0
 44
0.0
 45
0.0
 49
-0.3
 74
     4
 75
     0
340
0
 46
1.0
 50
0.0
 44
0.0
 45
0.0
  0
ENDTAB
  0
TABLE
  2
LAYER
  5
2
330
0
100
AcDbSymbolTable
 70
     2
  0
LAYER
  5
10
330
2
100
AcDbSymbolTableRecord
100
AcDbLayerTableRecord
  2
0
 70
     0
 62
     7
  6
CONTINUOUS
  0
LAYER
  5
40
330
2
100
AcDbSymbolTableRecord
100
AcDbLayerTableRecord
  2
VRSTVA_1
 70
     0
 62
     7
  6
CONTINUOUS
  0
ENDTAB
  0
TABLE
  2
STYLE
  5
3
330
0
100
AcDbSymbolTable
 70
     1
  0
STYLE
  5
11
330
3
100
AcDbSymbolTableRecord
100
AcDbTextStyleTableRecord
  2
STANDARD
 70
     0
 40
0.0
 41
1.0
 50
0.0
 71
     0
 42
0.2
  3
txt
  4

  0
ENDTAB
  0
TABLE
  2
VIEW
  5
6
330
0
100
AcDbSymbolTable
 70
     0
  0
ENDTAB
  0
TABLE
  2
UCS
  5
7
330
0
100
AcDbSymbolTable
 70
     0
  0
ENDTAB
  0
TABLE
  2
APPID
  5
9
330
0
100
AcDbSymbolTable
 70
     2
  0
APPID
  5
12
330
9
100
AcDbSymbolTableRecord
100
AcDbRegAppTableRecord
  2
ACAD
 70
     0
  0
APPID
  5
3F
330
9
100
AcDbSymbolTableRecord
100
AcDbRegAppTableRecord
  2
ODA
 70
     0
  0
ENDTAB
  0
TABLE
  2
DIMSTYLE
  5
A
330
0
100
AcDbSymbolTable
 70
     1
  0
DIMSTYLE
105
27
330
A
100
AcDbSymbolTableRecord
100
AcDbDimStyleTableRecord
  2
STANDARD
 70
     0
  3

  4

  5

  6

  7

 40
1.0
 41
0.18
 42
0.0625
 43
0.38
 44
0.18
 45
0.0
 46
0.0
 47
0.0
 48
0.0
140
0.18
141
0.09
142
0.0
143
25.4
144
1.0
145
0.0
146
1.0
147
0.09
 71
     0
 72
     0
 73
     1
 74
     1
 75
     0
 76
     0
 77
     0
 78
     0
170
     0
171
     2
172
     0
173
     0
174
     0
175
     0
176
     0
177
     0
178
     0
270
     2
271
     4
272
     4
273
     2
274
     2
340
11
275
     0
280
     0
281
     0
282
     0
283
     1
284
     0
285
     0
286
     0
287
     3
288
     0
  0
ENDTAB
  0
TABLE
  2
BLOCK_RECORD
  5
1
330
0
100
AcDbSymbolTable
 70
     1
  0
BLOCK_RECORD
  5
1F
330
1
100
AcDbSymbolTableRecord
100
AcDbBlockTableRecord
  2
*MODEL_SPACE
  0
BLOCK_RECORD
  5
1B
330
1
100
AcDbSymbolTableRecord
100
AcDbBlockTableRecord
  2
*PAPER_SPACE
  0
ENDTAB
  0
ENDSEC
  0
SECTION
  2
BLOCKS
  0
BLOCK
  5
20
330
1F
100
AcDbEntity
  8
0
100
AcDbBlockBegin
  2
*MODEL_SPACE
 70
     0
 10
0.0
 20
0.0
 30
0.0
  3
*MODEL_SPACE
  1

  0
ENDBLK
  5
21
330
1F
100
AcDbEntity
  8
0
100
AcDbBlockEnd
  0
BLOCK
  5
1C
330
1B
100
AcDbEntity
 67
     1
  8
0
100
AcDbBlockBegin
  2
*PAPER_SPACE
 70
     0
 10
0.0
 20
0.0
 30
0.0
  3
*PAPER_SPACE
  1

  0
ENDBLK
  5
1D
330
1B
100
AcDbEntity
 67
     1
  8
0
100
AcDbBlockEnd
  0
ENDSEC
  0
SECTION
  2
ENTITIES
  0
SPLINE
  5
41
330
1F
100
AcDbEntity
  8
VRSTVA_1
 62
   250
100
AcDbSpline
210
0.0
220
0.0
230
1.0
 70
    11
 71
     3
 72
   120
 73
   116
 74
     0
 42
0.0000000001
 43
0.0000000001
 40
0.0
 40
0.0
 40
0.0
 40
0.0
 40
0.0333333333333333
 40
0.0333333333333333
 40
0.0333333333333333
 40
0.0333333333333333
 40
0.0666666666666667
 40
0.0666666666666667
 40
0.0666666666666667
 40
0.0666666666666667
 40
0.1
 40
0.1
 40
0.1
 40
0.1
 40
0.1333333333333333
 40
0.1333333333333333
 40
0.1333333333333333
 40
0.1333333333333333
 40
0.1666666666666667
 40
0.1666666666666667
 40
0.1666666666666667
 40
0.1666666666666667
 40
0.2
 40
0.2
 40
0.2
 40
0.2
 40
0.2333333333333333
 40
0.2333333333333333
 40
0.2333333333333333
 40
0.2333333333333333
 40
0.2666666666666667
 40
0.2666666666666667
 40
0.2666666666666667
 40
0.2666666666666667
 40
0.3
 40
0.3
 40
0.3
 40
0.3
 40
0.3333333333333333
 40
0.3333333333333333
 40
0.3333333333333333
 40
0.3333333333333333
 40
0.3666666666666666
 40
0.3666666666666666
 40
0.3666666666666666
 40
0.3666666666666666
 40
0.4
 40
0.4
 40
0.4
 40
0.4
 40
0.4333333333333333
 40
0.4333333333333333
 40
0.4333333333333333
 40
0.4333333333333333
 40
0.4666666666666667
 40
0.4666666666666667
 40
0.4666666666666667
 40
0.4666666666666667
 40
0.5
 40
0.5
 40
0.5
 40
0.5
 40
0.5333333333333333
 40
0.5333333333333333
 40
0.5333333333333333
 40
0.5333333333333333
 40
0.5666666666666667
 40
0.5666666666666667
 40
0.5666666666666667
 40
0.5666666666666667
 40
0.6
 40
0.6
 40
0.6
 40
0.6
 40
0.6333333333333333
 40
0.6333333333333333
 40
0.6333333333333333
 40
0.6333333333333333
 40
0.6666666666666666
 40
0.6666666666666666
 40
0.6666666666666666
 40
0.6666666666666666
 40
0.7
 40
0.7
 40
0.7
 40
0.7
 40
0.7333333333333333
 40
0.7333333333333333
 40
0.7333333333333333
 40
0.7333333333333333
 40
0.7666666666666667
 40
0.7666666666666667
 40
0.7666666666666667
 40
0.7666666666666667
 40
0.8
 40
0.8
 40
0.8
 40
0.8
 40
0.8333333333333334
 40
0.8333333333333334
 40
0.8333333333333334
 40
0.8333333333333334
 40
0.8666666666666667
 40
0.8666666666666667
 40
0.8666666666666667
 40
0.8666666666666667
 40
0.9
 40
0.9
 40
0.9
 40
0.9
 40
0.9333333333333333
 40
0.9333333333333333
 40
0.9333333333333333
 40
0.9333333333333333
 40
1.0
 40
1.0
 40
1.0
 40
1.0
 10
-41.1708
 20
30.4229
 30
0.0
 10
-41.1708
 20
30.4229
 30
0.0
 10
-41.1708
 20
30.7777
 30
0.0
 10
-41.1708
 20
30.7777
 30
0.0
 10
-41.1708
 20
30.7777
 30
0.0
 10
-41.1708
 20
30.7777
 30
0.0
 10
-39.8874
 20
30.7799
 30
0.0
 10
-39.8874
 20
30.7799
 30
0.0
 10
-39.8874
 20
30.7799
 30
0.0
 10
-39.8874
 20
30.7799
 30
0.0
 10
-39.8874
 20
29.6559
 30
0.0
 10
-39.8874
 20
29.6559
 30
0.0
 10
-39.8874
 20
29.6559
 30
0.0
 10
-40.0842
 20
29.4986
 30
0.0
 10
-40.2874
 20
29.3808
 30
0.0
 10
-40.497
 20
29.301
 30
0.0
 10
-40.497
 20
29.301
 30
0.0
 10
-40.7065
 20
29.222
 30
0.0
 10
-40.9217
 20
29.1825
 30
0.0
 10
-41.1418
 20
29.1825
 30
0.0
 10
-41.1418
 20
29.1825
 30
0.0
 10
-41.4396
 20
29.1825
 30
0.0
 10
-41.7105
 20
29.246
 30
0.0
 10
-41.9532
 20
29.3737
 30
0.0
 10
-41.9532
 20
29.3737
 30
0.0
 10
-42.1966
 20
29.5007
 30
0.0
 10
-42.3801
 20
29.6856
 30
0.0
 10
-42.5043
 20
29.9261
 30
0.0
 10
-42.5043
 20
29.9261
 30
0.0
 10
-42.6284
 20
30.1674
 30
0.0
 10
-42.6905
 20
30.437
 30
0.0
 10
-42.6905
 20
30.7347
 30
0.0
 10
-42.6905
 20
30.7347
 30
0.0
 10
-42.6905
 20
31.0296
 30
0.0
 10
-42.6284
 20
31.3048
 30
0.0
 10
-42.505
 20
31.5602
 30
0.0
 10
-42.505
 20
31.5602
 30
0.0
 10
-42.3822
 20
31.8163
 30
0.0
 10
-42.2044
 20
32.0061
 30
0.0
 10
-41.973
 20
32.1303
 30
0.0
 10
-41.973
 20
32.1303
 30
0.0
 10
-41.7416
 20
32.2538
 30
0.0
 10
-41.4749
 20
32.3158
 30
0.0
 10
-41.1729
 20
32.3158
 30
0.0
 10
-41.1729
 20
32.3158
 30
0.0
 10
-40.9542
 20
32.3158
 30
0.0
 10
-40.7559
 20
32.2806
 30
0.0
 10
-40.5788
 20
32.2093
 30
0.0
 10
-40.5788
 20
32.2093
 30
0.0
 10
-40.4017
 20
32.1387
 30
0.0
 10
-40.2627
 20
32.04
 30
0.0
 10
-40.1625
 20
31.913
 30
0.0
 10
-40.1625
 20
31.913
 30
0.0
 10
-40.0617
 20
31.786
 30
0.0
 10
-39.9855
 20
31.6209
 30
0.0
 10
-39.9325
 20
31.417
 30
0.0
 10
-39.9325
 20
31.417
 30
0.0
 10
-39.9325
 20
31.417
 30
0.0
 10
-40.2945
 20
31.3175
 30
0.0
 10
-40.2945
 20
31.3175
 30
0.0
 10
-40.2945
 20
31.3175
 30
0.0
 10
-40.3403
 20
31.472
 30
0.0
 10
-40.3968
 20
31.5934
 30
0.0
 10
-40.4638
 20
31.6816
 30
0.0
 10
-40.4638
 20
31.6816
 30
0.0
 10
-40.5315
 20
31.7697
 30
0.0
 10
-40.6282
 20
31.8403
 30
0.0
 10
-40.7538
 20
31.8932
 30
0.0
 10
-40.7538
 20
31.8932
 30
0.0
 10
-40.8787
 20
31.9461
 30
0.0
 10
-41.0184
 20
31.9729
 30
0.0
 10
-41.1708
 20
31.9729
 30
0.0
 10
-41.1708
 20
31.9729
 30
0.0
 10
-41.3542
 20
31.9729
 30
0.0
 10
-41.513
 20
31.9447
 30
0.0
 10
-41.6463
 20
31.889
 30
0.0
 10
-41.6463
 20
31.889
 30
0.0
 10
-41.7804
 20
31.8332
 30
0.0
 10
-41.8876
 20
31.7599
 30
0.0
 10
-41.9702
 20
31.6689
 30
0.0
 10
-41.9702
 20
31.6689
 30
0.0
 10
-42.052
 20
31.5778
 30
0.0
 10
-42.1155
 20
31.4784
 30
0.0
 10
-42.1614
 20
31.369
 30
0.0
 10
-42.1614
 20
31.369
 30
0.0
 10
-42.2383
 20
31.182
 30
0.0
 10
-42.2771
 20
30.9788
 30
0.0
 10
-42.2771
 20
30.7594
 30
0.0
 10
-42.2771
 20
30.7594
 30
0.0
 10
-42.2771
 20
30.4892
 30
0.0
 10
-42.2305
 20
30.2634
 30
0.0
 10
-42.1374
 20
30.0814
 30
0.0
 10
-42.1374
 20
30.0814
 30
0.0
 10
-42.0442
 20
29.8993
 30
0.0
 10
-41.9088
 20
29.7646
 30
0.0
 10
-41.731
 20
29.6764
 30
0.0
 10
-41.731
 20
29.6764
 30
0.0
 10
-41.5532
 20
29.5882
 30
0.0
 10
-41.3648
 20
29.5437
 30
0.0
 10
-41.1651
 20
29.5437
 30
0.0
 10
-41.1651
 20
29.5437
 30
0.0
 10
-40.9909
 20
29.5437
 30
0.0
 10
-40.8215
 20
29.5776
 30
0.0
 10
-40.6564
 20
29.6446
 30
0.0
 10
-40.6564
 20
29.6446
 30
0.0
 10
-40.4906
 20
29.711
 30
0.0
 10
-40.3657
 20
29.7822
 30
0.0
 10
-40.2804
 20
29.8584
 30
0.0
 10
-40.2804
 20
29.8584
 30
0.0
 10
-40.2804
 20
29.8584
 30
0.0
 10
-40.2804
 20
30.4229
 30
0.0
 10
-40.2804
 20
30.4229
 30
0.0
 10
-40.2804
 20
30.4229
 30
0.0
 10
-40.2804
 20
30.4229
 30
0.0
 10
-41.1708
 20
30.4229
 30
0.0
 10
-41.1708
 20
30.4229
 30
0.0
  0
SPLINE
  5
42
330
1F
100
AcDbEntity
  8
VRSTVA_1
 62
   250
100
AcDbSpline
210
0.0
220
0.0
230
1.0
 70
    11
 71
     3
 72
    92
 73
    88
 74
     0
 42
0.0000000001
 43
0.0000000001
 40
0.0
 40
0.0
 40
0.0
 40
0.0
 40
0.0434782608695652
 40
0.0434782608695652
 40
0.0434782608695652
 40
0.0434782608695652
 40
0.0869565217391304
 40
0.0869565217391304
 40
0.0869565217391304
 40
0.0869565217391304
 40
0.1304347826086956
 40
0.1304347826086956
 40
0.1304347826086956
 40
0.1304347826086956
 40
0.1739130434782609
 40
0.1739130434782609
 40
0.1739130434782609
 40
0.1739130434782609
 40
0.2173913043478261
 40
0.2173913043478261
 40
0.2173913043478261
 40
0.2173913043478261
 40
0.2608695652173913
 40
0.2608695652173913
 40
0.2608695652173913
 40
0.2608695652173913
 40
0.3043478260869565
 40
0.3043478260869565
 40
0.3043478260869565
 40
0.3043478260869565
 40
0.3478260869565217
 40
0.3478260869565217
 40
0.3478260869565217
 40
0.3478260869565217
 40
0.391304347826087
 40
0.391304347826087
 40
0.391304347826087
 40
0.391304347826087
 40
0.4347826086956522
 40
0.4347826086956522
 40
0.4347826086956522
 40
0.4347826086956522
 40
0.4782608695652174
 40
0.4782608695652174
 40
0.4782608695652174
 40
0.4782608695652174
 40
0.5217391304347826
 40
0.5217391304347826
 40
0.5217391304347826
 40
0.5217391304347826
 40
0.5652173913043478
 40
0.5652173913043478
 40
0.5652173913043478
 40
0.5652173913043478
 40
0.6086956521739131
 40
0.6086956521739131
 40
0.6086956521739131
 40
0.6086956521739131
 40
0.6521739130434783
 40
0.6521739130434783
 40
0.6521739130434783
 40
0.6521739130434783
 40
0.6956521739130435
 40
0.6956521739130435
 40
0.6956521739130435
 40
0.6956521739130435
 40
0.7391304347826086
 40
0.7391304347826086
 40
0.7391304347826086
 40
0.7391304347826086
 40
0.782608695652174
 40
0.782608695652174
 40
0.782608695652174
 40
0.782608695652174
 40
0.8260869565217391
 40
0.8260869565217391
 40
0.8260869565217391
 40
0.8260869565217391
 40
0.8695652173913043
 40
0.8695652173913043
 40
0.8695652173913043
 40
0.8695652173913043
 40
0.9130434782608695
 40
0.9130434782608695
 40
0.9130434782608695
 40
0.9130434782608695
 40
1.0
 40
1.0
 40
1.0
 40
1.0
 10
-38.2709
 20
30.0277
 30
0.0
 10
-38.2709
 20
30.0277
 30
0.0
 10
-37.88
 20
30.0609
 30
0.0
 10
-37.88
 20
30.0609
 30
0.0
 10
-37.88
 20
30.0609
 30
0.0
 10
-37.8511
 20
29.8704
 30
0.0
 10
-37.7841
 20
29.7279
 30
0.0
 10
-37.679
 20
29.6319
 30
0.0
 10
-37.679
 20
29.6319
 30
0.0
 10
-37.5731
 20
29.536
 30
0.0
 10
-37.4461
 20
29.488
 30
0.0
 10
-37.2973
 20
29.488
 30
0.0
 10
-37.2973
 20
29.488
 30
0.0
 10
-37.118
 20
29.488
 30
0.0
 10
-36.9664
 20
29.5557
 30
0.0
 10
-36.8429
 20
29.6905
 30
0.0
 10
-36.8429
 20
29.6905
 30
0.0
 10
-36.7187
 20
29.826
 30
0.0
 10
-36.6566
 20
30.0052
 30
0.0
 10
-36.6566
 20
30.2281
 30
0.0
 10
-36.6566
 20
30.2281
 30
0.0
 10
-36.6566
 20
30.4405
 30
0.0
 10
-36.7159
 20
30.6077
 30
0.0
 10
-36.8351
 20
30.7305
 30
0.0
 10
-36.8351
 20
30.7305
 30
0.0
 10
-36.9544
 20
30.8532
 30
0.0
 10
-37.1103
 20
30.9146
 30
0.0
 10
-37.3036
 20
30.9146
 30
0.0
 10
-37.3036
 20
30.9146
 30
0.0
 10
-37.4236
 20
30.9146
 30
0.0
 10
-37.5315
 20
30.8871
 30
0.0
 10
-37.6282
 20
30.8328
 30
0.0
 10
-37.6282
 20
30.8328
 30
0.0
 10
-37.7248
 20
30.7784
 30
0.0
 10
-37.8003
 20
30.7079
 30
0.0
 10
-37.8553
 20
30.6211
 30
0.0
 10
-37.8553
 20
30.6211
 30
0.0
 10
-37.8553
 20
30.6211
 30
0.0
 10
-38.2046
 20
30.6663
 30
0.0
 10
-38.2046
 20
30.6663
 30
0.0
 10
-38.2046
 20
30.6663
 30
0.0
 10
-38.2046
 20
30.6663
 30
0.0
 10
-37.9111
 20
32.2227
 30
0.0
 10
-37.9111
 20
32.2227
 30
0.0
 10
-37.9111
 20
32.2227
 30
0.0
 10
-37.9111
 20
32.2227
 30
0.0
 10
-36.404
 20
32.2227
 30
0.0
 10
-36.404
 20
32.2227
 30
0.0
 10
-36.404
 20
32.2227
 30
0.0
 10
-36.404
 20
32.2227
 30
0.0
 10
-36.404
 20
31.8671
 30
0.0
 10
-36.404
 20
31.8671
 30
0.0
 10
-36.404
 20
31.8671
 30
0.0
 10
-36.404
 20
31.8671
 30
0.0
 10
-37.6133
 20
31.8671
 30
0.0
 10
-37.6133
 20
31.8671
 30
0.0
 10
-37.6133
 20
31.8671
 30
0.0
 10
-37.6133
 20
31.8671
 30
0.0
 10
-37.777
 20
31.0529
 30
0.0
 10
-37.777
 20
31.0529
 30
0.0
 10
-37.777
 20
31.0529
 30
0.0
 10
-37.595
 20
31.1799
 30
0.0
 10
-37.4038
 20
31.2434
 30
0.0
 10
-37.2041
 20
31.2434
 30
0.0
 10
-37.2041
 20
31.2434
 30
0.0
 10
-36.9395
 20
31.2434
 30
0.0
 10
-36.7166
 20
31.1517
 30
0.0
 10
-36.5346
 20
30.9682
 30
0.0
 10
-36.5346
 20
30.9682
 30
0.0
 10
-36.3525
 20
30.7848
 30
0.0
 10
-36.2615
 20
30.5491
 30
0.0
 10
-36.2615
 20
30.2613
 30
0.0
 10
-36.2615
 20
30.2613
 30
0.0
 10
-36.2615
 20
29.9868
 30
0.0
 10
-36.3419
 20
29.7498
 30
0.0
 10
-36.5014
 20
29.5501
 30
0.0
 10
-36.5014
 20
29.5501
 30
0.0
 10
-36.6961
 20
29.3053
 30
0.0
 10
-36.9614
 20
29.1825
 30
0.0
 10
-37.2973
 20
29.1825
 30
0.0
 10
-37.2973
 20
29.1825
 30
0.0
 10
-37.5731
 20
29.1825
 30
0.0
 10
-37.7982
 20
29.2594
 30
0.0
 10
-37.9725
 20
29.4139
 30
0.0
 10
-37.9725
 20
29.4139
 30
0.0
 10
-38.1467
 20
29.5684
 30
0.0
 10
-38.2462
 20
29.773
 30
0.0
 10
-38.2709
 20
30.0277
 30
0.0
  0
SPLINE
  5
43
330
1F
100
AcDbEntity
  8
VRSTVA_1
 62
   250
100
AcDbSpline
210
0.0
220
0.0
230
1.0
 70
    11
 71
     3
 72
    20
 73
    16
 74
     0
 42
0.0000000001
 43
0.0000000001
 40
0.0
 40
0.0
 40
0.0
 40
0.0
 40
0.2
 40
0.2
 40
0.2
 40
0.2
 40
0.4
 40
0.4
 40
0.4
 40
0.4
 40
0.6
 40
0.6
 40
0.6
 40
0.6
 40
1.0
 40
1.0
 40
1.0
 40
1.0
 10
-36.0922
 20
29.1825
 30
0.0
 10
-36.0922
 20
29.1825
 30
0.0
 10
-35.2138
 20
32.3158
 30
0.0
 10
-35.2138
 20
32.3158
 30
0.0
 10
-35.2138
 20
32.3158
 30
0.0
 10
-35.2138
 20
32.3158
 30
0.0
 10
-34.916
 20
32.3158
 30
0.0
 10
-34.916
 20
32.3158
 30
0.0
 10
-34.916
 20
32.3158
 30
0.0
 10
-34.916
 20
32.3158
 30
0.0
 10
-35.7923
 20
29.1825
 30
0.0
 10
-35.7923
 20
29.1825
 30
0.0
 10
-35.7923
 20
29.1825
 30
0.0
 10
-35.7923
 20
29.1825
 30
0.0
 10
-36.0922
 20
29.1825
 30
0.0
 10
-36.0922
 20
29.1825
 30
0.0
  0
SPLINE
  5
44
330
1F
100
AcDbEntity
  8
VRSTVA_1
 62
   250
100
AcDbSpline
210
0.0
220
0.0
230
1.0
 70
    11
 71
     3
 72
    48
 73
    44
 74
     0
 42
0.0000000001
 43
0.0000000001
 40
0.0
 40
0.0
 40
0.0
 40
0.0
 40
0.0833333333333333
 40
0.0833333333333333
 40
0.0833333333333333
 40
0.0833333333333333
 40
0.1666666666666667
 40
0.1666666666666667
 40
0.1666666666666667
 40
0.1666666666666667
 40
0.25
 40
0.25
 40
0.25
 40
0.25
 40
0.3333333333333333
 40
0.3333333333333333
 40
0.3333333333333333
 40
0.3333333333333333
 40
0.4166666666666667
 40
0.4166666666666667
 40
0.4166666666666667
 40
0.4166666666666667
 40
0.5
 40
0.5
 40
0.5
 40
0.5
 40
0.5833333333333334
 40
0.5833333333333334
 40
0.5833333333333334
 40
0.5833333333333334
 40
0.6666666666666666
 40
0.6666666666666666
 40
0.6666666666666666
 40
0.6666666666666666
 40
0.75
 40
0.75
 40
0.75
 40
0.75
 40
0.8333333333333334
 40
0.8333333333333334
 40
0.8333333333333334
 40
0.8333333333333334
 40
1.0
 40
1.0
 40
1.0
 40
1.0
 10
-33.5479
 20
29.234
 30
0.0
 10
-33.5479
 20
29.234
 30
0.0
 10
-33.5479
 20
29.9593
 30
0.0
 10
-33.5479
 20
29.9593
 30
0.0
 10
-33.5479
 20
29.9593
 30
0.0
 10
-33.5479
 20
29.9593
 30
0.0
 10
-34.8624
 20
29.9593
 30
0.0
 10
-34.8624
 20
29.9593
 30
0.0
 10
-34.8624
 20
29.9593
 30
0.0
 10
-34.8624
 20
29.9593
 30
0.0
 10
-34.8624
 20
30.3008
 30
0.0
 10
-34.8624
 20
30.3008
 30
0.0
 10
-34.8624
 20
30.3008
 30
0.0
 10
-34.8624
 20
30.3008
 30
0.0
 10
-33.4795
 20
32.2643
 30
0.0
 10
-33.4795
 20
32.2643
 30
0.0
 10
-33.4795
 20
32.2643
 30
0.0
 10
-33.4795
 20
32.2643
 30
0.0
 10
-33.1754
 20
32.2643
 30
0.0
 10
-33.1754
 20
32.2643
 30
0.0
 10
-33.1754
 20
32.2643
 30
0.0
 10
-33.1754
 20
32.2643
 30
0.0
 10
-33.1754
 20
30.3008
 30
0.0
 10
-33.1754
 20
30.3008
 30
0.0
 10
-33.1754
 20
30.3008
 30
0.0
 10
-33.1754
 20
30.3008
 30
0.0
 10
-32.7662
 20
30.3008
 30
0.0
 10
-32.7662
 20
30.3008
 30
0.0
 10
-32.7662
 20
30.3008
 30
0.0
 10
-32.7662
 20
30.3008
 30
0.0
 10
-32.7662
 20
29.9593
 30
0.0
 10
-32.7662
 20
29.9593
 30
0.0
 10
-32.7662
 20
29.9593
 30
0.0
 10
-32.7662
 20
29.9593
 30
0.0
 10
-33.1754
 20
29.9593
 30
0.0
 10
-33.1754
 20
29.9593
 30
0.0
 10
-33.1754
 20
29.9593
 30
0.0
 10
-33.1754
 20
29.9593
 30
0.0
 10
-33.1754
 20
29.234
 30
0.0
 10
-33.1754
 20
29.234
 30
0.0
 10
-33.1754
 20
29.234
 30
0.0
 10
-33.1754
 20
29.234
 30
0.0
 10
-33.5479
 20
29.234
 30
0.0
 10
-33.5479
 20
29.234
 30
0.0
  0
SPLINE
  5
45
330
1F
100
AcDbEntity
  8
VRSTVA_1
 62
   250
100
AcDbSpline
210
0.0
220
0.0
230
1.0
 70
    11
 71
     3
 72
    16
 73
    12
 74
     0
 42
0.0000000001
 43
0.0000000001
 40
0.0
 40
0.0
 40
0.0
 40
0.0
 40
0.25
 40
0.25
 40
0.25
 40
0.25
 40
0.5
 40
0.5
 40
0.5
 40
0.5
 40
1.0
 40
1.0
 40
1.0
 40
1.0
 10
-33.5479
 20
30.3008
 30
0.0
 10
-33.5479
 20
30.3008
 30
0.0
 10
-33.5479
 20
31.6667
 30
0.0
 10
-33.5479
 20
31.6667
 30
0.0
 10
-33.5479
 20
31.6667
 30
0.0
 10
-33.5479
 20
31.6667
 30
0.0
 10
-34.4962
 20
30.3008
 30
0.0
 10
-34.4962
 20
30.3008
 30
0.0
 10
-34.4962
 20
30.3008
 30
0.0
 10
-34.4962
 20
30.3008
 30
0.0
 10
-33.5479
 20
30.3008
 30
0.0
 10
-33.5479
 20
30.3008
 30
0.0
  0
SPLINE
  5
46
330
1F
100
AcDbEntity
  8
VRSTVA_1
 62
   250
100
AcDbSpline
210
0.0
220
0.0
230
1.0
 70
    11
 71
     3
 72
    28
 73
    24
 74
     0
 42
0.0000000001
 43
0.0000000001
 40
0.0
 40
0.0
 40
0.0
 40
0.0
 40
0.1428571428571428
 40
0.1428571428571428
 40
0.1428571428571428
 40
0.1428571428571428
 40
0.2857142857142857
 40
0.2857142857142857
 40
0.2857142857142857
 40
0.2857142857142857
 40
0.4285714285714285
 40
0.4285714285714285
 40
0.4285714285714285
 40
0.4285714285714285
 40
0.5714285714285714
 40
0.5714285714285714
 40
0.5714285714285714
 40
0.5714285714285714
 40
0.7142857142857143
 40
0.7142857142857143
 40
0.7142857142857143
 40
0.7142857142857143
 40
1.0
 40
1.0
 40
1.0
 40
1.0
 10
-32.2639
 20
31.1912
 30
0.0
 10
-32.2639
 20
31.1912
 30
0.0
 10
-32.3676
 20
31.7683
 30
0.0
 10
-32.3676
 20
31.7683
 30
0.0
 10
-32.3676
 20
31.7683
 30
0.0
 10
-32.3676
 20
31.7683
 30
0.0
 10
-32.3676
 20
32.2643
 30
0.0
 10
-32.3676
 20
32.2643
 30
0.0
 10
-32.3676
 20
32.2643
 30
0.0
 10
-32.3676
 20
32.2643
 30
0.0
 10
-31.9435
 20
32.2643
 30
0.0
 10
-31.9435
 20
32.2643
 30
0.0
 10
-31.9435
 20
32.2643
 30
0.0
 10
-31.9435
 20
32.2643
 30
0.0
 10
-31.9435
 20
31.7683
 30
0.0
 10
-31.9435
 20
31.7683
 30
0.0
 10
-31.9435
 20
31.7683
 30
0.0
 10
-31.9435
 20
31.7683
 30
0.0
 10
-32.0367
 20
31.1912
 30
0.0
 10
-32.0367
 20
31.1912
 30
0.0
 10
-32.0367
 20
31.1912
 30
0.0
 10
-32.0367
 20
31.1912
 30
0.0
 10
-32.2639
 20
31.1912
 30
0.0
 10
-32.2639
 20
31.1912
 30
0.0
  0
SPLINE
  5
47
330
1F
100
AcDbEntity
  8
VRSTVA_1
 62
   250
100
AcDbSpline
210
0.0
220
0.0
230
1.0
 70
    11
 71
     3
 72
    28
 73
    24
 74
     0
 42
0.0000000001
 43
0.0000000001
 40
0.0
 40
0.0
 40
0.0
 40
0.0
 40
0.1428571428571428
 40
0.1428571428571428
 40
0.1428571428571428
 40
0.1428571428571428
 40
0.2857142857142857
 40
0.2857142857142857
 40
0.2857142857142857
 40
0.2857142857142857
 40
0.4285714285714285
 40
0.4285714285714285
 40
0.4285714285714285
 40
0.4285714285714285
 40
0.5714285714285714
 40
0.5714285714285714
 40
0.5714285714285714
 40
0.5714285714285714
 40
0.7142857142857143
 40
0.7142857142857143
 40
0.7142857142857143
 40
0.7142857142857143
 40
1.0
 40
1.0
 40
1.0
 40
1.0
 10
-31.5795
 20
31.1912
 30
0.0
 10
-31.5795
 20
31.1912
 30
0.0
 10
-31.6811
 20
31.7683
 30
0.0
 10
-31.6811
 20
31.7683
 30
0.0
 10
-31.6811
 20
31.7683
 30
0.0
 10
-31.6811
 20
31.7683
 30
0.0
 10
-31.6811
 20
32.2643
 30
0.0
 10
-31.6811
 20
32.2643
 30
0.0
 10
-31.6811
 20
32.2643
 30
0.0
 10
-31.6811
 20
32.2643
 30
0.0
 10
-31.257
 20
32.2643
 30
0.0
 10
-31.257
 20
32.2643
 30
0.0
 10
-31.257
 20
32.2643
 30
0.0
 10
-31.257
 20
32.2643
 30
0.0
 10
-31.257
 20
31.7683
 30
0.0
 10
-31.257
 20
31.7683
 30
0.0
 10
-31.257
 20
31.7683
 30
0.0
 10
-31.257
 20
31.7683
 30
0.0
 10
-31.3565
 20
31.1912
 30
0.0
 10
-31.3565
 20
31.1912
 30
0.0
 10
-31.3565
 20
31.1912
 30
0.0
 10
-31.3565
 20
31.1912
 30
0.0
 10
-31.5795
 20
31.1912
 30
0.0
 10
-31.5795
 20
31.1912
 30
0.0
  0
SPLINE
  5
48
330
1F
100
AcDbEntity
  8
VRSTVA_1
 62
   250
100
AcDbSpline
210
0.0
220
0.0
230
1.0
 70
    11
 71
     3
 72
    20
 73
    16
 74
     0
 42
0.0000000001
 43
0.0000000001
 40
0.0
 40
0.0
 40
0.0
 40
0.0
 40
0.2
 40
0.2
 40
0.2
 40
0.2
 40
0.4
 40
0.4
 40
0.4
 40
0.4
 40
0.6
 40
0.6
 40
0.6
 40
0.6
 40
1.0
 40
1.0
 40
1.0
 40
1.0
 10
-52.3917
 20
20.0384
 30
0.0
 10
-52.3917
 20
20.0384
 30
0.0
 10
-51.8902
 20
23.5922
 30
0.0
 10
-51.8902
 20
23.5922
 30
0.0
 10
-51.8902
 20
23.5922
 30
0.0
 10
-51.8902
 20
23.5922
 30
0.0
 10
-51.7788
 20
23.5922
 30
0.0
 10
-51.7788
 20
23.5922
 30
0.0
 10
-51.7788
 20
23.5922
 30
0.0
 10
-51.7788
 20
23.5922
 30
0.0
 10
-51.2439
 20
20.0384
 30
0.0
 10
-51.2439
 20
20.0384
 30
0.0
 10
-51.2439
 20
20.0384
 30
0.0
 10
-51.2439
 20
20.0384
 30
0.0
 10
-52.3917
 20
20.0384
 30
0.0
 10
-52.3917
 20
20.0384
 30
0.0
  0
SPLINE
  5
49
330
1F
100
AcDbEntity
  8
VRSTVA_1
 62
   250
100
AcDbSpline
210
0.0
220
0.0
230
1.0
 70
    11
 71
     3
 72
    20
 73
    16
 74
     0
 42
0.0000000001
 43
0.0000000001
 40
0.0
 40
0.0
 40
0.0
 40
0.0
 40
0.2
 40
0.2
 40
0.2
 40
0.2
 40
0.4
 40
0.4
 40
0.4
 40
0.4
 40
0.6
 40
0.6
 40
0.6
 40
0.6
 40
1.0
 40
1.0
 40
1.0
 40
1.0
 10
-48.1829
 20
28.7724
 30
0.0
 10
-48.1829
 20
28.7724
 30
0.0
 10
-44.6291
 20
28.2709
 30
0.0
 10
-44.6291
 20
28.2709
 30
0.0
 10
-44.6291
 20
28.2709
 30
0.0
 10
-44.6291
 20
28.2709
 30
0.0
 10
-44.6291
 20
28.1595
 30
0.0
 10
-44.6291
 20
28.1595
 30
0.0
 10
-44.6291
 20
28.1595
 30
0.0
 10
-44.6291
 20
28.1595
 30
0.0
 10
-48.1829
 20
27.6246
 30
0.0
 10
-48.1829
 20
27.6246
 30
0.0
 10
-48.1829
 20
27.6246
 30
0.0
 10
-48.1829
 20
27.6246
 30
0.0
 10
-48.1829
 20
28.7724
 30
0.0
 10
-48.1829
 20
28.7724
 30
0.0
  0
SPLINE
  5
4A
330
1F
100
AcDbEntity
  8
VRSTVA_1
 62
   250
100
AcDbSpline
210
0.0
220
0.0
230
1.0
 70
    11
 71
     3
 72
    20
 73
    16
 74
     0
 42
0.0000000001
 43
0.0000000001
 40
0.0
 40
0.0
 40
0.0
 40
0.0
 40
0.2
 40
0.2
 40
0.2
 40
0.2
 40
0.4
 40
0.4
 40
0.4
 40
0.4
 40
0.6
 40
0.6
 40
0.6
 40
0.6
 40
1.0
 40
1.0
 40
1.0
 40
1.0
 10
-26.6293
 20
27.6688
 30
0.0
 10
-26.6293
 20
27.6688
 30
0.0
 10
-30.1831
 20
28.1704
 30
0.0
 10
-30.1831
 20
28.1704
 30
0.0
 10
-30.1831
 20
28.1704
 30
0.0
 10
-30.1831
 20
28.1704
 30
0.0
 10
-30.1831
 20
28.2818
 30
0.0
 10
-30.1831
 20
28.2818
 30
0.0
 10
-30.1831
 20
28.2818
 30
0.0
 10
-30.1831
 20
28.2818
 30
0.0
 10
-26.6293
 20
28.8167
 30
0.0
 10
-26.6293
 20
28.8167
 30
0.0
 10
-26.6293
 20
28.8167
 30
0.0
 10
-26.6293
 20
28.8167
 30
0.0
 10
-26.6293
 20
27.6688
 30
0.0
 10
-26.6293
 20
27.6688
 30
0.0
  0
SPLINE
  5
4B
330
1F
100
AcDbEntity
  8
VRSTVA_1
 62
   250
100
AcDbSpline
210
0.0
220
0.0
230
1.0
 70
    11
 71
     3
 72
   116
 73
   112
 74
     0
 42
0.0000000001
 43
0.0000000001
 40
0.0
 40
0.0
 40
0.0
 40
0.0
 40
0.0344827586206897
 40
0.0344827586206897
 40
0.0344827586206897
 40
0.0344827586206897
 40
0.0689655172413793
 40
0.0689655172413793
 40
0.0689655172413793
 40
0.0689655172413793
 40
0.103448275862069
 40
0.103448275862069
 40
0.103448275862069
 40
0.103448275862069
 40
0.1379310344827586
 40
0.1379310344827586
 40
0.1379310344827586
 40
0.1379310344827586
 40
0.1724137931034483
 40
0.1724137931034483
 40
0.1724137931034483
 40
0.1724137931034483
 40
0.2068965517241379
 40
0.2068965517241379
 40
0.2068965517241379
 40
0.2068965517241379
 40
0.2413793103448276
 40
0.2413793103448276
 40
0.2413793103448276
 40
0.2413793103448276
 40
0.2758620689655172
 40
0.2758620689655172
 40
0.2758620689655172
 40
0.2758620689655172
 40
0.3103448275862069
 40
0.3103448275862069
 40
0.3103448275862069
 40
0.3103448275862069
 40
0.3448275862068966
 40
0.3448275862068966
 40
0.3448275862068966
 40
0.3448275862068966
 40
0.3793103448275862
 40
0.3793103448275862
 40
0.3793103448275862
 40
0.3793103448275862
 40
0.4137931034482759
 40
0.4137931034482759
 40
0.4137931034482759
 40
0.4137931034482759
 40
0.4482758620689655
 40
0.4482758620689655
 40
0.4482758620689655
 40
0.4482758620689655
 40
0.4827586206896552
 40
0.4827586206896552
 40
0.4827586206896552
 40
0.4827586206896552
 40
0.5172413793103449
 40
0.5172413793103449
 40
0.5172413793103449
 40
0.5172413793103449
 40
0.5517241379310345
 40
0.5517241379310345
 40
0.5517241379310345
 40
0.5517241379310345
 40
0.5862068965517241
 40
0.5862068965517241
 40
0.5862068965517241
 40
0.5862068965517241
 40
0.6206896551724138
 40
0.6206896551724138
 40
0.6206896551724138
 40
0.6206896551724138
 40
0.6551724137931034
 40
0.6551724137931034
 40
0.6551724137931034
 40
0.6551724137931034
 40
0.6896551724137931
 40
0.6896551724137931
 40
0.6896551724137931
 40
0.6896551724137931
 40
0.7241379310344828
 40
0.7241379310344828
 40
0.7241379310344828
 40
0.7241379310344828
 40
0.7586206896551724
 40
0.7586206896551724
 40
0.7586206896551724
 40
0.7586206896551724
 40
0.7931034482758621
 40
0.7931034482758621
 40
0.7931034482758621
 40
0.7931034482758621
 40
0.8275862068965517
 40
0.8275862068965517
 40
0.8275862068965517
 40
0.8275862068965517
 40
0.8620689655172413
 40
0.8620689655172413
 40
0.8620689655172413
 40
0.8620689655172413
 40
0.896551724137931
 40
0.896551724137931
 40
0.896551724137931
 40
0.896551724137931
 40
0.9310344827586207
 40
0.9310344827586207
 40
0.9310344827586207
 40
0.9310344827586207
 40
1.0
 40
1.0
 40
1.0
 40
1.0
 10
-52.4424
 20
-1.3307
 30
0.0
 10
-52.4424
 20
-1.3307
 30
0.0
 10
-54.6374
 20
-1.3307
 30
0.0
 10
-54.6374
 20
-1.3307
 30
0.0
 10
-54.6374
 20
-1.3307
 30
0.0
 10
-54.6374
 20
-1.3307
 30
0.0
 10
-54.6374
 20
-0.9984
 30
0.0
 10
-54.6374
 20
-0.9984
 30
0.0
 10
-54.6374
 20
-0.9984
 30
0.0
 10
-54.6374
 20
-0.9984
 30
0.0
 10
-54.3297
 20
-0.9984
 30
0.0
 10
-54.3297
 20
-0.9984
 30
0.0
 10
-54.3297
 20
-0.9984
 30
0.0
 10
-54.437
 20
-0.9292
 30
0.0
 10
-54.5238
 20
-0.8375
 30
0.0
 10
-54.5887
 20
-0.7232
 30
0.0
 10
-54.5887
 20
-0.7232
 30
0.0
 10
-54.6543
 20
-0.6089
 30
0.0
 10
-54.6875
 20
-0.4784
 30
0.0
 10
-54.6875
 20
-0.3323
 30
0.0
 10
-54.6875
 20
-0.3323
 30
0.0
 10
-54.6875
 20
-0.1701
 30
0.0
 10
-54.6536
 20
-0.0367
 30
0.0
 10
-54.5859
 20
0.067
 30
0.0
 10
-54.5859
 20
0.067
 30
0.0
 10
-54.5181
 20
0.1714
 30
0.0
 10
-54.4243
 20
0.2448
 30
0.0
 10
-54.3029
 20
0.2871
 30
0.0
 10
-54.3029
 20
0.2871
 30
0.0
 10
-54.5591
 20
0.4614
 30
0.0
 10
-54.6875
 20
0.6872
 30
0.0
 10
-54.6875
 20
0.9652
 30
0.0
 10
-54.6875
 20
0.9652
 30
0.0
 10
-54.6875
 20
1.1832
 30
0.0
 10
-54.6268
 20
1.3504
 30
0.0
 10
-54.5061
 20
1.4675
 30
0.0
 10
-54.5061
 20
1.4675
 30
0.0
 10
-54.3855
 20
1.5846
 30
0.0
 10
-54.1999
 20
1.6432
 30
0.0
 10
-53.9495
 20
1.6432
 30
0.0
 10
-53.9495
 20
1.6432
 30
0.0
 10
-53.9495
 20
1.6432
 30
0.0
 10
-52.4424
 20
1.6432
 30
0.0
 10
-52.4424
 20
1.6432
 30
0.0
 10
-52.4424
 20
1.6432
 30
0.0
 10
-52.4424
 20
1.6432
 30
0.0
 10
-52.4424
 20
1.2735
 30
0.0
 10
-52.4424
 20
1.2735
 30
0.0
 10
-52.4424
 20
1.2735
 30
0.0
 10
-52.4424
 20
1.2735
 30
0.0
 10
-53.8253
 20
1.2735
 30
0.0
 10
-53.8253
 20
1.2735
 30
0.0
 10
-53.8253
 20
1.2735
 30
0.0
 10
-53.9741
 20
1.2735
 30
0.0
 10
-54.0814
 20
1.2615
 30
0.0
 10
-54.147
 20
1.2375
 30
0.0
 10
-54.147
 20
1.2375
 30
0.0
 10
-54.2119
 20
1.2128
 30
0.0
 10
-54.2648
 20
1.1691
 30
0.0
 10
-54.3051
 20
1.1063
 30
0.0
 10
-54.3051
 20
1.1063
 30
0.0
 10
-54.3446
 20
1.0428
 30
0.0
 10
-54.365
 20
0.968
 30
0.0
 10
-54.365
 20
0.8826
 30
0.0
 10
-54.365
 20
0.8826
 30
0.0
 10
-54.365
 20
0.7281
 30
0.0
 10
-54.3135
 20
0.6004
 30
0.0
 10
-54.2105
 20
0.4981
 30
0.0
 10
-54.2105
 20
0.4981
 30
0.0
 10
-54.1082
 20
0.3965
 30
0.0
 10
-53.9438
 20
0.345
 30
0.0
 10
-53.718
 20
0.345
 30
0.0
 10
-53.718
 20
0.345
 30
0.0
 10
-53.718
 20
0.345
 30
0.0
 10
-52.4424
 20
0.345
 30
0.0
 10
-52.4424
 20
0.345
 30
0.0
 10
-52.4424
 20
0.345
 30
0.0
 10
-52.4424
 20
0.345
 30
0.0
 10
-52.4424
 20
-0.0268
 30
0.0
 10
-52.4424
 20
-0.0268
 30
0.0
 10
-52.4424
 20
-0.0268
 30
0.0
 10
-52.4424
 20
-0.0268
 30
0.0
 10
-53.8683
 20
-0.0268
 30
0.0
 10
-53.8683
 20
-0.0268
 30
0.0
 10
-53.8683
 20
-0.0268
 30
0.0
 10
-54.0341
 20
-0.0268
 30
0.0
 10
-54.1583
 20
-0.0572
 30
0.0
 10
-54.2408
 20
-0.1179
 30
0.0
 10
-54.2408
 20
-0.1179
 30
0.0
 10
-54.3234
 20
-0.1785
 30
0.0
 10
-54.365
 20
-0.2773
 30
0.0
 10
-54.365
 20
-0.4156
 30
0.0
 10
-54.365
 20
-0.4156
 30
0.0
 10
-54.365
 20
-0.52
 30
0.0
 10
-54.3375
 20
-0.6167
 30
0.0
 10
-54.2818
 20
-0.7056
 30
0.0
 10
-54.2818
 20
-0.7056
 30
0.0
 10
-54.2267
 20
-0.7945
 30
0.0
 10
-54.1463
 20
-0.8594
 30
0.0
 10
-54.0405
 20
-0.8989
 30
0.0
 10
-54.0405
 20
-0.8989
 30
0.0
 10
-53.9339
 20
-0.9391
 30
0.0
 10
-53.7808
 20
-0.9589
 30
0.0
 10
-53.5812
 20
-0.9589
 30
0.0
 10
-53.5812
 20
-0.9589
 30
0.0
 10
-53.5812
 20
-0.9589
 30
0.0
 10
-52.4424
 20
-0.9589
 30
0.0
 10
-52.4424
 20
-0.9589
 30
0.0
 10
-52.4424
 20
-0.9589
 30
0.0
 10
-52.4424
 20
-0.9589
 30
0.0
 10
-52.4424
 20
-1.3307
 30
0.0
 10
-52.4424
 20
-1.3307
 30
0.0
  0
SPLINE
  5
4C
330
1F
100
AcDbEntity
  8
VRSTVA_1
 62
   250
100
AcDbSpline
210
0.0
220
0.0
230
1.0
 70
    11
 71
     3
 72
   112
 73
   108
 74
     0
 42
0.0000000001
 43
0.0000000001
 40
0.0
 40
0.0
 40
0.0
 40
0.0
 40
0.0357142857142857
 40
0.0357142857142857
 40
0.0357142857142857
 40
0.0357142857142857
 40
0.0714285714285714
 40
0.0714285714285714
 40
0.0714285714285714
 40
0.0714285714285714
 40
0.1071428571428571
 40
0.1071428571428571
 40
0.1071428571428571
 40
0.1071428571428571
 40
0.1428571428571428
 40
0.1428571428571428
 40
0.1428571428571428
 40
0.1428571428571428
 40
0.1785714285714286
 40
0.1785714285714286
 40
0.1785714285714286
 40
0.1785714285714286
 40
0.2142857142857143
 40
0.2142857142857143
 40
0.2142857142857143
 40
0.2142857142857143
 40
0.25
 40
0.25
 40
0.25
 40
0.25
 40
0.2857142857142857
 40
0.2857142857142857
 40
0.2857142857142857
 40
0.2857142857142857
 40
0.3214285714285715
 40
0.3214285714285715
 40
0.3214285714285715
 40
0.3214285714285715
 40
0.3571428571428572
 40
0.3571428571428572
 40
0.3571428571428572
 40
0.3571428571428572
 40
0.3928571428571428
 40
0.3928571428571428
 40
0.3928571428571428
 40
0.3928571428571428
 40
0.4285714285714285
 40
0.4285714285714285
 40
0.4285714285714285
 40
0.4285714285714285
 40
0.4642857142857143
 40
0.4642857142857143
 40
0.4642857142857143
 40
0.4642857142857143
 40
0.5
 40
0.5
 40
0.5
 40
0.5
 40
0.5357142857142857
 40
0.5357142857142857
 40
0.5357142857142857
 40
0.5357142857142857
 40
0.5714285714285714
 40
0.5714285714285714
 40
0.5714285714285714
 40
0.5714285714285714
 40
0.6071428571428571
 40
0.6071428571428571
 40
0.6071428571428571
 40
0.6071428571428571
 40
0.6428571428571429
 40
0.6428571428571429
 40
0.6428571428571429
 40
0.6428571428571429
 40
0.6785714285714286
 40
0.6785714285714286
 40
0.6785714285714286
 40
0.6785714285714286
 40
0.7142857142857143
 40
0.7142857142857143
 40
0.7142857142857143
 40
0.7142857142857143
 40
0.75
 40
0.75
 40
0.75
 40
0.75
 40
0.7857142857142857
 40
0.7857142857142857
 40
0.7857142857142857
 40
0.7857142857142857
 40
0.8214285714285714
 40
0.8214285714285714
 40
0.8214285714285714
 40
0.8214285714285714
 40
0.8571428571428571
 40
0.8571428571428571
 40
0.8571428571428571
 40
0.8571428571428571
 40
0.8928571428571429
 40
0.8928571428571429
 40
0.8928571428571429
 40
0.8928571428571429
 40
0.9285714285714286
 40
0.9285714285714286
 40
0.9285714285714286
 40
0.9285714285714286
 40
1.0
 40
1.0
 40
1.0
 40
1.0
 10
-52.7133
 20
3.6279
 30
0.0
 10
-52.5962
 20
3.4896
 30
0.0
 10
-52.5137
 20
3.3569
 30
0.0
 10
-52.465
 20
3.2299
 30
0.0
 10
-52.465
 20
3.2299
 30
0.0
 10
-52.417
 20
3.1022
 30
0.0
 10
-52.393
 20
2.9654
 30
0.0
 10
-52.393
 20
2.8193
 30
0.0
 10
-52.393
 20
2.8193
 30
0.0
 10
-52.393
 20
2.578
 30
0.0
 10
-52.4516
 20
2.3932
 30
0.0
 10
-52.5694
 20
2.2633
 30
0.0
 10
-52.5694
 20
2.2633
 30
0.0
 10
-52.6872
 20
2.1342
 30
0.0
 10
-52.8382
 20
2.0693
 30
0.0
 10
-53.021
 20
2.0693
 30
0.0
 10
-53.021
 20
2.0693
 30
0.0
 10
-53.1289
 20
2.0693
 30
0.0
 10
-53.227
 20
2.0933
 30
0.0
 10
-53.3159
 20
2.1427
 30
0.0
 10
-53.3159
 20
2.1427
 30
0.0
 10
-53.4048
 20
2.1914
 30
0.0
 10
-53.476
 20
2.2556
 30
0.0
 10
-53.5297
 20
2.3346
 30
0.0
 10
-53.5297
 20
2.3346
 30
0.0
 10
-53.5833
 20
2.4143
 30
0.0
 10
-53.6242
 20
2.5032
 30
0.0
 10
-53.6517
 20
2.6027
 30
0.0
 10
-53.6517
 20
2.6027
 30
0.0
 10
-53.6708
 20
2.6754
 30
0.0
 10
-53.6898
 20
2.7854
 30
0.0
 10
-53.7075
 20
2.9329
 30
0.0
 10
-53.7075
 20
2.9329
 30
0.0
 10
-53.7434
 20
3.2335
 30
0.0
 10
-53.7858
 20
3.455
 30
0.0
 10
-53.8359
 20
3.5968
 30
0.0
 10
-53.8359
 20
3.5968
 30
0.0
 10
-53.8867
 20
3.5982
 30
0.0
 10
-53.9191
 20
3.5989
 30
0.0
 10
-53.9325
 20
3.5989
 30
0.0
 10
-53.9325
 20
3.5989
 30
0.0
 10
-54.0842
 20
3.5989
 30
0.0
 10
-54.1915
 20
3.5637
 30
0.0
 10
-54.2528
 20
3.4931
 30
0.0
 10
-54.2528
 20
3.4931
 30
0.0
 10
-54.3375
 20
3.3986
 30
0.0
 10
-54.3791
 20
3.2567
 30
0.0
 10
-54.3791
 20
3.0698
 30
0.0
 10
-54.3791
 20
3.0698
 30
0.0
 10
-54.3791
 20
2.8948
 30
0.0
 10
-54.3488
 20
2.7657
 30
0.0
 10
-54.2874
 20
2.6817
 30
0.0
 10
-54.2874
 20
2.6817
 30
0.0
 10
-54.226
 20
2.5985
 30
0.0
 10
-54.1174
 20
2.5371
 30
0.0
 10
-53.9614
 20
2.4969
 30
0.0
 10
-53.9614
 20
2.4969
 30
0.0
 10
-53.9614
 20
2.4969
 30
0.0
 10
-54.0115
 20
2.1335
 30
0.0
 10
-54.0115
 20
2.1335
 30
0.0
 10
-54.0115
 20
2.1335
 30
0.0
 10
-54.1668
 20
2.1667
 30
0.0
 10
-54.2931
 20
2.221
 30
0.0
 10
-54.3883
 20
2.2965
 30
0.0
 10
-54.3883
 20
2.2965
 30
0.0
 10
-54.4843
 20
2.372
 30
0.0
 10
-54.5583
 20
2.4821
 30
0.0
 10
-54.6098
 20
2.6253
 30
0.0
 10
-54.6098
 20
2.6253
 30
0.0
 10
-54.6614
 20
2.7685
 30
0.0
 10
-54.6875
 20
2.9343
 30
0.0
 10
-54.6875
 20
3.1234
 30
0.0
 10
-54.6875
 20
3.1234
 30
0.0
 10
-54.6875
 20
3.3111
 30
0.0
 10
-54.6649
 20
3.4628
 30
0.0
 10
-54.6211
 20
3.5799
 30
0.0
 10
-54.6211
 20
3.5799
 30
0.0
 10
-54.5767
 20
3.697
 30
0.0
 10
-54.5217
 20
3.7831
 30
0.0
 10
-54.4546
 20
3.8388
 30
0.0
 10
-54.4546
 20
3.8388
 30
0.0
 10
-54.3876
 20
3.8939
 30
0.0
 10
-54.3036
 20
3.932
 30
0.0
 10
-54.2013
 20
3.9545
 30
0.0
 10
-54.2013
 20
3.9545
 30
0.0
 10
-54.1378
 20
3.9665
 30
0.0
 10
-54.0235
 20
3.9729
 30
0.0
 10
-53.8584
 20
3.9729
 30
0.0
 10
-53.8584
 20
3.9729
 30
0.0
 10
-53.8584
 20
3.9729
 30
0.0
 10
-53.3624
 20
3.9729
 30
0.0
 10
-53.3624
 20
3.9729
 30
0.0
 10
-53.3624
 20
3.9729
 30
0.0
 10
-53.016
 20
3.9729
 30
0.0
 10
-52.7973
 20
3.9806
 30
0.0
 10
-52.7063
 20
3.9969
 30
0.0
 10
-52.7063
 20
3.9969
 30
0.0
 10
-52.6146
 20
4.0124
 30
0.0
 10
-52.5264
 20
4.0441
 30
0.0
 10
-52.4424
 20
4.0907
 30
0.0
 10
-52.4424
 20
4.0907
 30
0.0
 10
-52.4424
 20
4.0907
 30
0.0
 10
-52.4424
 20
3.7019
 30
0.0
 10
-52.4424
 20
3.7019
 30
0.0
 10
-52.4424
 20
3.7019
 30
0.0
 10
-52.5193
 20
3.6638
 30
0.0
 10
-52.6096
 20
3.6384
 30
0.0
 10
-52.7133
 20
3.6279
 30
0.0
  0
SPLINE
  5
4D
330
1F
100
AcDbEntity
  8
VRSTVA_1
 62
   250
100
AcDbSpline
210
0.0
220
0.0
230
1.0
 70
    11
 71
     3
 72
    44
 73
    40
 74
     0
 42
0.0000000001
 43
0.0000000001
 40
0.0
 40
0.0
 40
0.0
 40
0.0
 40
0.0909090909090909
 40
0.0909090909090909
 40
0.0909090909090909
 40
0.0909090909090909
 40
0.1818181818181818
 40
0.1818181818181818
 40
0.1818181818181818
 40
0.1818181818181818
 40
0.2727272727272727
 40
0.2727272727272727
 40
0.2727272727272727
 40
0.2727272727272727
 40
0.3636363636363636
 40
0.3636363636363636
 40
0.3636363636363636
 40
0.3636363636363636
 40
0.4545454545454545
 40
0.4545454545454545
 40
0.4545454545454545
 40
0.4545454545454545
 40
0.5454545454545454
 40
0.5454545454545454
 40
0.5454545454545454
 40
0.5454545454545454
 40
0.6363636363636364
 40
0.6363636363636364
 40
0.6363636363636364
 40
0.6363636363636364
 40
0.7272727272727273
 40
0.7272727272727273
 40
0.7272727272727273
 40
0.7272727272727273
 40
0.8181818181818182
 40
0.8181818181818182
 40
0.8181818181818182
 40
0.8181818181818182
 40
1.0
 40
1.0
 40
1.0
 40
1.0
 10
-53.5445
 20
3.5968
 30
0.0
 10
-53.4887
 20
3.4614
 30
0.0
 10
-53.4422
 20
3.2589
 30
0.0
 10
-53.4034
 20
2.9893
 30
0.0
 10
-53.4034
 20
2.9893
 30
0.0
 10
-53.3815
 20
2.8362
 30
0.0
 10
-53.3568
 20
2.7276
 30
0.0
 10
-53.3293
 20
2.6648
 30
0.0
 10
-53.3293
 20
2.6648
 30
0.0
 10
-53.3018
 20
2.6013
 30
0.0
 10
-53.2615
 20
2.5519
 30
0.0
 10
-53.2079
 20
2.518
 30
0.0
 10
-53.2079
 20
2.518
 30
0.0
 10
-53.155
 20
2.4835
 30
0.0
 10
-53.0964
 20
2.4658
 30
0.0
 10
-53.0315
 20
2.4658
 30
0.0
 10
-53.0315
 20
2.4658
 30
0.0
 10
-52.9321
 20
2.4658
 30
0.0
 10
-52.8495
 20
2.5039
 30
0.0
 10
-52.7832
 20
2.5787
 30
0.0
 10
-52.7832
 20
2.5787
 30
0.0
 10
-52.7176
 20
2.6535
 30
0.0
 10
-52.6844
 20
2.7636
 30
0.0
 10
-52.6844
 20
2.9082
 30
0.0
 10
-52.6844
 20
2.9082
 30
0.0
 10
-52.6844
 20
3.0514
 30
0.0
 10
-52.7154
 20
3.1791
 30
0.0
 10
-52.7782
 20
3.2906
 30
0.0
 10
-52.7782
 20
3.2906
 30
0.0
 10
-52.841
 20
3.4021
 30
0.0
 10
-52.9271
 20
3.4846
 30
0.0
 10
-53.0358
 20
3.5368
 30
0.0
 10
-53.0358
 20
3.5368
 30
0.0
 10
-53.1197
 20
3.5771
 30
0.0
 10
-53.2439
 20
3.5968
 30
0.0
 10
-53.4076
 20
3.5968
 30
0.0
 10
-53.4076
 20
3.5968
 30
0.0
 10
-53.4076
 20
3.5968
 30
0.0
 10
-53.5445
 20
3.5968
 30
0.0
 10
-53.5445
 20
3.5968
 30
0.0
  0
SPLINE
  5
4E
330
1F
100
AcDbEntity
  8
VRSTVA_1
 62
   250
100
AcDbSpline
210
0.0
220
0.0
230
1.0
 70
    11
 71
     3
 72
    64
 73
    60
 74
     0
 42
0.0000000001
 43
0.0000000001
 40
0.0
 40
0.0
 40
0.0
 40
0.0
 40
0.0625
 40
0.0625
 40
0.0625
 40
0.0625
 40
0.125
 40
0.125
 40
0.125
 40
0.125
 40
0.1875
 40
0.1875
 40
0.1875
 40
0.1875
 40
0.25
 40
0.25
 40
0.25
 40
0.25
 40
0.3125
 40
0.3125
 40
0.3125
 40
0.3125
 40
0.375
 40
0.375
 40
0.375
 40
0.375
 40
0.4375
 40
0.4375
 40
0.4375
 40
0.4375
 40
0.5
 40
0.5
 40
0.5
 40
0.5
 40
0.5625
 40
0.5625
 40
0.5625
 40
0.5625
 40
0.625
 40
0.625
 40
0.625
 40
0.625
 40
0.6875
 40
0.6875
 40
0.6875
 40
0.6875
 40
0.75
 40
0.75
 40
0.75
 40
0.75
 40
0.8125
 40
0.8125
 40
0.8125
 40
0.8125
 40
0.875
 40
0.875
 40
0.875
 40
0.875
 40
1.0
 40
1.0
 40
1.0
 40
1.0
 10
-52.4424
 20
4.3016
 30
0.0
 10
-52.4424
 20
4.3016
 30
0.0
 10
-53.5833
 20
5.1039
 30
0.0
 10
-53.5833
 20
5.1039
 30
0.0
 10
-53.5833
 20
5.1039
 30
0.0
 10
-53.5833
 20
5.1039
 30
0.0
 10
-54.6374
 20
4.3616
 30
0.0
 10
-54.6374
 20
4.3616
 30
0.0
 10
-54.6374
 20
4.3616
 30
0.0
 10
-54.6374
 20
4.3616
 30
0.0
 10
-54.6374
 20
4.8266
 30
0.0
 10
-54.6374
 20
4.8266
 30
0.0
 10
-54.6374
 20
4.8266
 30
0.0
 10
-54.6374
 20
4.8266
 30
0.0
 10
-54.123
 20
5.1638
 30
0.0
 10
-54.123
 20
5.1638
 30
0.0
 10
-54.123
 20
5.1638
 30
0.0
 10
-54.0249
 20
5.2266
 30
0.0
 10
-53.9431
 20
5.2781
 30
0.0
 10
-53.8768
 20
5.3162
 30
0.0
 10
-53.8768
 20
5.3162
 30
0.0
 10
-53.9678
 20
5.3769
 30
0.0
 10
-54.0482
 20
5.4326
 30
0.0
 10
-54.1188
 20
5.4841
 30
0.0
 10
-54.1188
 20
5.4841
 30
0.0
 10
-54.1188
 20
5.4841
 30
0.0
 10
-54.6374
 20
5.8539
 30
0.0
 10
-54.6374
 20
5.8539
 30
0.0
 10
-54.6374
 20
5.8539
 30
0.0
 10
-54.6374
 20
5.8539
 30
0.0
 10
-54.6374
 20
6.2984
 30
0.0
 10
-54.6374
 20
6.2984
 30
0.0
 10
-54.6374
 20
6.2984
 30
0.0
 10
-54.6374
 20
6.2984
 30
0.0
 10
-53.6037
 20
5.5399
 30
0.0
 10
-53.6037
 20
5.5399
 30
0.0
 10
-53.6037
 20
5.5399
 30
0.0
 10
-53.6037
 20
5.5399
 30
0.0
 10
-52.4424
 20
6.3562
 30
0.0
 10
-52.4424
 20
6.3562
 30
0.0
 10
-52.4424
 20
6.3562
 30
0.0
 10
-52.4424
 20
6.3562
 30
0.0
 10
-52.4424
 20
5.8997
 30
0.0
 10
-52.4424
 20
5.8997
 30
0.0
 10
-52.4424
 20
5.8997
 30
0.0
 10
-52.4424
 20
5.8997
 30
0.0
 10
-53.1247
 20
5.4489
 30
0.0
 10
-53.1247
 20
5.4489
 30
0.0
 10
-53.1247
 20
5.4489
 30
0.0
 10
-53.1247
 20
5.4489
 30
0.0
 10
-53.3088
 20
5.3289
 30
0.0
 10
-53.3088
 20
5.3289
 30
0.0
 10
-53.3088
 20
5.3289
 30
0.0
 10
-53.3088
 20
5.3289
 30
0.0
 10
-52.4424
 20
4.7525
 30
0.0
 10
-52.4424
 20
4.7525
 30
0.0
 10
-52.4424
 20
4.7525
 30
0.0
 10
-52.4424
 20
4.7525
 30
0.0
 10
-52.4424
 20
4.3016
 30
0.0
 10
-52.4424
 20
4.3016
 30
0.0
  0
SPLINE
  5
4F
330
1F
100
AcDbEntity
  8
VRSTVA_1
 62
   250
100
AcDbSpline
210
0.0
220
0.0
230
1.0
 70
    11
 71
     3
 72
    40
 73
    36
 74
     0
 42
0.0000000001
 43
0.0000000001
 40
0.0
 40
0.0
 40
0.0
 40
0.0
 40
0.1
 40
0.1
 40
0.1
 40
0.1
 40
0.2
 40
0.2
 40
0.2
 40
0.2
 40
0.3
 40
0.3
 40
0.3
 40
0.3
 40
0.4
 40
0.4
 40
0.4
 40
0.4
 40
0.5
 40
0.5
 40
0.5
 40
0.5
 40
0.6
 40
0.6
 40
0.6
 40
0.6
 40
0.7
 40
0.7
 40
0.7
 40
0.7
 40
0.8
 40
0.8
 40
0.8
 40
0.8
 40
1.0
 40
1.0
 40
1.0
 40
1.0
 10
-52.4424
 20
9.1404
 30
0.0
 10
-52.4424
 20
9.1404
 30
0.0
 10
-52.4424
 20
8.7686
 30
0.0
 10
-52.4424
 20
8.7686
 30
0.0
 10
-52.4424
 20
8.7686
 30
0.0
 10
-52.4424
 20
8.7686
 30
0.0
 10
-54.813
 20
8.7686
 30
0.0
 10
-54.813
 20
8.7686
 30
0.0
 10
-54.813
 20
8.7686
 30
0.0
 10
-54.7277
 20
8.679
 30
0.0
 10
-54.6423
 20
8.5619
 30
0.0
 10
-54.5569
 20
8.4165
 30
0.0
 10
-54.5569
 20
8.4165
 30
0.0
 10
-54.4716
 20
8.2705
 30
0.0
 10
-54.4074
 20
8.1399
 30
0.0
 10
-54.365
 20
8.0242
 30
0.0
 10
-54.365
 20
8.0242
 30
0.0
 10
-54.365
 20
8.0242
 30
0.0
 10
-54.7241
 20
8.0242
 30
0.0
 10
-54.7241
 20
8.0242
 30
0.0
 10
-54.7241
 20
8.0242
 30
0.0
 10
-54.8222
 20
8.2324
 30
0.0
 10
-54.9408
 20
8.4144
 30
0.0
 10
-55.0797
 20
8.5703
 30
0.0
 10
-55.0797
 20
8.5703
 30
0.0
 10
-55.2194
 20
8.7255
 30
0.0
 10
-55.3542
 20
8.8363
 30
0.0
 10
-55.4854
 20
8.9012
 30
0.0
 10
-55.4854
 20
8.9012
 30
0.0
 10
-55.4854
 20
8.9012
 30
0.0
 10
-55.4854
 20
9.1404
 30
0.0
 10
-55.4854
 20
9.1404
 30
0.0
 10
-55.4854
 20
9.1404
 30
0.0
 10
-55.4854
 20
9.1404
 30
0.0
 10
-52.4424
 20
9.1404
 30
0.0
 10
-52.4424
 20
9.1404
 30
0.0
  0
SPLINE
  5
50
330
1F
100
AcDbEntity
  8
VRSTVA_1
 62
   250
100
AcDbSpline
210
0.0
220
0.0
230
1.0
 70
    11
 71
     3
 72
    52
 73
    48
 74
     0
 42
0.0000000001
 43
0.0000000001
 40
0.0
 40
0.0
 40
0.0
 40
0.0
 40
0.0769230769230769
 40
0.0769230769230769
 40
0.0769230769230769
 40
0.0769230769230769
 40
0.1538461538461539
 40
0.1538461538461539
 40
0.1538461538461539
 40
0.1538461538461539
 40
0.2307692307692308
 40
0.2307692307692308
 40
0.2307692307692308
 40
0.2307692307692308
 40
0.3076923076923077
 40
0.3076923076923077
 40
0.3076923076923077
 40
0.3076923076923077
 40
0.3846153846153846
 40
0.3846153846153846
 40
0.3846153846153846
 40
0.3846153846153846
 40
0.4615384615384616
 40
0.4615384615384616
 40
0.4615384615384616
 40
0.4615384615384616
 40
0.5384615384615384
 40
0.5384615384615384
 40
0.5384615384615384
 40
0.5384615384615384
 40
0.6153846153846154
 40
0.6153846153846154
 40
0.6153846153846154
 40
0.6153846153846154
 40
0.6923076923076923
 40
0.6923076923076923
 40
0.6923076923076923
 40
0.6923076923076923
 40
0.7692307692307693
 40
0.7692307692307693
 40
0.7692307692307693
 40
0.7692307692307693
 40
0.8461538461538461
 40
0.8461538461538461
 40
0.8461538461538461
 40
0.8461538461538461
 40
1.0
 40
1.0
 40
1.0
 40
1.0
 10
-53.9368
 20
10.0936
 30
0.0
 10
-54.2952
 20
10.0936
 30
0.0
 10
-54.5837
 20
10.1303
 30
0.0
 10
-54.8018
 20
10.2044
 30
0.0
 10
-54.8018
 20
10.2044
 30
0.0
 10
-55.0205
 20
10.2777
 30
0.0
 10
-55.1891
 20
10.3878
 30
0.0
 10
-55.3076
 20
10.5331
 30
0.0
 10
-55.3076
 20
10.5331
 30
0.0
 10
-55.4262
 20
10.6785
 30
0.0
 10
-55.4854
 20
10.8612
 30
0.0
 10
-55.4854
 20
11.0814
 30
0.0
 10
-55.4854
 20
11.0814
 30
0.0
 10
-55.4854
 20
11.2443
 30
0.0
 10
-55.4523
 20
11.3869
 30
0.0
 10
-55.3867
 20
11.5096
 30
0.0
 10
-55.3867
 20
11.5096
 30
0.0
 10
-55.3217
 20
11.6324
 30
0.0
 10
-55.2272
 20
11.7333
 30
0.0
 10
-55.1037
 20
11.8137
 30
0.0
 10
-55.1037
 20
11.8137
 30
0.0
 10
-54.9803
 20
11.8934
 30
0.0
 10
-54.83
 20
11.9562
 30
0.0
 10
-54.6529
 20
12.0014
 30
0.0
 10
-54.6529
 20
12.0014
 30
0.0
 10
-54.4758
 20
12.0472
 30
0.0
 10
-54.2373
 20
12.0698
 30
0.0
 10
-53.9368
 20
12.0698
 30
0.0
 10
-53.9368
 20
12.0698
 30
0.0
 10
-53.5812
 20
12.0698
 30
0.0
 10
-53.2947
 20
12.0331
 30
0.0
 10
-53.076
 20
11.9605
 30
0.0
 10
-53.076
 20
11.9605
 30
0.0
 10
-52.8573
 20
11.8871
 30
0.0
 10
-52.6886
 20
11.7777
 30
0.0
 10
-52.5694
 20
11.6324
 30
0.0
 10
-52.5694
 20
11.6324
 30
0.0
 10
-52.4502
 20
11.487
 30
0.0
 10
-52.3909
 20
11.3036
 30
0.0
 10
-52.3909
 20
11.0814
 30
0.0
 10
-52.3909
 20
11.0814
 30
0.0
 10
-52.3909
 20
10.7893
 30
0.0
 10
-52.4953
 20
10.56
 30
0.0
 10
-52.7049
 20
10.3934
 30
0.0
 10
-52.7049
 20
10.3934
 30
0.0
 10
-52.9567
 20
10.1938
 30
0.0
 10
-53.3681
 20
10.0936
 30
0.0
 10
-53.9368
 20
10.0936
 30
0.0
  0
SPLINE
  5
51
330
1F
100
AcDbEntity
  8
VRSTVA_1
 62
   250
100
AcDbSpline
210
0.0
220
0.0
230
1.0
 70
    11
 71
     3
 72
    36
 73
    32
 74
     0
 42
0.0000000001
 43
0.0000000001
 40
0.0
 40
0.0
 40
0.0
 40
0.0
 40
0.1111111111111111
 40
0.1111111111111111
 40
0.1111111111111111
 40
0.1111111111111111
 40
0.2222222222222222
 40
0.2222222222222222
 40
0.2222222222222222
 40
0.2222222222222222
 40
0.3333333333333333
 40
0.3333333333333333
 40
0.3333333333333333
 40
0.3333333333333333
 40
0.4444444444444444
 40
0.4444444444444444
 40
0.4444444444444444
 40
0.4444444444444444
 40
0.5555555555555556
 40
0.5555555555555556
 40
0.5555555555555556
 40
0.5555555555555556
 40
0.6666666666666666
 40
0.6666666666666666
 40
0.6666666666666666
 40
0.6666666666666666
 40
0.7777777777777778
 40
0.7777777777777778
 40
0.7777777777777778
 40
0.7777777777777778
 40
1.0
 40
1.0
 40
1.0
 40
1.0
 10
-53.9368
 20
10.476
 30
0.0
 10
-53.4393
 20
10.476
 30
0.0
 10
-53.1084
 20
10.5346
 30
0.0
 10
-52.9433
 20
10.651
 30
0.0
 10
-52.9433
 20
10.651
 30
0.0
 10
-52.7789
 20
10.7674
 30
0.0
 10
-52.6964
 20
10.9106
 30
0.0
 10
-52.6964
 20
11.0814
 30
0.0
 10
-52.6964
 20
11.0814
 30
0.0
 10
-52.6964
 20
11.2528
 30
0.0
 10
-52.7797
 20
11.396
 30
0.0
 10
-52.9448
 20
11.5124
 30
0.0
 10
-52.9448
 20
11.5124
 30
0.0
 10
-53.1099
 20
11.6289
 30
0.0
 10
-53.4408
 20
11.6874
 30
0.0
 10
-53.9368
 20
11.6874
 30
0.0
 10
-53.9368
 20
11.6874
 30
0.0
 10
-54.4356
 20
11.6874
 30
0.0
 10
-54.7672
 20
11.6289
 30
0.0
 10
-54.9309
 20
11.5124
 30
0.0
 10
-54.9309
 20
11.5124
 30
0.0
 10
-55.0953
 20
11.396
 30
0.0
 10
-55.1771
 20
11.2514
 30
0.0
 10
-55.1771
 20
11.0778
 30
0.0
 10
-55.1771
 20
11.0778
 30
0.0
 10
-55.1771
 20
10.9064
 30
0.0
 10
-55.1044
 20
10.7702
 30
0.0
 10
-54.9598
 20
10.6679
 30
0.0
 10
-54.9598
 20
10.6679
 30
0.0
 10
-54.7757
 20
10.5402
 30
0.0
 10
-54.4342
 20
10.476
 30
0.0
 10
-53.9368
 20
10.476
 30
0.0
  0
SPLINE
  5
52
330
1F
100
AcDbEntity
  8
VRSTVA_1
 62
   250
100
AcDbSpline
210
0.0
220
0.0
230
1.0
 70
    11
 71
     3
 72
    52
 73
    48
 74
     0
 42
0.0000000001
 43
0.0000000001
 40
0.0
 40
0.0
 40
0.0
 40
0.0
 40
0.0769230769230769
 40
0.0769230769230769
 40
0.0769230769230769
 40
0.0769230769230769
 40
0.1538461538461539
 40
0.1538461538461539
 40
0.1538461538461539
 40
0.1538461538461539
 40
0.2307692307692308
 40
0.2307692307692308
 40
0.2307692307692308
 40
0.2307692307692308
 40
0.3076923076923077
 40
0.3076923076923077
 40
0.3076923076923077
 40
0.3076923076923077
 40
0.3846153846153846
 40
0.3846153846153846
 40
0.3846153846153846
 40
0.3846153846153846
 40
0.4615384615384616
 40
0.4615384615384616
 40
0.4615384615384616
 40
0.4615384615384616
 40
0.5384615384615384
 40
0.5384615384615384
 40
0.5384615384615384
 40
0.5384615384615384
 40
0.6153846153846154
 40
0.6153846153846154
 40
0.6153846153846154
 40
0.6153846153846154
 40
0.6923076923076923
 40
0.6923076923076923
 40
0.6923076923076923
 40
0.6923076923076923
 40
0.7692307692307693
 40
0.7692307692307693
 40
0.7692307692307693
 40
0.7692307692307693
 40
0.8461538461538461
 40
0.8461538461538461
 40
0.8461538461538461
 40
0.8461538461538461
 40
1.0
 40
1.0
 40
1.0
 40
1.0
 10
-53.9368
 20
12.448
 30
0.0
 10
-54.2952
 20
12.448
 30
0.0
 10
-54.5837
 20
12.4847
 30
0.0
 10
-54.8018
 20
12.5588
 30
0.0
 10
-54.8018
 20
12.5588
 30
0.0
 10
-55.0205
 20
12.6321
 30
0.0
 10
-55.1891
 20
12.7422
 30
0.0
 10
-55.3076
 20
12.8875
 30
0.0
 10
-55.3076
 20
12.8875
 30
0.0
 10
-55.4262
 20
13.0329
 30
0.0
 10
-55.4854
 20
13.2156
 30
0.0
 10
-55.4854
 20
13.4358
 30
0.0
 10
-55.4854
 20
13.4358
 30
0.0
 10
-55.4854
 20
13.5987
 30
0.0
 10
-55.4523
 20
13.7413
 30
0.0
 10
-55.3867
 20
13.864
 30
0.0
 10
-55.3867
 20
13.864
 30
0.0
 10
-55.3217
 20
13.9868
 30
0.0
 10
-55.2272
 20
14.0877
 30
0.0
 10
-55.1037
 20
14.1681
 30
0.0
 10
-55.1037
 20
14.1681
 30
0.0
 10
-54.9803
 20
14.2478
 30
0.0
 10
-54.83
 20
14.3106
 30
0.0
 10
-54.6529
 20
14.3558
 30
0.0
 10
-54.6529
 20
14.3558
 30
0.0
 10
-54.4758
 20
14.4016
 30
0.0
 10
-54.2373
 20
14.4242
 30
0.0
 10
-53.9368
 20
14.4242
 30
0.0
 10
-53.9368
 20
14.4242
 30
0.0
 10
-53.5812
 20
14.4242
 30
0.0
 10
-53.2947
 20
14.3875
 30
0.0
 10
-53.076
 20
14.3149
 30
0.0
 10
-53.076
 20
14.3149
 30
0.0
 10
-52.8573
 20
14.2415
 30
0.0
 10
-52.6886
 20
14.1321
 30
0.0
 10
-52.5694
 20
13.9868
 30
0.0
 10
-52.5694
 20
13.9868
 30
0.0
 10
-52.4502
 20
13.8414
 30
0.0
 10
-52.3909
 20
13.658
 30
0.0
 10
-52.3909
 20
13.4358
 30
0.0
 10
-52.3909
 20
13.4358
 30
0.0
 10
-52.3909
 20
13.1437
 30
0.0
 10
-52.4953
 20
12.9144
 30
0.0
 10
-52.7049
 20
12.7478
 30
0.0
 10
-52.7049
 20
12.7478
 30
0.0
 10
-52.9567
 20
12.5482
 30
0.0
 10
-53.3681
 20
12.448
 30
0.0
 10
-53.9368
 20
12.448
 30
0.0
  0
SPLINE
  5
53
330
1F
100
AcDbEntity
  8
VRSTVA_1
 62
   250
100
AcDbSpline
210
0.0
220
0.0
230
1.0
 70
    11
 71
     3
 72
    36
 73
    32
 74
     0
 42
0.0000000001
 43
0.0000000001
 40
0.0
 40
0.0
 40
0.0
 40
0.0
 40
0.1111111111111111
 40
0.1111111111111111
 40
0.1111111111111111
 40
0.1111111111111111
 40
0.2222222222222222
 40
0.2222222222222222
 40
0.2222222222222222
 40
0.2222222222222222
 40
0.3333333333333333
 40
0.3333333333333333
 40
0.3333333333333333
 40
0.3333333333333333
 40
0.4444444444444444
 40
0.4444444444444444
 40
0.4444444444444444
 40
0.4444444444444444
 40
0.5555555555555556
 40
0.5555555555555556
 40
0.5555555555555556
 40
0.5555555555555556
 40
0.6666666666666666
 40
0.6666666666666666
 40
0.6666666666666666
 40
0.6666666666666666
 40
0.7777777777777778
 40
0.7777777777777778
 40
0.7777777777777778
 40
0.7777777777777778
 40
1.0
 40
1.0
 40
1.0
 40
1.0
 10
-53.9368
 20
12.8304
 30
0.0
 10
-53.4393
 20
12.8304
 30
0.0
 10
-53.1084
 20
12.889
 30
0.0
 10
-52.9433
 20
13.0054
 30
0.0
 10
-52.9433
 20
13.0054
 30
0.0
 10
-52.7789
 20
13.1218
 30
0.0
 10
-52.6964
 20
13.265
 30
0.0
 10
-52.6964
 20
13.4358
 30
0.0
 10
-52.6964
 20
13.4358
 30
0.0
 10
-52.6964
 20
13.6072
 30
0.0
 10
-52.7797
 20
13.7504
 30
0.0
 10
-52.9448
 20
13.8668
 30
0.0
 10
-52.9448
 20
13.8668
 30
0.0
 10
-53.1099
 20
13.9833
 30
0.0
 10
-53.4408
 20
14.0418
 30
0.0
 10
-53.9368
 20
14.0418
 30
0.0
 10
-53.9368
 20
14.0418
 30
0.0
 10
-54.4356
 20
14.0418
 30
0.0
 10
-54.7672
 20
13.9833
 30
0.0
 10
-54.9309
 20
13.8668
 30
0.0
 10
-54.9309
 20
13.8668
 30
0.0
 10
-55.0953
 20
13.7504
 30
0.0
 10
-55.1771
 20
13.6058
 30
0.0
 10
-55.1771
 20
13.4322
 30
0.0
 10
-55.1771
 20
13.4322
 30
0.0
 10
-55.1771
 20
13.2608
 30
0.0
 10
-55.1044
 20
13.1246
 30
0.0
 10
-54.9598
 20
13.0223
 30
0.0
 10
-54.9598
 20
13.0223
 30
0.0
 10
-54.7757
 20
12.8946
 30
0.0
 10
-54.4342
 20
12.8304
 30
0.0
 10
-53.9368
 20
12.8304
 30
0.0
  0
SPLINE
  5
54
330
1F
100
AcDbEntity
  8
VRSTVA_1
 62
   250
100
AcDbSpline
210
0.0
220
0.0
230
1.0
 70
    11
 71
     3
 72
    80
 73
    76
 74
     0
 42
0.0000000001
 43
0.0000000001
 40
0.0
 40
0.0
 40
0.0
 40
0.0
 40
0.05
 40
0.05
 40
0.05
 40
0.05
 40
0.1
 40
0.1
 40
0.1
 40
0.1
 40
0.15
 40
0.15
 40
0.15
 40
0.15
 40
0.2
 40
0.2
 40
0.2
 40
0.2
 40
0.25
 40
0.25
 40
0.25
 40
0.25
 40
0.3
 40
0.3
 40
0.3
 40
0.3
 40
0.35
 40
0.35
 40
0.35
 40
0.35
 40
0.4
 40
0.4
 40
0.4
 40
0.4
 40
0.45
 40
0.45
 40
0.45
 40
0.45
 40
0.5
 40
0.5
 40
0.5
 40
0.5
 40
0.55
 40
0.55
 40
0.55
 40
0.55
 40
0.6
 40
0.6
 40
0.6
 40
0.6
 40
0.65
 40
0.65
 40
0.65
 40
0.65
 40
0.7
 40
0.7
 40
0.7
 40
0.7
 40
0.75
 40
0.75
 40
0.75
 40
0.75
 40
0.8
 40
0.8
 40
0.8
 40
0.8
 40
0.85
 40
0.85
 40
0.85
 40
0.85
 40
0.9
 40
0.9
 40
0.9
 40
0.9
 40
1.0
 40
1.0
 40
1.0
 40
1.0
 10
-54.7431
 20
-22.0999
 30
0.0
 10
-54.7431
 20
-22.0999
 30
0.0
 10
-54.7142
 20
-22.4696
 30
0.0
 10
-54.7142
 20
-22.4696
 30
0.0
 10
-54.7142
 20
-22.4696
 30
0.0
 10
-54.8602
 20
-22.5028
 30
0.0
 10
-54.9668
 20
-22.5494
 30
0.0
 10
-55.0324
 20
-22.61
 30
0.0
 10
-55.0324
 20
-22.61
 30
0.0
 10
-55.1389
 20
-22.7109
 30
0.0
 10
-55.1918
 20
-22.8351
 30
0.0
 10
-55.1918
 20
-22.9826
 30
0.0
 10
-55.1918
 20
-22.9826
 30
0.0
 10
-55.1918
 20
-23.1011
 30
0.0
 10
-55.1587
 20
-23.2048
 30
0.0
 10
-55.0923
 20
-23.2944
 30
0.0
 10
-55.0923
 20
-23.2944
 30
0.0
 10
-55.007
 20
-23.4116
 30
0.0
 10
-54.8821
 20
-23.504
 30
0.0
 10
-54.7184
 20
-23.5717
 30
0.0
 10
-54.7184
 20
-23.5717
 30
0.0
 10
-54.5547
 20
-23.6387
 30
0.0
 10
-54.3212
 20
-23.674
 30
0.0
 10
-54.0178
 20
-23.6768
 30
0.0
 10
-54.0178
 20
-23.6768
 30
0.0
 10
-54.154
 20
-23.5872
 30
0.0
 10
-54.2556
 20
-23.4779
 30
0.0
 10
-54.3219
 20
-23.3481
 30
0.0
 10
-54.3219
 20
-23.3481
 30
0.0
 10
-54.3875
 20
-23.2189
 30
0.0
 10
-54.4207
 20
-23.0828
 30
0.0
 10
-54.4207
 20
-22.9409
 30
0.0
 10
-54.4207
 20
-22.9409
 30
0.0
 10
-54.4207
 20
-22.6926
 30
0.0
 10
-54.3296
 20
-22.4816
 30
0.0
 10
-54.1469
 20
-22.3074
 30
0.0
 10
-54.1469
 20
-22.3074
 30
0.0
 10
-53.9642
 20
-22.1331
 30
0.0
 10
-53.7285
 20
-22.0456
 30
0.0
 10
-53.4392
 20
-22.0456
 30
0.0
 10
-53.4392
 20
-22.0456
 30
0.0
 10
-53.2487
 20
-22.0456
 30
0.0
 10
-53.0724
 20
-22.0872
 30
0.0
 10
-52.9087
 20
-22.1691
 30
0.0
 10
-52.9087
 20
-22.1691
 30
0.0
 10
-52.7457
 20
-22.2509
 30
0.0
 10
-52.6201
 20
-22.3638
 30
0.0
 10
-52.5333
 20
-22.507
 30
0.0
 10
-52.5333
 20
-22.507
 30
0.0
 10
-52.4465
 20
-22.6503
 30
0.0
 10
-52.4035
 20
-22.8125
 30
0.0
 10
-52.4035
 20
-22.9946
 30
0.0
 10
-52.4035
 20
-22.9946
 30
0.0
 10
-52.4035
 20
-23.305
 30
0.0
 10
-52.5171
 20
-23.5576
 30
0.0
 10
-52.7457
 20
-23.753
 30
0.0
 10
-52.7457
 20
-23.753
 30
0.0
 10
-52.9736
 20
-23.9492
 30
0.0
 10
-53.3496
 20
-24.0465
 30
0.0
 10
-53.8732
 20
-24.0465
 30
0.0
 10
-53.8732
 20
-24.0465
 30
0.0
 10
-54.4588
 20
-24.0465
 30
0.0
 10
-54.8842
 20
-23.9386
 30
0.0
 10
-55.1502
 20
-23.722
 30
0.0
 10
-55.1502
 20
-23.722
 30
0.0
 10
-55.3816
 20
-23.5336
 30
0.0
 10
-55.498
 20
-23.2796
 30
0.0
 10
-55.498
 20
-22.9593
 30
0.0
 10
-55.498
 20
-22.9593
 30
0.0
 10
-55.498
 20
-22.7215
 30
0.0
 10
-55.431
 20
-22.5261
 30
0.0
 10
-55.297
 20
-22.3737
 30
0.0
 10
-55.297
 20
-22.3737
 30
0.0
 10
-55.1636
 20
-22.2213
 30
0.0
 10
-54.9788
 20
-22.1303
 30
0.0
 10
-54.7431
 20
-22.0999
 30
0.0
  0
SPLINE
  5
55
330
1F
100
AcDbEntity
  8
VRSTVA_1
 62
   250
100
AcDbSpline
210
0.0
220
0.0
230
1.0
 70
    11
 71
     3
 72
    40
 73
    36
 74
     0
 42
0.0000000001
 43
0.0000000001
 40
0.0
 40
0.0
 40
0.0
 40
0.0
 40
0.1
 40
0.1
 40
0.1
 40
0.1
 40
0.2
 40
0.2
 40
0.2
 40
0.2
 40
0.3
 40
0.3
 40
0.3
 40
0.3
 40
0.4
 40
0.4
 40
0.4
 40
0.4
 40
0.5
 40
0.5
 40
0.5
 40
0.5
 40
0.6
 40
0.6
 40
0.6
 40
0.6
 40
0.7
 40
0.7
 40
0.7
 40
0.7
 40
0.8
 40
0.8
 40
0.8
 40
0.8
 40
1.0
 40
1.0
 40
1.0
 40
1.0
 10
-53.4371
 20
-23.619
 30
0.0
 10
-53.3087
 20
-23.619
 30
0.0
 10
-53.1859
 20
-23.5915
 30
0.0
 10
-53.0688
 20
-23.5371
 30
0.0
 10
-53.0688
 20
-23.5371
 30
0.0
 10
-52.9517
 20
-23.4828
 30
0.0
 10
-52.8628
 20
-23.4066
 30
0.0
 10
-52.8014
 20
-23.3092
 30
0.0
 10
-52.8014
 20
-23.3092
 30
0.0
 10
-52.74
 20
-23.2112
 30
0.0
 10
-52.709
 20
-23.1082
 30
0.0
 10
-52.709
 20
-23.0009
 30
0.0
 10
-52.709
 20
-23.0009
 30
0.0
 10
-52.709
 20
-22.8436
 30
0.0
 10
-52.7725
 20
-22.7088
 30
0.0
 10
-52.8995
 20
-22.5959
 30
0.0
 10
-52.8995
 20
-22.5959
 30
0.0
 10
-53.0265
 20
-22.483
 30
0.0
 10
-53.1986
 20
-22.4266
 30
0.0
 10
-53.416
 20
-22.4266
 30
0.0
 10
-53.416
 20
-22.4266
 30
0.0
 10
-53.6255
 20
-22.4266
 30
0.0
 10
-53.7906
 20
-22.4823
 30
0.0
 10
-53.9113
 20
-22.5938
 30
0.0
 10
-53.9113
 20
-22.5938
 30
0.0
 10
-54.0319
 20
-22.7053
 30
0.0
 10
-54.0919
 20
-22.8457
 30
0.0
 10
-54.0919
 20
-23.015
 30
0.0
 10
-54.0919
 20
-23.015
 30
0.0
 10
-54.0919
 20
-23.1837
 30
0.0
 10
-54.0319
 20
-23.3262
 30
0.0
 10
-53.9113
 20
-23.4433
 30
0.0
 10
-53.9113
 20
-23.4433
 30
0.0
 10
-53.7906
 20
-23.5604
 30
0.0
 10
-53.6326
 20
-23.619
 30
0.0
 10
-53.4371
 20
-23.619
 30
0.0
  0
SPLINE
  5
56
330
1F
100
AcDbEntity
  8
VRSTVA_1
 62
   250
100
AcDbSpline
210
0.0
220
0.0
230
1.0
 70
    11
 71
     3
 72
    68
 73
    64
 74
     0
 42
0.0000000001
 43
0.0000000001
 40
0.0
 40
0.0
 40
0.0
 40
0.0
 40
0.0588235294117647
 40
0.0588235294117647
 40
0.0588235294117647
 40
0.0588235294117647
 40
0.1176470588235294
 40
0.1176470588235294
 40
0.1176470588235294
 40
0.1176470588235294
 40
0.1764705882352941
 40
0.1764705882352941
 40
0.1764705882352941
 40
0.1764705882352941
 40
0.2352941176470588
 40
0.2352941176470588
 40
0.2352941176470588
 40
0.2352941176470588
 40
0.2941176470588235
 40
0.2941176470588235
 40
0.2941176470588235
 40
0.2941176470588235
 40
0.3529411764705883
 40
0.3529411764705883
 40
0.3529411764705883
 40
0.3529411764705883
 40
0.4117647058823529
 40
0.4117647058823529
 40
0.4117647058823529
 40
0.4117647058823529
 40
0.4705882352941176
 40
0.4705882352941176
 40
0.4705882352941176
 40
0.4705882352941176
 40
0.5294117647058824
 40
0.5294117647058824
 40
0.5294117647058824
 40
0.5294117647058824
 40
0.5882352941176471
 40
0.5882352941176471
 40
0.5882352941176471
 40
0.5882352941176471
 40
0.6470588235294118
 40
0.6470588235294118
 40
0.6470588235294118
 40
0.6470588235294118
 40
0.7058823529411765
 40
0.7058823529411765
 40
0.7058823529411765
 40
0.7058823529411765
 40
0.7647058823529411
 40
0.7647058823529411
 40
0.7647058823529411
 40
0.7647058823529411
 40
0.8235294117647058
 40
0.8235294117647058
 40
0.8235294117647058
 40
0.8235294117647058
 40
0.8823529411764706
 40
0.8823529411764706
 40
0.8823529411764706
 40
0.8823529411764706
 40
1.0
 40
1.0
 40
1.0
 40
1.0
 10
-54.0982
 20
-21.103
 30
0.0
 10
-54.1547
 20
-21.2575
 30
0.0
 10
-54.2351
 20
-21.3718
 30
0.0
 10
-54.3402
 20
-21.4466
 30
0.0
 10
-54.3402
 20
-21.4466
 30
0.0
 10
-54.4447
 20
-21.5207
 30
0.0
 10
-54.5702
 20
-21.5581
 30
0.0
 10
-54.7163
 20
-21.5581
 30
0.0
 10
-54.7163
 20
-21.5581
 30
0.0
 10
-54.9371
 20
-21.5581
 30
0.0
 10
-55.122
 20
-21.4791
 30
0.0
 10
-55.2723
 20
-21.3203
 30
0.0
 10
-55.2723
 20
-21.3203
 30
0.0
 10
-55.4225
 20
-21.1616
 30
0.0
 10
-55.498
 20
-20.9513
 30
0.0
 10
-55.498
 20
-20.6881
 30
0.0
 10
-55.498
 20
-20.6881
 30
0.0
 10
-55.498
 20
-20.4236
 30
0.0
 10
-55.4211
 20
-20.2105
 30
0.0
 10
-55.2673
 20
-20.0489
 30
0.0
 10
-55.2673
 20
-20.0489
 30
0.0
 10
-55.1135
 20
-19.8881
 30
0.0
 10
-54.9265
 20
-19.8076
 30
0.0
 10
-54.7057
 20
-19.8076
 30
0.0
 10
-54.7057
 20
-19.8076
 30
0.0
 10
-54.5653
 20
-19.8076
 30
0.0
 10
-54.4432
 20
-19.8443
 30
0.0
 10
-54.3388
 20
-19.9177
 30
0.0
 10
-54.3388
 20
-19.9177
 30
0.0
 10
-54.2351
 20
-19.9918
 30
0.0
 10
-54.1547
 20
-20.1032
 30
0.0
 10
-54.0982
 20
-20.2535
 30
0.0
 10
-54.0982
 20
-20.2535
 30
0.0
 10
-54.0375
 20
-20.068
 30
0.0
 10
-53.9402
 20
-19.9262
 30
0.0
 10
-53.8047
 20
-19.8288
 30
0.0
 10
-53.8047
 20
-19.8288
 30
0.0
 10
-53.67
 20
-19.7321
 30
0.0
 10
-53.5084
 20
-19.6834
 30
0.0
 10
-53.3214
 20
-19.6834
 30
0.0
 10
-53.3214
 20
-19.6834
 30
0.0
 10
-53.0618
 20
-19.6834
 30
0.0
 10
-52.8445
 20
-19.7752
 30
0.0
 10
-52.6681
 20
-19.9579
 30
0.0
 10
-52.6681
 20
-19.9579
 30
0.0
 10
-52.4917
 20
-20.1413
 30
0.0
 10
-52.4035
 20
-20.3826
 30
0.0
 10
-52.4035
 20
-20.6818
 30
0.0
 10
-52.4035
 20
-20.6818
 30
0.0
 10
-52.4035
 20
-20.981
 30
0.0
 10
-52.4917
 20
-21.2215
 30
0.0
 10
-52.6688
 20
-21.405
 30
0.0
 10
-52.6688
 20
-21.405
 30
0.0
 10
-52.8459
 20
-21.5884
 30
0.0
 10
-53.0667
 20
-21.6802
 30
0.0
 10
-53.3313
 20
-21.6802
 30
0.0
 10
-53.3313
 20
-21.6802
 30
0.0
 10
-53.5281
 20
-21.6802
 30
0.0
 10
-53.6932
 20
-21.6301
 30
0.0
 10
-53.8266
 20
-21.5299
 30
0.0
 10
-53.8266
 20
-21.5299
 30
0.0
 10
-53.9592
 20
-21.4304
 30
0.0
 10
-54.0502
 20
-21.2879
 30
0.0
 10
-54.0982
 20
-21.103
 30
0.0
  0
SPLINE
  5
57
330
1F
100
AcDbEntity
  8
VRSTVA_1
 62
   250
100
AcDbSpline
210
0.0
220
0.0
230
1.0
 70
    11
 71
     3
 72
    36
 73
    32
 74
     0
 42
0.0000000001
 43
0.0000000001
 40
0.0
 40
0.0
 40
0.0
 40
0.0
 40
0.1111111111111111
 40
0.1111111111111111
 40
0.1111111111111111
 40
0.1111111111111111
 40
0.2222222222222222
 40
0.2222222222222222
 40
0.2222222222222222
 40
0.2222222222222222
 40
0.3333333333333333
 40
0.3333333333333333
 40
0.3333333333333333
 40
0.3333333333333333
 40
0.4444444444444444
 40
0.4444444444444444
 40
0.4444444444444444
 40
0.4444444444444444
 40
0.5555555555555556
 40
0.5555555555555556
 40
0.5555555555555556
 40
0.5555555555555556
 40
0.6666666666666666
 40
0.6666666666666666
 40
0.6666666666666666
 40
0.6666666666666666
 40
0.7777777777777778
 40
0.7777777777777778
 40
0.7777777777777778
 40
0.7777777777777778
 40
1.0
 40
1.0
 40
1.0
 40
1.0
 10
-54.729
 20
-21.1778
 30
0.0
 10
-54.5858
 20
-21.1778
 30
0.0
 10
-54.4686
 20
-21.1312
 30
0.0
 10
-54.3776
 20
-21.0395
 30
0.0
 10
-54.3776
 20
-21.0395
 30
0.0
 10
-54.2866
 20
-20.9471
 30
0.0
 10
-54.2407
 20
-20.8271
 30
0.0
 10
-54.2407
 20
-20.6797
 30
0.0
 10
-54.2407
 20
-20.6797
 30
0.0
 10
-54.2407
 20
-20.5365
 30
0.0
 10
-54.2859
 20
-20.4186
 30
0.0
 10
-54.3762
 20
-20.3269
 30
0.0
 10
-54.3762
 20
-20.3269
 30
0.0
 10
-54.4665
 20
-20.2352
 30
0.0
 10
-54.5773
 20
-20.19
 30
0.0
 10
-54.7078
 20
-20.19
 30
0.0
 10
-54.7078
 20
-20.19
 30
0.0
 10
-54.8447
 20
-20.19
 30
0.0
 10
-54.959
 20
-20.2366
 30
0.0
 10
-55.0521
 20
-20.3311
 30
0.0
 10
-55.0521
 20
-20.3311
 30
0.0
 10
-55.1453
 20
-20.4257
 30
0.0
 10
-55.1918
 20
-20.5428
 30
0.0
 10
-55.1918
 20
-20.6839
 30
0.0
 10
-55.1918
 20
-20.6839
 30
0.0
 10
-55.1918
 20
-20.8257
 30
0.0
 10
-55.146
 20
-20.9436
 30
0.0
 10
-55.0557
 20
-21.0374
 30
0.0
 10
-55.0557
 20
-21.0374
 30
0.0
 10
-54.9646
 20
-21.1312
 30
0.0
 10
-54.8553
 20
-21.1778
 30
0.0
 10
-54.729
 20
-21.1778
 30
0.0
  0
SPLINE
  5
58
330
1F
100
AcDbEntity
  8
VRSTVA_1
 62
   250
100
AcDbSpline
210
0.0
220
0.0
230
1.0
 70
    11
 71
     3
 72
    40
 73
    36
 74
     0
 42
0.0000000001
 43
0.0000000001
 40
0.0
 40
0.0
 40
0.0
 40
0.0
 40
0.1
 40
0.1
 40
0.1
 40
0.1
 40
0.2
 40
0.2
 40
0.2
 40
0.2
 40
0.3
 40
0.3
 40
0.3
 40
0.3
 40
0.4
 40
0.4
 40
0.4
 40
0.4
 40
0.5
 40
0.5
 40
0.5
 40
0.5
 40
0.6
 40
0.6
 40
0.6
 40
0.6
 40
0.7
 40
0.7
 40
0.7
 40
0.7
 40
0.8
 40
0.8
 40
0.8
 40
0.8
 40
1.0
 40
1.0
 40
1.0
 40
1.0
 10
-53.3292
 20
-21.2977
 30
0.0
 10
-53.2233
 20
-21.2977
 30
0.0
 10
-53.1203
 20
-21.2723
 30
0.0
 10
-53.0216
 20
-21.2222
 30
0.0
 10
-53.0216
 20
-21.2222
 30
0.0
 10
-52.9221
 20
-21.1722
 30
0.0
 10
-52.8452
 20
-21.0974
 30
0.0
 10
-52.7908
 20
-20.9979
 30
0.0
 10
-52.7908
 20
-20.9979
 30
0.0
 10
-52.7365
 20
-20.8984
 30
0.0
 10
-52.709
 20
-20.7919
 30
0.0
 10
-52.709
 20
-20.6776
 30
0.0
 10
-52.709
 20
-20.6776
 30
0.0
 10
-52.709
 20
-20.4998
 30
0.0
 10
-52.7661
 20
-20.353
 30
0.0
 10
-52.8812
 20
-20.2373
 30
0.0
 10
-52.8812
 20
-20.2373
 30
0.0
 10
-52.9955
 20
-20.1216
 30
0.0
 10
-53.1408
 20
-20.0637
 30
0.0
 10
-53.3172
 20
-20.0637
 30
0.0
 10
-53.3172
 20
-20.0637
 30
0.0
 10
-53.4964
 20
-20.0637
 30
0.0
 10
-53.6446
 20
-20.123
 30
0.0
 10
-53.7617
 20
-20.2422
 30
0.0
 10
-53.7617
 20
-20.2422
 30
0.0
 10
-53.8788
 20
-20.3615
 30
0.0
 10
-53.9374
 20
-20.5111
 30
0.0
 10
-53.9374
 20
-20.6903
 30
0.0
 10
-53.9374
 20
-20.6903
 30
0.0
 10
-53.9374
 20
-20.8652
 30
0.0
 10
-53.8795
 20
-21.0099
 30
0.0
 10
-53.7638
 20
-21.1249
 30
0.0
 10
-53.7638
 20
-21.1249
 30
0.0
 10
-53.6474
 20
-21.2399
 30
0.0
 10
-53.5027
 20
-21.2977
 30
0.0
 10
-53.3292
 20
-21.2977
 30
0.0
  0
SPLINE
  5
59
330
1F
100
AcDbEntity
  8
VRSTVA_1
 62
   250
100
AcDbSpline
210
0.0
220
0.0
230
1.0
 70
    11
 71
     3
 72
    20
 73
    16
 74
     0
 42
0.0000000001
 43
0.0000000001
 40
0.0
 40
0.0
 40
0.0
 40
0.0
 40
0.2
 40
0.2
 40
0.2
 40
0.2
 40
0.4
 40
0.4
 40
0.4
 40
0.4
 40
0.6
 40
0.6
 40
0.6
 40
0.6
 40
1.0
 40
1.0
 40
1.0
 40
1.0
 10
-51.24
 20
-6.8654
 30
0.0
 10
-51.24
 20
-6.8654
 30
0.0
 10
-51.7416
 20
-10.4193
 30
0.0
 10
-51.7416
 20
-10.4193
 30
0.0
 10
-51.7416
 20
-10.4193
 30
0.0
 10
-51.7416
 20
-10.4193
 30
0.0
 10
-51.853
 20
-10.4193
 30
0.0
 10
-51.853
 20
-10.4193
 30
0.0
 10
-51.853
 20
-10.4193
 30
0.0
 10
-51.853
 20
-10.4193
 30
0.0
 10
-52.3879
 20
-6.8654
 30
0.0
 10
-52.3879
 20
-6.8654
 30
0.0
 10
-52.3879
 20
-6.8654
 30
0.0
 10
-52.3879
 20
-6.8654
 30
0.0
 10
-51.24
 20
-6.8654
 30
0.0
 10
-51.24
 20
-6.8654
 30
0.0
  0
SPLINE
  5
5A
330
1F
100
AcDbEntity
  8
VRSTVA_1
 62
   250
100
AcDbSpline
210
0.0
220
0.0
230
1.0
 70
    11
 71
     3
 72
    20
 73
    16
 74
     0
 42
0.0000000001
 43
0.0000000001
 40
0.0
 40
0.0
 40
0.0
 40
0.0
 40
0.2
 40
0.2
 40
0.2
 40
0.2
 40
0.4
 40
0.4
 40
0.4
 40
0.4
 40
0.6
 40
0.6
 40
0.6
 40
0.6
 40
1.0
 40
1.0
 40
1.0
 40
1.0
 10
-51.2146
 20
-29.7988
 30
0.0
 10
-51.2146
 20
-29.7988
 30
0.0
 10
-51.7161
 20
-33.3526
 30
0.0
 10
-51.7161
 20
-33.3526
 30
0.0
 10
-51.7161
 20
-33.3526
 30
0.0
 10
-51.7161
 20
-33.3526
 30
0.0
 10
-51.8275
 20
-33.3526
 30
0.0
 10
-51.8275
 20
-33.3526
 30
0.0
 10
-51.8275
 20
-33.3526
 30
0.0
 10
-51.8275
 20
-33.3526
 30
0.0
 10
-52.3624
 20
-29.7988
 30
0.0
 10
-52.3624
 20
-29.7988
 30
0.0
 10
-52.3624
 20
-29.7988
 30
0.0
 10
-52.3624
 20
-29.7988
 30
0.0
 10
-51.2146
 20
-29.7988
 30
0.0
 10
-51.2146
 20
-29.7988
 30
0.0
  0
SPLINE
  5
5B
330
1F
100
AcDbEntity
  8
VRSTVA_1
 62
   250
100
AcDbSpline
210
0.0
220
0.0
230
1.0
 70
    11
 71
     3
 72
    20
 73
    16
 74
     0
 42
0.0000000001
 43
0.0000000001
 40
0.0
 40
0.0
 40
0.0
 40
0.0
 40
0.2
 40
0.2
 40
0.2
 40
0.2
 40
0.4
 40
0.4
 40
0.4
 40
0.4
 40
0.6
 40
0.6
 40
0.6
 40
0.6
 40
1.0
 40
1.0
 40
1.0
 40
1.0
 10
-52.3504
 20
-14.1309
 30
0.0
 10
-52.3504
 20
-14.1309
 30
0.0
 10
-51.8489
 20
-10.5771
 30
0.0
 10
-51.8489
 20
-10.5771
 30
0.0
 10
-51.8489
 20
-10.5771
 30
0.0
 10
-51.8489
 20
-10.5771
 30
0.0
 10
-51.7375
 20
-10.5771
 30
0.0
 10
-51.7375
 20
-10.5771
 30
0.0
 10
-51.7375
 20
-10.5771
 30
0.0
 10
-51.7375
 20
-10.5771
 30
0.0
 10
-51.2026
 20
-14.1309
 30
0.0
 10
-51.2026
 20
-14.1309
 30
0.0
 10
-51.2026
 20
-14.1309
 30
0.0
 10
-51.2026
 20
-14.1309
 30
0.0
 10
-52.3504
 20
-14.1309
 30
0.0
 10
-52.3504
 20
-14.1309
 30
0.0
  0
SPLINE
  5
5C
330
1F
100
AcDbEntity
  8
VRSTVA_1
 62
   250
100
AcDbSpline
210
0.0
220
0.0
230
1.0
 70
    11
 71
     3
 72
   116
 73
   112
 74
     0
 42
0.0000000001
 43
0.0000000001
 40
0.0
 40
0.0
 40
0.0
 40
0.0
 40
0.0344827586206897
 40
0.0344827586206897
 40
0.0344827586206897
 40
0.0344827586206897
 40
0.0689655172413793
 40
0.0689655172413793
 40
0.0689655172413793
 40
0.0689655172413793
 40
0.103448275862069
 40
0.103448275862069
 40
0.103448275862069
 40
0.103448275862069
 40
0.1379310344827586
 40
0.1379310344827586
 40
0.1379310344827586
 40
0.1379310344827586
 40
0.1724137931034483
 40
0.1724137931034483
 40
0.1724137931034483
 40
0.1724137931034483
 40
0.2068965517241379
 40
0.2068965517241379
 40
0.2068965517241379
 40
0.2068965517241379
 40
0.2413793103448276
 40
0.2413793103448276
 40
0.2413793103448276
 40
0.2413793103448276
 40
0.2758620689655172
 40
0.2758620689655172
 40
0.2758620689655172
 40
0.2758620689655172
 40
0.3103448275862069
 40
0.3103448275862069
 40
0.3103448275862069
 40
0.3103448275862069
 40
0.3448275862068966
 40
0.3448275862068966
 40
0.3448275862068966
 40
0.3448275862068966
 40
0.3793103448275862
 40
0.3793103448275862
 40
0.3793103448275862
 40
0.3793103448275862
 40
0.4137931034482759
 40
0.4137931034482759
 40
0.4137931034482759
 40
0.4137931034482759
 40
0.4482758620689655
 40
0.4482758620689655
 40
0.4482758620689655
 40
0.4482758620689655
 40
0.4827586206896552
 40
0.4827586206896552
 40
0.4827586206896552
 40
0.4827586206896552
 40
0.5172413793103449
 40
0.5172413793103449
 40
0.5172413793103449
 40
0.5172413793103449
 40
0.5517241379310345
 40
0.5517241379310345
 40
0.5517241379310345
 40
0.5517241379310345
 40
0.5862068965517241
 40
0.5862068965517241
 40
0.5862068965517241
 40
0.5862068965517241
 40
0.6206896551724138
 40
0.6206896551724138
 40
0.6206896551724138
 40
0.6206896551724138
 40
0.6551724137931034
 40
0.6551724137931034
 40
0.6551724137931034
 40
0.6551724137931034
 40
0.6896551724137931
 40
0.6896551724137931
 40
0.6896551724137931
 40
0.6896551724137931
 40
0.7241379310344828
 40
0.7241379310344828
 40
0.7241379310344828
 40
0.7241379310344828
 40
0.7586206896551724
 40
0.7586206896551724
 40
0.7586206896551724
 40
0.7586206896551724
 40
0.7931034482758621
 40
0.7931034482758621
 40
0.7931034482758621
 40
0.7931034482758621
 40
0.8275862068965517
 40
0.8275862068965517
 40
0.8275862068965517
 40
0.8275862068965517
 40
0.8620689655172413
 40
0.8620689655172413
 40
0.8620689655172413
 40
0.8620689655172413
 40
0.896551724137931
 40
0.896551724137931
 40
0.896551724137931
 40
0.896551724137931
 40
0.9310344827586207
 40
0.9310344827586207
 40
0.9310344827586207
 40
0.9310344827586207
 40
1.0
 40
1.0
 40
1.0
 40
1.0
 10
-9.4068
 20
8.3963
 30
0.0
 10
-9.4068
 20
8.3963
 30
0.0
 10
-9.4068
 20
10.5913
 30
0.0
 10
-9.4068
 20
10.5913
 30
0.0
 10
-9.4068
 20
10.5913
 30
0.0
 10
-9.4068
 20
10.5913
 30
0.0
 10
-9.0745
 20
10.5913
 30
0.0
 10
-9.0745
 20
10.5913
 30
0.0
 10
-9.0745
 20
10.5913
 30
0.0
 10
-9.0745
 20
10.5913
 30
0.0
 10
-9.0745
 20
10.2836
 30
0.0
 10
-9.0745
 20
10.2836
 30
0.0
 10
-9.0745
 20
10.2836
 30
0.0
 10
-9.0053
 20
10.3909
 30
0.0
 10
-8.9136
 20
10.4777
 30
0.0
 10
-8.7993
 20
10.5426
 30
0.0
 10
-8.7993
 20
10.5426
 30
0.0
 10
-8.685
 20
10.6082
 30
0.0
 10
-8.5545
 20
10.6414
 30
0.0
 10
-8.4084
 20
10.6414
 30
0.0
 10
-8.4084
 20
10.6414
 30
0.0
 10
-8.2462
 20
10.6414
 30
0.0
 10
-8.1128
 20
10.6075
 30
0.0
 10
-8.0091
 20
10.5398
 30
0.0
 10
-8.0091
 20
10.5398
 30
0.0
 10
-7.9047
 20
10.472
 30
0.0
 10
-7.8313
 20
10.3782
 30
0.0
 10
-7.789
 20
10.2568
 30
0.0
 10
-7.789
 20
10.2568
 30
0.0
 10
-7.6147
 20
10.513
 30
0.0
 10
-7.3889
 20
10.6414
 30
0.0
 10
-7.1109
 20
10.6414
 30
0.0
 10
-7.1109
 20
10.6414
 30
0.0
 10
-6.8929
 20
10.6414
 30
0.0
 10
-6.7257
 20
10.5807
 30
0.0
 10
-6.6086
 20
10.46
 30
0.0
 10
-6.6086
 20
10.46
 30
0.0
 10
-6.4915
 20
10.3394
 30
0.0
 10
-6.4329
 20
10.1538
 30
0.0
 10
-6.4329
 20
9.9034
 30
0.0
 10
-6.4329
 20
9.9034
 30
0.0
 10
-6.4329
 20
9.9034
 30
0.0
 10
-6.4329
 20
8.3963
 30
0.0
 10
-6.4329
 20
8.3963
 30
0.0
 10
-6.4329
 20
8.3963
 30
0.0
 10
-6.4329
 20
8.3963
 30
0.0
 10
-6.8026
 20
8.3963
 30
0.0
 10
-6.8026
 20
8.3963
 30
0.0
 10
-6.8026
 20
8.3963
 30
0.0
 10
-6.8026
 20
8.3963
 30
0.0
 10
-6.8026
 20
9.7792
 30
0.0
 10
-6.8026
 20
9.7792
 30
0.0
 10
-6.8026
 20
9.7792
 30
0.0
 10
-6.8026
 20
9.928
 30
0.0
 10
-6.8146
 20
10.0353
 30
0.0
 10
-6.8386
 20
10.1009
 30
0.0
 10
-6.8386
 20
10.1009
 30
0.0
 10
-6.8633
 20
10.1658
 30
0.0
 10
-6.907
 20
10.2187
 30
0.0
 10
-6.9698
 20
10.259
 30
0.0
 10
-6.9698
 20
10.259
 30
0.0
 10
-7.0333
 20
10.2985
 30
0.0
 10
-7.1081
 20
10.3189
 30
0.0
 10
-7.1935
 20
10.3189
 30
0.0
 10
-7.1935
 20
10.3189
 30
0.0
 10
-7.348
 20
10.3189
 30
0.0
 10
-7.4757
 20
10.2674
 30
0.0
 10
-7.578
 20
10.1644
 30
0.0
 10
-7.578
 20
10.1644
 30
0.0
 10
-7.6796
 20
10.0621
 30
0.0
 10
-7.7311
 20
9.8977
 30
0.0
 10
-7.7311
 20
9.6719
 30
0.0
 10
-7.7311
 20
9.6719
 30
0.0
 10
-7.7311
 20
9.6719
 30
0.0
 10
-7.7311
 20
8.3963
 30
0.0
 10
-7.7311
 20
8.3963
 30
0.0
 10
-7.7311
 20
8.3963
 30
0.0
 10
-7.7311
 20
8.3963
 30
0.0
 10
-8.1029
 20
8.3963
 30
0.0
 10
-8.1029
 20
8.3963
 30
0.0
 10
-8.1029
 20
8.3963
 30
0.0
 10
-8.1029
 20
8.3963
 30
0.0
 10
-8.1029
 20
9.8222
 30
0.0
 10
-8.1029
 20
9.8222
 30
0.0
 10
-8.1029
 20
9.8222
 30
0.0
 10
-8.1029
 20
9.988
 30
0.0
 10
-8.1333
 20
10.1122
 30
0.0
 10
-8.194
 20
10.1947
 30
0.0
 10
-8.194
 20
10.1947
 30
0.0
 10
-8.2546
 20
10.2773
 30
0.0
 10
-8.3534
 20
10.3189
 30
0.0
 10
-8.4917
 20
10.3189
 30
0.0
 10
-8.4917
 20
10.3189
 30
0.0
 10
-8.5961
 20
10.3189
 30
0.0
 10
-8.6928
 20
10.2914
 30
0.0
 10
-8.7817
 20
10.2357
 30
0.0
 10
-8.7817
 20
10.2357
 30
0.0
 10
-8.8706
 20
10.1806
 30
0.0
 10
-8.9355
 20
10.1002
 30
0.0
 10
-8.975
 20
9.9944
 30
0.0
 10
-8.975
 20
9.9944
 30
0.0
 10
-9.0152
 20
9.8878
 30
0.0
 10
-9.035
 20
9.7347
 30
0.0
 10
-9.035
 20
9.5351
 30
0.0
 10
-9.035
 20
9.5351
 30
0.0
 10
-9.035
 20
9.5351
 30
0.0
 10
-9.035
 20
8.3963
 30
0.0
 10
-9.035
 20
8.3963
 30
0.0
 10
-9.035
 20
8.3963
 30
0.0
 10
-9.035
 20
8.3963
 30
0.0
 10
-9.4068
 20
8.3963
 30
0.0
 10
-9.4068
 20
8.3963
 30
0.0
  0
SPLINE
  5
5D
330
1F
100
AcDbEntity
  8
VRSTVA_1
 62
   250
100
AcDbSpline
210
0.0
220
0.0
230
1.0
 70
    11
 71
     3
 72
   112
 73
   108
 74
     0
 42
0.0000000001
 43
0.0000000001
 40
0.0
 40
0.0
 40
0.0
 40
0.0
 40
0.0357142857142857
 40
0.0357142857142857
 40
0.0357142857142857
 40
0.0357142857142857
 40
0.0714285714285714
 40
0.0714285714285714
 40
0.0714285714285714
 40
0.0714285714285714
 40
0.1071428571428571
 40
0.1071428571428571
 40
0.1071428571428571
 40
0.1071428571428571
 40
0.1428571428571428
 40
0.1428571428571428
 40
0.1428571428571428
 40
0.1428571428571428
 40
0.1785714285714286
 40
0.1785714285714286
 40
0.1785714285714286
 40
0.1785714285714286
 40
0.2142857142857143
 40
0.2142857142857143
 40
0.2142857142857143
 40
0.2142857142857143
 40
0.25
 40
0.25
 40
0.25
 40
0.25
 40
0.2857142857142857
 40
0.2857142857142857
 40
0.2857142857142857
 40
0.2857142857142857
 40
0.3214285714285715
 40
0.3214285714285715
 40
0.3214285714285715
 40
0.3214285714285715
 40
0.3571428571428572
 40
0.3571428571428572
 40
0.3571428571428572
 40
0.3571428571428572
 40
0.3928571428571428
 40
0.3928571428571428
 40
0.3928571428571428
 40
0.3928571428571428
 40
0.4285714285714285
 40
0.4285714285714285
 40
0.4285714285714285
 40
0.4285714285714285
 40
0.4642857142857143
 40
0.4642857142857143
 40
0.4642857142857143
 40
0.4642857142857143
 40
0.5
 40
0.5
 40
0.5
 40
0.5
 40
0.5357142857142857
 40
0.5357142857142857
 40
0.5357142857142857
 40
0.5357142857142857
 40
0.5714285714285714
 40
0.5714285714285714
 40
0.5714285714285714
 40
0.5714285714285714
 40
0.6071428571428571
 40
0.6071428571428571
 40
0.6071428571428571
 40
0.6071428571428571
 40
0.6428571428571429
 40
0.6428571428571429
 40
0.6428571428571429
 40
0.6428571428571429
 40
0.6785714285714286
 40
0.6785714285714286
 40
0.6785714285714286
 40
0.6785714285714286
 40
0.7142857142857143
 40
0.7142857142857143
 40
0.7142857142857143
 40
0.7142857142857143
 40
0.75
 40
0.75
 40
0.75
 40
0.75
 40
0.7857142857142857
 40
0.7857142857142857
 40
0.7857142857142857
 40
0.7857142857142857
 40
0.8214285714285714
 40
0.8214285714285714
 40
0.8214285714285714
 40
0.8214285714285714
 40
0.8571428571428571
 40
0.8571428571428571
 40
0.8571428571428571
 40
0.8571428571428571
 40
0.8928571428571429
 40
0.8928571428571429
 40
0.8928571428571429
 40
0.8928571428571429
 40
0.9285714285714286
 40
0.9285714285714286
 40
0.9285714285714286
 40
0.9285714285714286
 40
1.0
 40
1.0
 40
1.0
 40
1.0
 10
-4.4482
 20
8.6672
 30
0.0
 10
-4.5865
 20
8.5501
 30
0.0
 10
-4.7192
 20
8.4676
 30
0.0
 10
-4.8462
 20
8.4189
 30
0.0
 10
-4.8462
 20
8.4189
 30
0.0
 10
-4.9739
 20
8.3709
 30
0.0
 10
-5.1107
 20
8.3469
 30
0.0
 10
-5.2568
 20
8.3469
 30
0.0
 10
-5.2568
 20
8.3469
 30
0.0
 10
-5.4981
 20
8.3469
 30
0.0
 10
-5.6829
 20
8.4055
 30
0.0
 10
-5.8128
 20
8.5233
 30
0.0
 10
-5.8128
 20
8.5233
 30
0.0
 10
-5.9419
 20
8.6411
 30
0.0
 10
-6.0068
 20
8.7921
 30
0.0
 10
-6.0068
 20
8.9749
 30
0.0
 10
-6.0068
 20
8.9749
 30
0.0
 10
-6.0068
 20
9.0828
 30
0.0
 10
-5.9828
 20
9.1809
 30
0.0
 10
-5.9334
 20
9.2698
 30
0.0
 10
-5.9334
 20
9.2698
 30
0.0
 10
-5.8847
 20
9.3587
 30
0.0
 10
-5.8205
 20
9.4299
 30
0.0
 10
-5.7415
 20
9.4836
 30
0.0
 10
-5.7415
 20
9.4836
 30
0.0
 10
-5.6618
 20
9.5372
 30
0.0
 10
-5.5729
 20
9.5781
 30
0.0
 10
-5.4734
 20
9.6056
 30
0.0
 10
-5.4734
 20
9.6056
 30
0.0
 10
-5.4007
 20
9.6247
 30
0.0
 10
-5.2907
 20
9.6437
 30
0.0
 10
-5.1432
 20
9.6614
 30
0.0
 10
-5.1432
 20
9.6614
 30
0.0
 10
-4.8426
 20
9.6973
 30
0.0
 10
-4.6211
 20
9.7397
 30
0.0
 10
-4.4793
 20
9.7898
 30
0.0
 10
-4.4793
 20
9.7898
 30
0.0
 10
-4.4779
 20
9.8406
 30
0.0
 10
-4.4772
 20
9.873
 30
0.0
 10
-4.4772
 20
9.8864
 30
0.0
 10
-4.4772
 20
9.8864
 30
0.0
 10
-4.4772
 20
10.0381
 30
0.0
 10
-4.5124
 20
10.1454
 30
0.0
 10
-4.583
 20
10.2067
 30
0.0
 10
-4.583
 20
10.2067
 30
0.0
 10
-4.6775
 20
10.2914
 30
0.0
 10
-4.8194
 20
10.333
 30
0.0
 10
-5.0063
 20
10.333
 30
0.0
 10
-5.0063
 20
10.333
 30
0.0
 10
-5.1813
 20
10.333
 30
0.0
 10
-5.3104
 20
10.3027
 30
0.0
 10
-5.3944
 20
10.2413
 30
0.0
 10
-5.3944
 20
10.2413
 30
0.0
 10
-5.4776
 20
10.1799
 30
0.0
 10
-5.539
 20
10.0713
 30
0.0
 10
-5.5792
 20
9.9153
 30
0.0
 10
-5.5792
 20
9.9153
 30
0.0
 10
-5.5792
 20
9.9153
 30
0.0
 10
-5.9426
 20
9.9654
 30
0.0
 10
-5.9426
 20
9.9654
 30
0.0
 10
-5.9426
 20
9.9654
 30
0.0
 10
-5.9094
 20
10.1207
 30
0.0
 10
-5.8551
 20
10.247
 30
0.0
 10
-5.7796
 20
10.3422
 30
0.0
 10
-5.7796
 20
10.3422
 30
0.0
 10
-5.7041
 20
10.4382
 30
0.0
 10
-5.594
 20
10.5122
 30
0.0
 10
-5.4508
 20
10.5637
 30
0.0
 10
-5.4508
 20
10.5637
 30
0.0
 10
-5.3076
 20
10.6153
 30
0.0
 10
-5.1418
 20
10.6414
 30
0.0
 10
-4.9527
 20
10.6414
 30
0.0
 10
-4.9527
 20
10.6414
 30
0.0
 10
-4.765
 20
10.6414
 30
0.0
 10
-4.6133
 20
10.6188
 30
0.0
 10
-4.4962
 20
10.575
 30
0.0
 10
-4.4962
 20
10.575
 30
0.0
 10
-4.3791
 20
10.5306
 30
0.0
 10
-4.293
 20
10.4756
 30
0.0
 10
-4.2373
 20
10.4085
 30
0.0
 10
-4.2373
 20
10.4085
 30
0.0
 10
-4.1822
 20
10.3415
 30
0.0
 10
-4.1441
 20
10.2575
 30
0.0
 10
-4.1216
 20
10.1552
 30
0.0
 10
-4.1216
 20
10.1552
 30
0.0
 10
-4.1096
 20
10.0917
 30
0.0
 10
-4.1032
 20
9.9774
 30
0.0
 10
-4.1032
 20
9.8123
 30
0.0
 10
-4.1032
 20
9.8123
 30
0.0
 10
-4.1032
 20
9.8123
 30
0.0
 10
-4.1032
 20
9.3163
 30
0.0
 10
-4.1032
 20
9.3163
 30
0.0
 10
-4.1032
 20
9.3163
 30
0.0
 10
-4.1032
 20
8.9699
 30
0.0
 10
-4.0955
 20
8.7512
 30
0.0
 10
-4.0792
 20
8.6602
 30
0.0
 10
-4.0792
 20
8.6602
 30
0.0
 10
-4.0637
 20
8.5685
 30
0.0
 10
-4.032
 20
8.4803
 30
0.0
 10
-3.9854
 20
8.3963
 30
0.0
 10
-3.9854
 20
8.3963
 30
0.0
 10
-3.9854
 20
8.3963
 30
0.0
 10
-4.3742
 20
8.3963
 30
0.0
 10
-4.3742
 20
8.3963
 30
0.0
 10
-4.3742
 20
8.3963
 30
0.0
 10
-4.4123
 20
8.4732
 30
0.0
 10
-4.4377
 20
8.5635
 30
0.0
 10
-4.4482
 20
8.6672
 30
0.0
  0
SPLINE
  5
5E
330
1F
100
AcDbEntity
  8
VRSTVA_1
 62
   250
100
AcDbSpline
210
0.0
220
0.0
230
1.0
 70
    11
 71
     3
 72
    44
 73
    40
 74
     0
 42
0.0000000001
 43
0.0000000001
 40
0.0
 40
0.0
 40
0.0
 40
0.0
 40
0.0909090909090909
 40
0.0909090909090909
 40
0.0909090909090909
 40
0.0909090909090909
 40
0.1818181818181818
 40
0.1818181818181818
 40
0.1818181818181818
 40
0.1818181818181818
 40
0.2727272727272727
 40
0.2727272727272727
 40
0.2727272727272727
 40
0.2727272727272727
 40
0.3636363636363636
 40
0.3636363636363636
 40
0.3636363636363636
 40
0.3636363636363636
 40
0.4545454545454545
 40
0.4545454545454545
 40
0.4545454545454545
 40
0.4545454545454545
 40
0.5454545454545454
 40
0.5454545454545454
 40
0.5454545454545454
 40
0.5454545454545454
 40
0.6363636363636364
 40
0.6363636363636364
 40
0.6363636363636364
 40
0.6363636363636364
 40
0.7272727272727273
 40
0.7272727272727273
 40
0.7272727272727273
 40
0.7272727272727273
 40
0.8181818181818182
 40
0.8181818181818182
 40
0.8181818181818182
 40
0.8181818181818182
 40
1.0
 40
1.0
 40
1.0
 40
1.0
 10
-4.4793
 20
9.4984
 30
0.0
 10
-4.6147
 20
9.4426
 30
0.0
 10
-4.8172
 20
9.3961
 30
0.0
 10
-5.0868
 20
9.3573
 30
0.0
 10
-5.0868
 20
9.3573
 30
0.0
 10
-5.2399
 20
9.3354
 30
0.0
 10
-5.3485
 20
9.3107
 30
0.0
 10
-5.4113
 20
9.2832
 30
0.0
 10
-5.4113
 20
9.2832
 30
0.0
 10
-5.4748
 20
9.2557
 30
0.0
 10
-5.5242
 20
9.2154
 30
0.0
 10
-5.5581
 20
9.1618
 30
0.0
 10
-5.5581
 20
9.1618
 30
0.0
 10
-5.5926
 20
9.1089
 30
0.0
 10
-5.6103
 20
9.0503
 30
0.0
 10
-5.6103
 20
8.9854
 30
0.0
 10
-5.6103
 20
8.9854
 30
0.0
 10
-5.6103
 20
8.886
 30
0.0
 10
-5.5722
 20
8.8034
 30
0.0
 10
-5.4974
 20
8.7371
 30
0.0
 10
-5.4974
 20
8.7371
 30
0.0
 10
-5.4226
 20
8.6715
 30
0.0
 10
-5.3125
 20
8.6383
 30
0.0
 10
-5.1679
 20
8.6383
 30
0.0
 10
-5.1679
 20
8.6383
 30
0.0
 10
-5.0247
 20
8.6383
 30
0.0
 10
-4.897
 20
8.6693
 30
0.0
 10
-4.7855
 20
8.7321
 30
0.0
 10
-4.7855
 20
8.7321
 30
0.0
 10
-4.674
 20
8.7949
 30
0.0
 10
-4.5915
 20
8.881
 30
0.0
 10
-4.5393
 20
8.9897
 30
0.0
 10
-4.5393
 20
8.9897
 30
0.0
 10
-4.499
 20
9.0736
 30
0.0
 10
-4.4793
 20
9.1978
 30
0.0
 10
-4.4793
 20
9.3615
 30
0.0
 10
-4.4793
 20
9.3615
 30
0.0
 10
-4.4793
 20
9.3615
 30
0.0
 10
-4.4793
 20
9.4984
 30
0.0
 10
-4.4793
 20
9.4984
 30
0.0
  0
SPLINE
  5
5F
330
1F
100
AcDbEntity
  8
VRSTVA_1
 62
   250
100
AcDbSpline
210
0.0
220
0.0
230
1.0
 70
    11
 71
     3
 72
    64
 73
    60
 74
     0
 42
0.0000000001
 43
0.0000000001
 40
0.0
 40
0.0
 40
0.0
 40
0.0
 40
0.0625
 40
0.0625
 40
0.0625
 40
0.0625
 40
0.125
 40
0.125
 40
0.125
 40
0.125
 40
0.1875
 40
0.1875
 40
0.1875
 40
0.1875
 40
0.25
 40
0.25
 40
0.25
 40
0.25
 40
0.3125
 40
0.3125
 40
0.3125
 40
0.3125
 40
0.375
 40
0.375
 40
0.375
 40
0.375
 40
0.4375
 40
0.4375
 40
0.4375
 40
0.4375
 40
0.5
 40
0.5
 40
0.5
 40
0.5
 40
0.5625
 40
0.5625
 40
0.5625
 40
0.5625
 40
0.625
 40
0.625
 40
0.625
 40
0.625
 40
0.6875
 40
0.6875
 40
0.6875
 40
0.6875
 40
0.75
 40
0.75
 40
0.75
 40
0.75
 40
0.8125
 40
0.8125
 40
0.8125
 40
0.8125
 40
0.875
 40
0.875
 40
0.875
 40
0.875
 40
1.0
 40
1.0
 40
1.0
 40
1.0
 10
-3.7745
 20
8.3963
 30
0.0
 10
-3.7745
 20
8.3963
 30
0.0
 10
-2.9722
 20
9.5372
 30
0.0
 10
-2.9722
 20
9.5372
 30
0.0
 10
-2.9722
 20
9.5372
 30
0.0
 10
-2.9722
 20
9.5372
 30
0.0
 10
-3.7145
 20
10.5913
 30
0.0
 10
-3.7145
 20
10.5913
 30
0.0
 10
-3.7145
 20
10.5913
 30
0.0
 10
-3.7145
 20
10.5913
 30
0.0
 10
-3.2495
 20
10.5913
 30
0.0
 10
-3.2495
 20
10.5913
 30
0.0
 10
-3.2495
 20
10.5913
 30
0.0
 10
-3.2495
 20
10.5913
 30
0.0
 10
-2.9123
 20
10.0769
 30
0.0
 10
-2.9123
 20
10.0769
 30
0.0
 10
-2.9123
 20
10.0769
 30
0.0
 10
-2.8495
 20
9.9788
 30
0.0
 10
-2.798
 20
9.897
 30
0.0
 10
-2.7599
 20
9.8307
 30
0.0
 10
-2.7599
 20
9.8307
 30
0.0
 10
-2.6992
 20
9.9217
 30
0.0
 10
-2.6435
 20
10.0021
 30
0.0
 10
-2.592
 20
10.0727
 30
0.0
 10
-2.592
 20
10.0727
 30
0.0
 10
-2.592
 20
10.0727
 30
0.0
 10
-2.2222
 20
10.5913
 30
0.0
 10
-2.2222
 20
10.5913
 30
0.0
 10
-2.2222
 20
10.5913
 30
0.0
 10
-2.2222
 20
10.5913
 30
0.0
 10
-1.7777
 20
10.5913
 30
0.0
 10
-1.7777
 20
10.5913
 30
0.0
 10
-1.7777
 20
10.5913
 30
0.0
 10
-1.7777
 20
10.5913
 30
0.0
 10
-2.5362
 20
9.5576
 30
0.0
 10
-2.5362
 20
9.5576
 30
0.0
 10
-2.5362
 20
9.5576
 30
0.0
 10
-2.5362
 20
9.5576
 30
0.0
 10
-1.7199
 20
8.3963
 30
0.0
 10
-1.7199
 20
8.3963
 30
0.0
 10
-1.7199
 20
8.3963
 30
0.0
 10
-1.7199
 20
8.3963
 30
0.0
 10
-2.1764
 20
8.3963
 30
0.0
 10
-2.1764
 20
8.3963
 30
0.0
 10
-2.1764
 20
8.3963
 30
0.0
 10
-2.1764
 20
8.3963
 30
0.0
 10
-2.6272
 20
9.0786
 30
0.0
 10
-2.6272
 20
9.0786
 30
0.0
 10
-2.6272
 20
9.0786
 30
0.0
 10
-2.6272
 20
9.0786
 30
0.0
 10
-2.7472
 20
9.2627
 30
0.0
 10
-2.7472
 20
9.2627
 30
0.0
 10
-2.7472
 20
9.2627
 30
0.0
 10
-2.7472
 20
9.2627
 30
0.0
 10
-3.3236
 20
8.3963
 30
0.0
 10
-3.3236
 20
8.3963
 30
0.0
 10
-3.3236
 20
8.3963
 30
0.0
 10
-3.3236
 20
8.3963
 30
0.0
 10
-3.7745
 20
8.3963
 30
0.0
 10
-3.7745
 20
8.3963
 30
0.0
  0
SPLINE
  5
60
330
1F
100
AcDbEntity
  8
VRSTVA_1
 62
   250
100
AcDbSpline
210
0.0
220
0.0
230
1.0
 70
    11
 71
     3
 72
    92
 73
    88
 74
     0
 42
0.0000000001
 43
0.0000000001
 40
0.0
 40
0.0
 40
0.0
 40
0.0
 40
0.0434782608695652
 40
0.0434782608695652
 40
0.0434782608695652
 40
0.0434782608695652
 40
0.0869565217391304
 40
0.0869565217391304
 40
0.0869565217391304
 40
0.0869565217391304
 40
0.1304347826086956
 40
0.1304347826086956
 40
0.1304347826086956
 40
0.1304347826086956
 40
0.1739130434782609
 40
0.1739130434782609
 40
0.1739130434782609
 40
0.1739130434782609
 40
0.2173913043478261
 40
0.2173913043478261
 40
0.2173913043478261
 40
0.2173913043478261
 40
0.2608695652173913
 40
0.2608695652173913
 40
0.2608695652173913
 40
0.2608695652173913
 40
0.3043478260869565
 40
0.3043478260869565
 40
0.3043478260869565
 40
0.3043478260869565
 40
0.3478260869565217
 40
0.3478260869565217
 40
0.3478260869565217
 40
0.3478260869565217
 40
0.391304347826087
 40
0.391304347826087
 40
0.391304347826087
 40
0.391304347826087
 40
0.4347826086956522
 40
0.4347826086956522
 40
0.4347826086956522
 40
0.4347826086956522
 40
0.4782608695652174
 40
0.4782608695652174
 40
0.4782608695652174
 40
0.4782608695652174
 40
0.5217391304347826
 40
0.5217391304347826
 40
0.5217391304347826
 40
0.5217391304347826
 40
0.5652173913043478
 40
0.5652173913043478
 40
0.5652173913043478
 40
0.5652173913043478
 40
0.6086956521739131
 40
0.6086956521739131
 40
0.6086956521739131
 40
0.6086956521739131
 40
0.6521739130434783
 40
0.6521739130434783
 40
0.6521739130434783
 40
0.6521739130434783
 40
0.6956521739130435
 40
0.6956521739130435
 40
0.6956521739130435
 40
0.6956521739130435
 40
0.7391304347826086
 40
0.7391304347826086
 40
0.7391304347826086
 40
0.7391304347826086
 40
0.782608695652174
 40
0.782608695652174
 40
0.782608695652174
 40
0.782608695652174
 40
0.8260869565217391
 40
0.8260869565217391
 40
0.8260869565217391
 40
0.8260869565217391
 40
0.8695652173913043
 40
0.8695652173913043
 40
0.8695652173913043
 40
0.8695652173913043
 40
0.9130434782608695
 40
0.9130434782608695
 40
0.9130434782608695
 40
0.9130434782608695
 40
1.0
 40
1.0
 40
1.0
 40
1.0
 10
1.6189
 20
8.754
 30
0.0
 10
1.6189
 20
8.754
 30
0.0
 10
1.6189
 20
8.3963
 30
0.0
 10
1.6189
 20
8.3963
 30
0.0
 10
1.6189
 20
8.3963
 30
0.0
 10
1.6189
 20
8.3963
 30
0.0
 10
-0.3842
 20
8.3963
 30
0.0
 10
-0.3842
 20
8.3963
 30
0.0
 10
-0.3842
 20
8.3963
 30
0.0
 10
-0.387
 20
8.4859
 30
0.0
 10
-0.3729
 20
8.572
 30
0.0
 10
-0.3412
 20
8.6545
 30
0.0
 10
-0.3412
 20
8.6545
 30
0.0
 10
-0.2904
 20
8.7914
 30
0.0
 10
-0.2085
 20
8.9255
 30
0.0
 10
-0.0963
 20
9.0581
 30
0.0
 10
-0.0963
 20
9.0581
 30
0.0
 10
0.0166
 20
9.19
 30
0.0
 10
0.1788
 20
9.3431
 30
0.0
 10
0.3905
 20
9.5167
 30
0.0
 10
0.3905
 20
9.5167
 30
0.0
 10
0.72
 20
9.7869
 30
0.0
 10
0.9429
 20
10.0007
 30
0.0
 10
1.0587
 20
10.1588
 30
0.0
 10
1.0587
 20
10.1588
 30
0.0
 10
1.1744
 20
10.3161
 30
0.0
 10
1.2322
 20
10.4657
 30
0.0
 10
1.2322
 20
10.6061
 30
0.0
 10
1.2322
 20
10.6061
 30
0.0
 10
1.2322
 20
10.7535
 30
0.0
 10
1.1793
 20
10.8777
 30
0.0
 10
1.0742
 20
10.9793
 30
0.0
 10
1.0742
 20
10.9793
 30
0.0
 10
0.9683
 20
11.0802
 30
0.0
 10
0.8308
 20
11.131
 30
0.0
 10
0.6614
 20
11.131
 30
0.0
 10
0.6614
 20
11.131
 30
0.0
 10
0.4822
 20
11.131
 30
0.0
 10
0.339
 20
11.0774
 30
0.0
 10
0.2318
 20
10.9694
 30
0.0
 10
0.2318
 20
10.9694
 30
0.0
 10
0.1238
 20
10.8622
 30
0.0
 10
0.0695
 20
10.7133
 30
0.0
 10
0.0681
 20
10.5235
 30
0.0
 10
0.0681
 20
10.5235
 30
0.0
 10
0.0681
 20
10.5235
 30
0.0
 10
-0.3143
 20
10.5623
 30
0.0
 10
-0.3143
 20
10.5623
 30
0.0
 10
-0.3143
 20
10.5623
 30
0.0
 10
-0.2882
 20
10.8481
 30
0.0
 10
-0.1895
 20
11.0654
 30
0.0
 10
-0.0187
 20
11.215
 30
0.0
 10
-0.0187
 20
11.215
 30
0.0
 10
0.152
 20
11.3645
 30
0.0
 10
0.382
 20
11.4393
 30
0.0
 10
0.6699
 20
11.4393
 30
0.0
 10
0.6699
 20
11.4393
 30
0.0
 10
0.9606
 20
11.4393
 30
0.0
 10
1.1906
 20
11.3582
 30
0.0
 10
1.3599
 20
11.1973
 30
0.0
 10
1.3599
 20
11.1973
 30
0.0
 10
1.53
 20
11.0358
 30
0.0
 10
1.6146
 20
10.8361
 30
0.0
 10
1.6146
 20
10.5976
 30
0.0
 10
1.6146
 20
10.5976
 30
0.0
 10
1.6146
 20
10.4763
 30
0.0
 10
1.5899
 20
10.357
 30
0.0
 10
1.5398
 20
10.2399
 30
0.0
 10
1.5398
 20
10.2399
 30
0.0
 10
1.4905
 20
10.1228
 30
0.0
 10
1.4079
 20
9.9993
 30
0.0
 10
1.2929
 20
9.8702
 30
0.0
 10
1.2929
 20
9.8702
 30
0.0
 10
1.1779
 20
9.7404
 30
0.0
 10
0.9867
 20
9.5626
 30
0.0
 10
0.7193
 20
9.3368
 30
0.0
 10
0.7193
 20
9.3368
 30
0.0
 10
0.4963
 20
9.1491
 30
0.0
 10
0.3531
 20
9.0221
 30
0.0
 10
0.2896
 20
8.9551
 30
0.0
 10
0.2896
 20
8.9551
 30
0.0
 10
0.2261
 20
8.8888
 30
0.0
 10
0.1739
 20
8.8217
 30
0.0
 10
0.1323
 20
8.754
 30
0.0
 10
0.1323
 20
8.754
 30
0.0
 10
0.1323
 20
8.754
 30
0.0
 10
1.6189
 20
8.754
 30
0.0
 10
1.6189
 20
8.754
 30
0.0
  0
SPLINE
  5
61
330
1F
100
AcDbEntity
  8
VRSTVA_1
 62
   250
100
AcDbSpline
210
0.0
220
0.0
230
1.0
 70
    11
 71
     3
 72
    92
 73
    88
 74
     0
 42
0.0000000001
 43
0.0000000001
 40
0.0
 40
0.0
 40
0.0
 40
0.0
 40
0.0434782608695652
 40
0.0434782608695652
 40
0.0434782608695652
 40
0.0434782608695652
 40
0.0869565217391304
 40
0.0869565217391304
 40
0.0869565217391304
 40
0.0869565217391304
 40
0.1304347826086956
 40
0.1304347826086956
 40
0.1304347826086956
 40
0.1304347826086956
 40
0.1739130434782609
 40
0.1739130434782609
 40
0.1739130434782609
 40
0.1739130434782609
 40
0.2173913043478261
 40
0.2173913043478261
 40
0.2173913043478261
 40
0.2173913043478261
 40
0.2608695652173913
 40
0.2608695652173913
 40
0.2608695652173913
 40
0.2608695652173913
 40
0.3043478260869565
 40
0.3043478260869565
 40
0.3043478260869565
 40
0.3043478260869565
 40
0.3478260869565217
 40
0.3478260869565217
 40
0.3478260869565217
 40
0.3478260869565217
 40
0.391304347826087
 40
0.391304347826087
 40
0.391304347826087
 40
0.391304347826087
 40
0.4347826086956522
 40
0.4347826086956522
 40
0.4347826086956522
 40
0.4347826086956522
 40
0.4782608695652174
 40
0.4782608695652174
 40
0.4782608695652174
 40
0.4782608695652174
 40
0.5217391304347826
 40
0.5217391304347826
 40
0.5217391304347826
 40
0.5217391304347826
 40
0.5652173913043478
 40
0.5652173913043478
 40
0.5652173913043478
 40
0.5652173913043478
 40
0.6086956521739131
 40
0.6086956521739131
 40
0.6086956521739131
 40
0.6086956521739131
 40
0.6521739130434783
 40
0.6521739130434783
 40
0.6521739130434783
 40
0.6521739130434783
 40
0.6956521739130435
 40
0.6956521739130435
 40
0.6956521739130435
 40
0.6956521739130435
 40
0.7391304347826086
 40
0.7391304347826086
 40
0.7391304347826086
 40
0.7391304347826086
 40
0.782608695652174
 40
0.782608695652174
 40
0.782608695652174
 40
0.782608695652174
 40
0.8260869565217391
 40
0.8260869565217391
 40
0.8260869565217391
 40
0.8260869565217391
 40
0.8695652173913043
 40
0.8695652173913043
 40
0.8695652173913043
 40
0.8695652173913043
 40
0.9130434782608695
 40
0.9130434782608695
 40
0.9130434782608695
 40
0.9130434782608695
 40
1.0
 40
1.0
 40
1.0
 40
1.0
 10
2.0732
 20
9.0969
 30
0.0
 10
2.0732
 20
9.0969
 30
0.0
 10
2.4309
 20
9.1301
 30
0.0
 10
2.4309
 20
9.1301
 30
0.0
 10
2.4309
 20
9.1301
 30
0.0
 10
2.4613
 20
8.9622
 30
0.0
 10
2.5191
 20
8.8401
 30
0.0
 10
2.6045
 20
8.7639
 30
0.0
 10
2.6045
 20
8.7639
 30
0.0
 10
2.6899
 20
8.6884
 30
0.0
 10
2.7992
 20
8.6503
 30
0.0
 10
2.9333
 20
8.6503
 30
0.0
 10
2.9333
 20
8.6503
 30
0.0
 10
3.0476
 20
8.6503
 30
0.0
 10
3.1478
 20
8.6764
 30
0.0
 10
3.2339
 20
8.7293
 30
0.0
 10
3.2339
 20
8.7293
 30
0.0
 10
3.3199
 20
8.7815
 30
0.0
 10
3.3905
 20
8.8514
 30
0.0
 10
3.4455
 20
8.9389
 30
0.0
 10
3.4455
 20
8.9389
 30
0.0
 10
3.5013
 20
9.0264
 30
0.0
 10
3.5471
 20
9.1449
 30
0.0
 10
3.5845
 20
9.2931
 30
0.0
 10
3.5845
 20
9.2931
 30
0.0
 10
3.6212
 20
9.4419
 30
0.0
 10
3.6402
 20
9.5936
 30
0.0
 10
3.6402
 20
9.7481
 30
0.0
 10
3.6402
 20
9.7481
 30
0.0
 10
3.6402
 20
9.7644
 30
0.0
 10
3.6395
 20
9.7898
 30
0.0
 10
3.6381
 20
9.8222
 30
0.0
 10
3.6381
 20
9.8222
 30
0.0
 10
3.5633
 20
9.7044
 30
0.0
 10
3.4617
 20
9.6077
 30
0.0
 10
3.3333
 20
9.5344
 30
0.0
 10
3.3333
 20
9.5344
 30
0.0
 10
3.2042
 20
9.4603
 30
0.0
 10
3.0645
 20
9.4236
 30
0.0
 10
2.9149
 20
9.4236
 30
0.0
 10
2.9149
 20
9.4236
 30
0.0
 10
2.6638
 20
9.4236
 30
0.0
 10
2.4514
 20
9.5146
 30
0.0
 10
2.2778
 20
9.6966
 30
0.0
 10
2.2778
 20
9.6966
 30
0.0
 10
2.1043
 20
9.8787
 30
0.0
 10
2.0175
 20
10.1178
 30
0.0
 10
2.0175
 20
10.4156
 30
0.0
 10
2.0175
 20
10.4156
 30
0.0
 10
2.0175
 20
10.7232
 30
0.0
 10
2.1078
 20
10.9701
 30
0.0
 10
2.2891
 20
11.1578
 30
0.0
 10
2.2891
 20
11.1578
 30
0.0
 10
2.4704
 20
11.3455
 30
0.0
 10
2.6976
 20
11.4393
 30
0.0
 10
2.9707
 20
11.4393
 30
0.0
 10
2.9707
 20
11.4393
 30
0.0
 10
3.1675
 20
11.4393
 30
0.0
 10
3.3474
 20
11.3857
 30
0.0
 10
3.5111
 20
11.2799
 30
0.0
 10
3.5111
 20
11.2799
 30
0.0
 10
3.6741
 20
11.1741
 30
0.0
 10
3.7983
 20
11.0224
 30
0.0
 10
3.883
 20
10.8262
 30
0.0
 10
3.883
 20
10.8262
 30
0.0
 10
3.9676
 20
10.6301
 30
0.0
 10
4.01
 20
10.3457
 30
0.0
 10
4.01
 20
9.9732
 30
0.0
 10
4.01
 20
9.9732
 30
0.0
 10
4.01
 20
9.5866
 30
0.0
 10
3.9683
 20
9.2782
 30
0.0
 10
3.8844
 20
9.0482
 30
0.0
 10
3.8844
 20
9.0482
 30
0.0
 10
3.7997
 20
8.8189
 30
0.0
 10
3.6748
 20
8.6447
 30
0.0
 10
3.509
 20
8.5247
 30
0.0
 10
3.509
 20
8.5247
 30
0.0
 10
3.3425
 20
8.4048
 30
0.0
 10
3.1485
 20
8.3448
 30
0.0
 10
2.9248
 20
8.3448
 30
0.0
 10
2.9248
 20
8.3448
 30
0.0
 10
2.6878
 20
8.3448
 30
0.0
 10
2.4944
 20
8.4104
 30
0.0
 10
2.3442
 20
8.5423
 30
0.0
 10
2.3442
 20
8.5423
 30
0.0
 10
2.1939
 20
8.6736
 30
0.0
 10
2.1036
 20
8.8584
 30
0.0
 10
2.0732
 20
9.0969
 30
0.0
  0
SPLINE
  5
62
330
1F
100
AcDbEntity
  8
VRSTVA_1
 62
   250
100
AcDbSpline
210
0.0
220
0.0
230
1.0
 70
    11
 71
     3
 72
    36
 73
    32
 74
     0
 42
0.0000000001
 43
0.0000000001
 40
0.0
 40
0.0
 40
0.0
 40
0.0
 40
0.1111111111111111
 40
0.1111111111111111
 40
0.1111111111111111
 40
0.1111111111111111
 40
0.2222222222222222
 40
0.2222222222222222
 40
0.2222222222222222
 40
0.2222222222222222
 40
0.3333333333333333
 40
0.3333333333333333
 40
0.3333333333333333
 40
0.3333333333333333
 40
0.4444444444444444
 40
0.4444444444444444
 40
0.4444444444444444
 40
0.4444444444444444
 40
0.5555555555555556
 40
0.5555555555555556
 40
0.5555555555555556
 40
0.5555555555555556
 40
0.6666666666666666
 40
0.6666666666666666
 40
0.6666666666666666
 40
0.6666666666666666
 40
0.7777777777777778
 40
0.7777777777777778
 40
0.7777777777777778
 40
0.7777777777777778
 40
1.0
 40
1.0
 40
1.0
 40
1.0
 10
3.5965
 20
10.4346
 30
0.0
 10
3.5965
 20
10.6477
 30
0.0
 10
3.5401
 20
10.8177
 30
0.0
 10
3.4265
 20
10.9426
 30
0.0
 10
3.4265
 20
10.9426
 30
0.0
 10
3.3122
 20
11.0682
 30
0.0
 10
3.176
 20
11.131
 30
0.0
 10
3.0158
 20
11.131
 30
0.0
 10
3.0158
 20
11.131
 30
0.0
 10
2.8507
 20
11.131
 30
0.0
 10
2.7068
 20
11.0633
 30
0.0
 10
2.584
 20
10.9285
 30
0.0
 10
2.584
 20
10.9285
 30
0.0
 10
2.4613
 20
10.7931
 30
0.0
 10
2.3999
 20
10.6181
 30
0.0
 10
2.3999
 20
10.4036
 30
0.0
 10
2.3999
 20
10.4036
 30
0.0
 10
2.3999
 20
10.2103
 30
0.0
 10
2.4585
 20
10.0536
 30
0.0
 10
2.5749
 20
9.933
 30
0.0
 10
2.5749
 20
9.933
 30
0.0
 10
2.6913
 20
9.8123
 30
0.0
 10
2.8345
 20
9.7524
 30
0.0
 10
3.0053
 20
9.7524
 30
0.0
 10
3.0053
 20
9.7524
 30
0.0
 10
3.1781
 20
9.7524
 30
0.0
 10
3.3192
 20
9.8123
 30
0.0
 10
3.43
 20
9.933
 30
0.0
 10
3.43
 20
9.933
 30
0.0
 10
3.5415
 20
10.0536
 30
0.0
 10
3.5965
 20
10.2209
 30
0.0
 10
3.5965
 20
10.4346
 30
0.0
  0
SPLINE
  5
63
330
1F
100
AcDbEntity
  8
VRSTVA_1
 62
   250
100
AcDbSpline
210
0.0
220
0.0
230
1.0
 70
    11
 71
     3
 72
    92
 73
    88
 74
     0
 42
0.0000000001
 43
0.0000000001
 40
0.0
 40
0.0
 40
0.0
 40
0.0
 40
0.0434782608695652
 40
0.0434782608695652
 40
0.0434782608695652
 40
0.0434782608695652
 40
0.0869565217391304
 40
0.0869565217391304
 40
0.0869565217391304
 40
0.0869565217391304
 40
0.1304347826086956
 40
0.1304347826086956
 40
0.1304347826086956
 40
0.1304347826086956
 40
0.1739130434782609
 40
0.1739130434782609
 40
0.1739130434782609
 40
0.1739130434782609
 40
0.2173913043478261
 40
0.2173913043478261
 40
0.2173913043478261
 40
0.2173913043478261
 40
0.2608695652173913
 40
0.2608695652173913
 40
0.2608695652173913
 40
0.2608695652173913
 40
0.3043478260869565
 40
0.3043478260869565
 40
0.3043478260869565
 40
0.3043478260869565
 40
0.3478260869565217
 40
0.3478260869565217
 40
0.3478260869565217
 40
0.3478260869565217
 40
0.391304347826087
 40
0.391304347826087
 40
0.391304347826087
 40
0.391304347826087
 40
0.4347826086956522
 40
0.4347826086956522
 40
0.4347826086956522
 40
0.4347826086956522
 40
0.4782608695652174
 40
0.4782608695652174
 40
0.4782608695652174
 40
0.4782608695652174
 40
0.5217391304347826
 40
0.5217391304347826
 40
0.5217391304347826
 40
0.5217391304347826
 40
0.5652173913043478
 40
0.5652173913043478
 40
0.5652173913043478
 40
0.5652173913043478
 40
0.6086956521739131
 40
0.6086956521739131
 40
0.6086956521739131
 40
0.6086956521739131
 40
0.6521739130434783
 40
0.6521739130434783
 40
0.6521739130434783
 40
0.6521739130434783
 40
0.6956521739130435
 40
0.6956521739130435
 40
0.6956521739130435
 40
0.6956521739130435
 40
0.7391304347826086
 40
0.7391304347826086
 40
0.7391304347826086
 40
0.7391304347826086
 40
0.782608695652174
 40
0.782608695652174
 40
0.782608695652174
 40
0.782608695652174
 40
0.8260869565217391
 40
0.8260869565217391
 40
0.8260869565217391
 40
0.8260869565217391
 40
0.8695652173913043
 40
0.8695652173913043
 40
0.8695652173913043
 40
0.8695652173913043
 40
0.9130434782608695
 40
0.9130434782608695
 40
0.9130434782608695
 40
0.9130434782608695
 40
1.0
 40
1.0
 40
1.0
 40
1.0
 10
4.3719
 20
9.19
 30
0.0
 10
4.3719
 20
9.19
 30
0.0
 10
4.7628
 20
9.2232
 30
0.0
 10
4.7628
 20
9.2232
 30
0.0
 10
4.7628
 20
9.2232
 30
0.0
 10
4.7917
 20
9.0327
 30
0.0
 10
4.8587
 20
8.8902
 30
0.0
 10
4.9638
 20
8.7942
 30
0.0
 10
4.9638
 20
8.7942
 30
0.0
 10
5.0697
 20
8.6983
 30
0.0
 10
5.1967
 20
8.6503
 30
0.0
 10
5.3455
 20
8.6503
 30
0.0
 10
5.3455
 20
8.6503
 30
0.0
 10
5.5248
 20
8.6503
 30
0.0
 10
5.6764
 20
8.718
 30
0.0
 10
5.7999
 20
8.8528
 30
0.0
 10
5.7999
 20
8.8528
 30
0.0
 10
5.9241
 20
8.9883
 30
0.0
 10
5.9862
 20
9.1675
 30
0.0
 10
5.9862
 20
9.3904
 30
0.0
 10
5.9862
 20
9.3904
 30
0.0
 10
5.9862
 20
9.6028
 30
0.0
 10
5.9269
 20
9.77
 30
0.0
 10
5.8077
 20
9.8928
 30
0.0
 10
5.8077
 20
9.8928
 30
0.0
 10
5.6884
 20
10.0155
 30
0.0
 10
5.5325
 20
10.0769
 30
0.0
 10
5.3392
 20
10.0769
 30
0.0
 10
5.3392
 20
10.0769
 30
0.0
 10
5.2192
 20
10.0769
 30
0.0
 10
5.1113
 20
10.0494
 30
0.0
 10
5.0146
 20
9.9951
 30
0.0
 10
5.0146
 20
9.9951
 30
0.0
 10
4.918
 20
9.9407
 30
0.0
 10
4.8425
 20
9.8702
 30
0.0
 10
4.7875
 20
9.7834
 30
0.0
 10
4.7875
 20
9.7834
 30
0.0
 10
4.7875
 20
9.7834
 30
0.0
 10
4.4382
 20
9.8286
 30
0.0
 10
4.4382
 20
9.8286
 30
0.0
 10
4.4382
 20
9.8286
 30
0.0
 10
4.4382
 20
9.8286
 30
0.0
 10
4.7317
 20
11.385
 30
0.0
 10
4.7317
 20
11.385
 30
0.0
 10
4.7317
 20
11.385
 30
0.0
 10
4.7317
 20
11.385
 30
0.0
 10
6.2388
 20
11.385
 30
0.0
 10
6.2388
 20
11.385
 30
0.0
 10
6.2388
 20
11.385
 30
0.0
 10
6.2388
 20
11.385
 30
0.0
 10
6.2388
 20
11.0294
 30
0.0
 10
6.2388
 20
11.0294
 30
0.0
 10
6.2388
 20
11.0294
 30
0.0
 10
6.2388
 20
11.0294
 30
0.0
 10
5.0295
 20
11.0294
 30
0.0
 10
5.0295
 20
11.0294
 30
0.0
 10
5.0295
 20
11.0294
 30
0.0
 10
5.0295
 20
11.0294
 30
0.0
 10
4.8658
 20
10.2152
 30
0.0
 10
4.8658
 20
10.2152
 30
0.0
 10
4.8658
 20
10.2152
 30
0.0
 10
5.0478
 20
10.3422
 30
0.0
 10
5.239
 20
10.4057
 30
0.0
 10
5.4387
 20
10.4057
 30
0.0
 10
5.4387
 20
10.4057
 30
0.0
 10
5.7033
 20
10.4057
 30
0.0
 10
5.9262
 20
10.314
 30
0.0
 10
6.1082
 20
10.1305
 30
0.0
 10
6.1082
 20
10.1305
 30
0.0
 10
6.2903
 20
9.9471
 30
0.0
 10
6.3813
 20
9.7114
 30
0.0
 10
6.3813
 20
9.4236
 30
0.0
 10
6.3813
 20
9.4236
 30
0.0
 10
6.3813
 20
9.1491
 30
0.0
 10
6.3009
 20
8.9121
 30
0.0
 10
6.1414
 20
8.7124
 30
0.0
 10
6.1414
 20
8.7124
 30
0.0
 10
5.9467
 20
8.4676
 30
0.0
 10
5.6814
 20
8.3448
 30
0.0
 10
5.3455
 20
8.3448
 30
0.0
 10
5.3455
 20
8.3448
 30
0.0
 10
5.0697
 20
8.3448
 30
0.0
 10
4.8446
 20
8.4217
 30
0.0
 10
4.6703
 20
8.5762
 30
0.0
 10
4.6703
 20
8.5762
 30
0.0
 10
4.4961
 20
8.7307
 30
0.0
 10
4.3966
 20
8.9353
 30
0.0
 10
4.3719
 20
9.19
 30
0.0
  0
SPLINE
  5
64
330
1F
100
AcDbEntity
  8
VRSTVA_1
 62
   250
100
AcDbSpline
210
0.0
220
0.0
230
1.0
 70
    11
 71
     3
 72
    20
 73
    16
 74
     0
 42
0.0000000001
 43
0.0000000001
 40
0.0
 40
0.0
 40
0.0
 40
0.0
 40
0.2
 40
0.2
 40
0.2
 40
0.2
 40
0.4
 40
0.4
 40
0.4
 40
0.4
 40
0.6
 40
0.6
 40
0.6
 40
0.6
 40
1.0
 40
1.0
 40
1.0
 40
1.0
 10
49.4788
 20
7.8241
 30
0.0
 10
49.4788
 20
7.8241
 30
0.0
 10
53.0326
 20
7.3225
 30
0.0
 10
53.0326
 20
7.3225
 30
0.0
 10
53.0326
 20
7.3225
 30
0.0
 10
53.0326
 20
7.3225
 30
0.0
 10
53.0326
 20
7.2111
 30
0.0
 10
53.0326
 20
7.2111
 30
0.0
 10
53.0326
 20
7.2111
 30
0.0
 10
53.0326
 20
7.2111
 30
0.0
 10
49.4788
 20
6.6763
 30
0.0
 10
49.4788
 20
6.6763
 30
0.0
 10
49.4788
 20
6.6763
 30
0.0
 10
49.4788
 20
6.6763
 30
0.0
 10
49.4788
 20
7.8241
 30
0.0
 10
49.4788
 20
7.8241
 30
0.0
  0
SPLINE
  5
65
330
1F
100
AcDbEntity
  8
VRSTVA_1
 62
   250
100
AcDbSpline
210
0.0
220
0.0
230
1.0
 70
    11
 71
     3
 72
    20
 73
    16
 74
     0
 42
0.0000000001
 43
0.0000000001
 40
0.0
 40
0.0
 40
0.0
 40
0.0
 40
0.2
 40
0.2
 40
0.2
 40
0.2
 40
0.4
 40
0.4
 40
0.4
 40
0.4
 40
0.6
 40
0.6
 40
0.6
 40
0.6
 40
1.0
 40
1.0
 40
1.0
 40
1.0
 10
-33.8408
 20
6.7047
 30
0.0
 10
-33.8408
 20
6.7047
 30
0.0
 10
-37.3946
 20
7.2063
 30
0.0
 10
-37.3946
 20
7.2063
 30
0.0
 10
-37.3946
 20
7.2063
 30
0.0
 10
-37.3946
 20
7.2063
 30
0.0
 10
-37.3946
 20
7.3177
 30
0.0
 10
-37.3946
 20
7.3177
 30
0.0
 10
-37.3946
 20
7.3177
 30
0.0
 10
-37.3946
 20
7.3177
 30
0.0
 10
-33.8408
 20
7.8526
 30
0.0
 10
-33.8408
 20
7.8526
 30
0.0
 10
-33.8408
 20
7.8526
 30
0.0
 10
-33.8408
 20
7.8526
 30
0.0
 10
-33.8408
 20
6.7047
 30
0.0
 10
-33.8408
 20
6.7047
 30
0.0
  0
SPLINE
  5
66
330
1F
100
AcDbEntity
  8
VRSTVA_1
 62
   250
100
AcDbSpline
210
0.0
220
0.0
230
1.0
 70
    24
 71
     3
 72
     8
 73
     4
 74
     0
 42
0.0000000001
 43
0.0000000001
 40
0.0
 40
0.0
 40
0.0
 40
0.0
 40
1.0
 40
1.0
 40
1.0
 40
1.0
 10
-42.5704
 20
-33.5434
 30
0.0
 10
-42.5704
 20
-33.5434
 30
0.0
 10
-52.7651
 20
-33.5434
 30
0.0
 10
-52.7651
 20
-33.5434
 30
0.0
  0
SPLINE
  5
67
330
1F
100
AcDbEntity
  8
VRSTVA_1
 62
   250
100
AcDbSpline
210
0.0
220
0.0
230
1.0
 70
    24
 71
     3
 72
     8
 73
     4
 74
     0
 42
0.0000000001
 43
0.0000000001
 40
0.0
 40
0.0
 40
0.0
 40
0.0
 40
1.0
 40
1.0
 40
1.0
 40
1.0
 10
-21.7057
 20
-10.5225
 30
0.0
 10
-21.7057
 20
-10.5225
 30
0.0
 10
-52.7129
 20
-10.5225
 30
0.0
 10
-52.7129
 20
-10.5225
 30
0.0
  0
SPLINE
  5
68
330
1F
100
AcDbEntity
  8
VRSTVA_1
 62
   250
100
AcDbSpline
210
0.0
220
0.0
230
1.0
 70
    24
 71
     3
 72
     8
 73
     4
 74
     0
 42
0.0000000001
 43
0.0000000001
 40
0.0
 40
0.0
 40
0.0
 40
0.0
 40
1.0
 40
1.0
 40
1.0
 40
1.0
 10
-51.7742
 20
22.2077
 30
0.0
 10
-51.7742
 20
22.2077
 30
0.0
 10
-51.7742
 20
-33.1908
 30
0.0
 10
-51.7742
 20
-33.1908
 30
0.0
  0
SPLINE
  5
69
330
1F
100
AcDbEntity
  8
VRSTVA_1
 62
   250
100
AcDbSpline
210
0.0
220
0.0
230
1.0
 70
    24
 71
     3
 72
     8
 73
     4
 74
     0
 42
0.0000000001
 43
0.0000000001
 40
0.0
 40
0.0
 40
0.0
 40
0.0
 40
1.0
 40
1.0
 40
1.0
 40
1.0
 10
-47.1831
 20
23.6347
 30
0.0
 10
-47.1831
 20
23.6347
 30
0.0
 10
-52.6607
 20
23.6347
 30
0.0
 10
-52.6607
 20
23.6347
 30
0.0
  0
SPLINE
  5
6A
330
1F
100
AcDbEntity
  8
VRSTVA_1
 62
   250
100
AcDbSpline
210
0.0
220
0.0
230
1.0
 70
    24
 71
     3
 72
     8
 73
     4
 74
     0
 42
0.0000000001
 43
0.0000000001
 40
0.0
 40
0.0
 40
0.0
 40
0.0
 40
1.0
 40
1.0
 40
1.0
 40
1.0
 10
-30.3259
 20
24.1943
 30
0.0
 10
-30.3259
 20
24.1943
 30
0.0
 10
-30.3259
 20
28.9351
 30
0.0
 10
-30.3259
 20
28.9351
 30
0.0
  0
SPLINE
  5
6B
330
1F
100
AcDbEntity
  8
VRSTVA_1
 62
   250
100
AcDbSpline
210
0.0
220
0.0
230
1.0
 70
    24
 71
     3
 72
     8
 73
     4
 74
     0
 42
0.0000000001
 43
0.0000000001
 40
0.0
 40
0.0
 40
0.0
 40
0.0
 40
1.0
 40
1.0
 40
1.0
 40
1.0
 10
-44.5391
 20
24.0786
 30
0.0
 10
-44.5391
 20
24.0786
 30
0.0
 10
-44.5391
 20
28.8829
 30
0.0
 10
-44.5391
 20
28.8829
 30
0.0
  0
SPLINE
  5
6C
330
1F
100
AcDbEntity
  8
VRSTVA_1
 62
   250
100
AcDbSpline
210
0.0
220
0.0
230
1.0
 70
    24
 71
     3
 72
     8
 73
     4
 74
     0
 42
0.0000000001
 43
0.0000000001
 40
0.0
 40
0.0
 40
0.0
 40
0.0
 40
1.0
 40
1.0
 40
1.0
 40
1.0
 10
-49.3727
 20
28.2306
 30
0.0
 10
-49.3727
 20
28.2306
 30
0.0
 10
-25.246
 20
28.2306
 30
0.0
 10
-25.246
 20
28.2306
 30
0.0
  0
SPLINE
  5
6D
330
1F
100
AcDbEntity
  8
VRSTVA_1
 62
   250
100
AcDbSpline
210
0.0
220
0.0
230
1.0
 70
    24
 71
     3
 72
     8
 73
     4
 74
     0
 42
0.0000000001
 43
0.0000000001
 40
0.0
 40
0.0
 40
0.0
 40
0.0
 40
1.0
 40
1.0
 40
1.0
 40
1.0
 10
53.1439
 20
-2.8123
 30
0.0
 10
53.1439
 20
-2.8123
 30
0.0
 10
53.1439
 20
8.6564
 30
0.0
 10
53.1439
 20
8.6564
 30
0.0
  0
SPLINE
  5
6E
330
1F
100
AcDbEntity
  8
VRSTVA_1
 62
   250
100
AcDbSpline
210
0.0
220
0.0
230
1.0
 70
    24
 71
     3
 72
     8
 73
     4
 74
     0
 42
0.0000000001
 43
0.0000000001
 40
0.0
 40
0.0
 40
0.0
 40
0.0
 40
1.0
 40
1.0
 40
1.0
 40
1.0
 10
-36.2079
 20
7.2794
 30
0.0
 10
-36.2079
 20
7.2794
 30
0.0
 10
51.599
 20
7.2794
 30
0.0
 10
51.599
 20
7.2794
 30
0.0
  0
SPLINE
  5
6F
330
1F
100
AcDbEntity
  8
VRSTVA_1
 62
   250
100
AcDbSpline
210
0.0
220
0.0
230
1.0
 70
    27
 71
     3
 72
    12
 73
     8
 74
     0
 42
0.0000000001
 43
0.0000000001
 40
0.0
 40
0.0
 40
0.0
 40
0.0
 40
0.3333333333333333
 40
0.3333333333333333
 40
0.3333333333333333
 40
0.3333333333333333
 40
1.0
 40
1.0
 40
1.0
 40
1.0
 10
-32.0429
 20
18.543
 30
0.0
 10
-32.0429
 20
18.543
 30
0.0
 10
-32.0784
 20
-9.5338
 30
0.0
 10
-32.0784
 20
-9.5338
 30
0.0
 10
-32.0784
 20
-9.5338
 30
0.0
 10
-32.0784
 20
-9.5338
 30
0.0
 10
-32.0429
 20
18.543
 30
0.0
 10
-32.0429
 20
18.543
 30
0.0
  0
SPLINE
  5
70
330
1F
100
AcDbEntity
  8
VRSTVA_1
 62
   250
100
AcDbSpline
210
0.0
220
0.0
230
1.0
 70
    27
 71
     3
 72
    12
 73
     8
 74
     0
 42
0.0000000001
 43
0.0000000001
 40
0.0
 40
0.0
 40
0.0
 40
0.0
 40
0.3333333333333333
 40
0.3333333333333333
 40
0.3333333333333333
 40
0.3333333333333333
 40
1.0
 40
1.0
 40
1.0
 40
1.0
 10
-42.8123
 20
18.543
 30
0.0
 10
-42.8123
 20
18.543
 30
0.0
 10
-42.7768
 20
-9.5338
 30
0.0
 10
-42.7768
 20
-9.5338
 30
0.0
 10
-42.7768
 20
-9.5338
 30
0.0
 10
-42.7768
 20
-9.5338
 30
0.0
 10
-42.8123
 20
18.543
 30
0.0
 10
-42.8123
 20
18.543
 30
0.0
  0
SPLINE
  5
71
330
1F
100
AcDbEntity
  8
VRSTVA_1
  6
NEW_LINE1
 62
   250
100
AcDbSpline
210
0.0
220
0.0
230
1.0
 70
    24
 71
     3
 72
     8
 73
     4
 74
     0
 42
0.0000000001
 43
0.0000000001
 40
0.0
 40
0.0
 40
0.0
 40
0.0
 40
1.0
 40
1.0
 40
1.0
 40
1.0
 10
-37.4277
 20
-28.5317
 30
0.0
 10
-37.4277
 20
-28.5317
 30
0.0
 10
-37.4277
 20
24.5949
 30
0.0
 10
-37.4277
 20
24.5949
 30
0.0
  0
SPLINE
  5
73
330
1F
100
AcDbEntity
  8
VRSTVA_1
  6
NEW_LINE2
 62
   250
100
AcDbSpline
210
0.0
220
0.0
230
1.0
 70
    24
 71
     3
 72
     8
 73
     4
 74
     0
 42
0.0000000001
 43
0.0000000001
 40
0.0
 40
0.0
 40
0.0
 40
0.0
 40
1.0
 40
1.0
 40
1.0
 40
1.0
 10
-39.6929
 20
-25.983
 30
0.0
 10
-39.6929
 20
-25.983
 30
0.0
 10
-16.377
 20
-25.983
 30
0.0
 10
-16.377
 20
-25.983
 30
0.0
  0
SPLINE
  5
75
330
1F
100
AcDbEntity
  8
VRSTVA_1
  6
NEW_LINE3
 62
   250
100
AcDbSpline
210
0.0
220
0.0
230
1.0
 70
    24
 71
     3
 72
     8
 73
     4
 74
     0
 42
0.0000000001
 43
0.0000000001
 40
0.0
 40
0.0
 40
0.0
 40
0.0
 40
1.0
 40
1.0
 40
1.0
 40
1.0
 10
-18.5692
 20
-7.3104
 30
0.0
 10
-18.5692
 20
-7.3104
 30
0.0
 10
-18.5692
 20
-27.513
 30
0.0
 10
-18.5692
 20
-27.513
 30
0.0
  0
SPLINE
  5
77
330
1F
100
AcDbEntity
  8
VRSTVA_1
  6
NEW_LINE4
 62
   250
100
AcDbSpline
210
0.0
220
0.0
230
1.0
 70
    24
 71
     3
 72
     8
 73
     4
 74
     0
 42
0.0000000001
 43
0.0000000001
 40
0.0
 40
0.0
 40
0.0
 40
0.0
 40
1.0
 40
1.0
 40
1.0
 40
1.0
 10
-20.0294
 20
-10.5225
 30
0.0
 10
-20.0294
 20
-10.5225
 30
0.0
 10
54.449
 20
-10.5225
 30
0.0
 10
54.449
 20
-10.5225
 30
0.0
  0
SPLINE
  5
79
330
1F
100
AcDbEntity
  8
VRSTVA_1
 62
   250
100
AcDbSpline
210
0.0
220
0.0
230
1.0
 70
     8
 71
     3
 72
     8
 73
     4
 74
     0
 42
0.0000000001
 43
0.0000000001
 40
0.0
 40
0.0
 40
0.0
 40
0.0
 40
1.0
 40
1.0
 40
1.0
 40
1.0
 10
-18.5691
 20
-2.9621
 30
0.0
 10
-22.7445
 20
-2.9621
 30
0.0
 10
-26.1295
 20
-6.3469
 30
0.0
 10
-26.1295
 20
-10.5225
 30
0.0
  0
SPLINE
  5
7A
330
1F
100
AcDbEntity
  8
VRSTVA_1
 62
   250
100
AcDbSpline
210
0.0
220
0.0
230
1.0
 70
     8
 71
     3
 72
    48
 73
    44
 74
     0
 42
0.0000000001
 43
0.0000000001
 40
0.0
 40
0.0
 40
0.0
 40
0.0
 40
0.0833333333333333
 40
0.0833333333333333
 40
0.0833333333333333
 40
0.0833333333333333
 40
0.1666666666666667
 40
0.1666666666666667
 40
0.1666666666666667
 40
0.1666666666666667
 40
0.25
 40
0.25
 40
0.25
 40
0.25
 40
0.3333333333333333
 40
0.3333333333333333
 40
0.3333333333333333
 40
0.3333333333333333
 40
0.4166666666666667
 40
0.4166666666666667
 40
0.4166666666666667
 40
0.4166666666666667
 40
0.5
 40
0.5
 40
0.5
 40
0.5
 40
0.5833333333333334
 40
0.5833333333333334
 40
0.5833333333333334
 40
0.5833333333333334
 40
0.6666666666666666
 40
0.6666666666666666
 40
0.6666666666666666
 40
0.6666666666666666
 40
0.75
 40
0.75
 40
0.75
 40
0.75
 40
0.8333333333333334
 40
0.8333333333333334
 40
0.8333333333333334
 40
0.8333333333333334
 40
1.0
 40
1.0
 40
1.0
 40
1.0
 10
-18.5691
 20
-10.5225
 30
0.0
 10
-18.5691
 20
-10.5225
 30
0.0
 10
-17.2732
 20
-11.8184
 30
0.0
 10
-17.2732
 20
-11.8184
 30
0.0
 10
-17.2732
 20
-11.8184
 30
0.0
 10
-17.2732
 20
-11.8184
 30
0.0
 10
-16.2422
 20
-12.8494
 30
0.0
 10
-16.2422
 20
-12.8494
 30
0.0
 10
-16.2422
 20
-12.8494
 30
0.0
 10
-16.2422
 20
-12.8494
 30
0.0
 10
-15.2132
 20
-13.8784
 30
0.0
 10
-15.2132
 20
-13.8784
 30
0.0
 10
-15.2132
 20
-13.8784
 30
0.0
 10
-15.2132
 20
-13.8784
 30
0.0
 10
-14.2066
 20
-14.885
 30
0.0
 10
-14.2066
 20
-14.885
 30
0.0
 10
-14.2066
 20
-14.885
 30
0.0
 10
-14.2066
 20
-14.885
 30
0.0
 10
-13.3018
 20
-15.7898
 30
0.0
 10
-13.3018
 20
-15.7898
 30
0.0
 10
-13.3018
 20
-15.7898
 30
0.0
 10
-13.3018
 20
-15.7898
 30
0.0
 10
-12.5481
 20
-16.5435
 30
0.0
 10
-12.5481
 20
-16.5435
 30
0.0
 10
-12.5481
 20
-16.5435
 30
0.0
 10
-12.5481
 20
-16.5435
 30
0.0
 10
-11.9657
 20
-17.126
 30
0.0
 10
-11.9657
 20
-17.126
 30
0.0
 10
-11.9657
 20
-17.126
 30
0.0
 10
-11.9657
 20
-17.126
 30
0.0
 10
-11.5354
 20
-17.5562
 30
0.0
 10
-11.5354
 20
-17.5562
 30
0.0
 10
-11.5354
 20
-17.5562
 30
0.0
 10
-11.5354
 20
-17.5562
 30
0.0
 10
-11.2409
 20
-17.8506
 30
0.0
 10
-11.2409
 20
-17.8506
 30
0.0
 10
-11.2409
 20
-17.8506
 30
0.0
 10
-11.2409
 20
-17.8506
 30
0.0
 10
-11.0666
 20
-18.025
 30
0.0
 10
-11.0666
 20
-18.025
 30
0.0
 10
-11.0666
 20
-18.025
 30
0.0
 10
-11.0666
 20
-18.025
 30
0.0
 10
-11.0087
 20
-18.0829
 30
0.0
 10
-11.0087
 20
-18.0829
 30
0.0
  0
SPLINE
  5
7B
330
1F
100
AcDbEntity
  8
VRSTVA_1
 62
   250
100
AcDbSpline
210
0.0
220
0.0
230
1.0
 70
     8
 71
     3
 72
     8
 73
     4
 74
     0
 42
0.0000000001
 43
0.0000000001
 40
0.0
 40
0.0
 40
0.0
 40
0.0
 40
1.0
 40
1.0
 40
1.0
 40
1.0
 10
-44.988
 20
-25.983
 30
0.0
 10
-44.988
 20
-30.1584
 30
0.0
 10
-41.603
 20
-33.5434
 30
0.0
 10
-37.4276
 20
-33.5434
 30
0.0
  0
SPLINE
  5
7C
330
1F
100
AcDbEntity
  8
VRSTVA_1
 62
   250
100
AcDbSpline
210
0.0
220
0.0
230
1.0
 70
     8
 71
     3
 72
    24
 73
    20
 74
     0
 42
0.0000000001
 43
0.0000000001
 40
0.0
 40
0.0
 40
0.0
 40
0.0
 40
0.1666666666666667
 40
0.1666666666666667
 40
0.1666666666666667
 40
0.1666666666666667
 40
0.3333333333333333
 40
0.3333333333333333
 40
0.3333333333333333
 40
0.3333333333333333
 40
0.5
 40
0.5
 40
0.5
 40
0.5
 40
0.6666666666666666
 40
0.6666666666666666
 40
0.6666666666666666
 40
0.6666666666666666
 40
1.0
 40
1.0
 40
1.0
 40
1.0
 10
-45.6005
 20
-14.767
 30
0.0
 10
-45.6005
 20
-14.767
 30
0.0
 10
-45.6349
 20
-15.698
 30
0.0
 10
-45.6349
 20
-15.698
 30
0.0
 10
-45.6349
 20
-15.698
 30
0.0
 10
-45.6349
 20
-15.698
 30
0.0
 10
-44.988
 20
-16.129
 30
0.0
 10
-44.988
 20
-16.129
 30
0.0
 10
-44.988
 20
-16.129
 30
0.0
 10
-44.988
 20
-16.129
 30
0.0
 10
-29.8672
 20
-16.129
 30
0.0
 10
-29.8672
 20
-16.129
 30
0.0
 10
-29.8672
 20
-16.129
 30
0.0
 10
-29.8672
 20
-16.129
 30
0.0
 10
-29.2557
 20
-15.836
 30
0.0
 10
-29.2557
 20
-15.836
 30
0.0
 10
-29.2557
 20
-15.836
 30
0.0
 10
-29.2557
 20
-15.836
 30
0.0
 10
-29.2557
 20
-14.8016
 30
0.0
 10
-29.2557
 20
-14.8016
 30
0.0
  0
SPLINE
  5
7D
330
1F
100
AcDbEntity
  8
VRSTVA_1
 62
   250
100
AcDbSpline
210
0.0
220
0.0
230
1.0
 70
     8
 71
     3
 72
    48
 73
    44
 74
     0
 42
0.0000000001
 43
0.0000000001
 40
0.0
 40
0.0
 40
0.0
 40
0.0
 40
0.0833333333333333
 40
0.0833333333333333
 40
0.0833333333333333
 40
0.0833333333333333
 40
0.1666666666666667
 40
0.1666666666666667
 40
0.1666666666666667
 40
0.1666666666666667
 40
0.25
 40
0.25
 40
0.25
 40
0.25
 40
0.3333333333333333
 40
0.3333333333333333
 40
0.3333333333333333
 40
0.3333333333333333
 40
0.4166666666666667
 40
0.4166666666666667
 40
0.4166666666666667
 40
0.4166666666666667
 40
0.5
 40
0.5
 40
0.5
 40
0.5
 40
0.5833333333333334
 40
0.5833333333333334
 40
0.5833333333333334
 40
0.5833333333333334
 40
0.6666666666666666
 40
0.6666666666666666
 40
0.6666666666666666
 40
0.6666666666666666
 40
0.75
 40
0.75
 40
0.75
 40
0.75
 40
0.8333333333333334
 40
0.8333333333333334
 40
0.8333333333333334
 40
0.8333333333333334
 40
1.0
 40
1.0
 40
1.0
 40
1.0
 10
-37.4276
 20
-25.983
 30
0.0
 10
-37.4276
 20
-25.983
 30
0.0
 10
-36.1441
 20
-24.6995
 30
0.0
 10
-36.1441
 20
-24.6995
 30
0.0
 10
-36.1441
 20
-24.6995
 30
0.0
 10
-36.1441
 20
-24.6995
 30
0.0
 10
-35.128
 20
-23.6834
 30
0.0
 10
-35.128
 20
-23.6834
 30
0.0
 10
-35.128
 20
-23.6834
 30
0.0
 10
-35.128
 20
-23.6834
 30
0.0
 10
-34.1085
 20
-22.6639
 30
0.0
 10
-34.1085
 20
-22.6639
 30
0.0
 10
-34.1085
 20
-22.6639
 30
0.0
 10
-34.1085
 20
-22.6639
 30
0.0
 10
-33.1006
 20
-21.656
 30
0.0
 10
-33.1006
 20
-21.656
 30
0.0
 10
-33.1006
 20
-21.656
 30
0.0
 10
-33.1006
 20
-21.656
 30
0.0
 10
-32.1877
 20
-20.7431
 30
0.0
 10
-32.1877
 20
-20.7431
 30
0.0
 10
-32.1877
 20
-20.7431
 30
0.0
 10
-32.1877
 20
-20.7431
 30
0.0
 10
-31.4244
 20
-19.9798
 30
0.0
 10
-31.4244
 20
-19.9798
 30
0.0
 10
-31.4244
 20
-19.9798
 30
0.0
 10
-31.4244
 20
-19.9798
 30
0.0
 10
-30.8349
 20
-19.3902
 30
0.0
 10
-30.8349
 20
-19.3902
 30
0.0
 10
-30.8349
 20
-19.3902
 30
0.0
 10
-30.8349
 20
-19.3902
 30
0.0
 10
-30.3996
 20
-18.955
 30
0.0
 10
-30.3996
 20
-18.955
 30
0.0
 10
-30.3996
 20
-18.955
 30
0.0
 10
-30.3996
 20
-18.955
 30
0.0
 10
-30.1019
 20
-18.6573
 30
0.0
 10
-30.1019
 20
-18.6573
 30
0.0
 10
-30.1019
 20
-18.6573
 30
0.0
 10
-30.1019
 20
-18.6573
 30
0.0
 10
-29.9257
 20
-18.481
 30
0.0
 10
-29.9257
 20
-18.481
 30
0.0
 10
-29.9257
 20
-18.481
 30
0.0
 10
-29.9257
 20
-18.481
 30
0.0
 10
-29.8672
 20
-18.4226
 30
0.0
 10
-29.8672
 20
-18.4226
 30
0.0
  0
SPLINE
  5
7E
330
1F
100
AcDbEntity
  8
VRSTVA_1
 62
   250
100
AcDbSpline
210
0.0
220
0.0
230
1.0
 70
    11
 71
     3
 72
    52
 73
    48
 74
     0
 42
0.0000000001
 43
0.0000000001
 40
0.0
 40
0.0
 40
0.0
 40
0.0
 40
0.0769230769230769
 40
0.0769230769230769
 40
0.0769230769230769
 40
0.0769230769230769
 40
0.1538461538461539
 40
0.1538461538461539
 40
0.1538461538461539
 40
0.1538461538461539
 40
0.2307692307692308
 40
0.2307692307692308
 40
0.2307692307692308
 40
0.2307692307692308
 40
0.3076923076923077
 40
0.3076923076923077
 40
0.3076923076923077
 40
0.3076923076923077
 40
0.3846153846153846
 40
0.3846153846153846
 40
0.3846153846153846
 40
0.3846153846153846
 40
0.4615384615384616
 40
0.4615384615384616
 40
0.4615384615384616
 40
0.4615384615384616
 40
0.5384615384615384
 40
0.5384615384615384
 40
0.5384615384615384
 40
0.5384615384615384
 40
0.6153846153846154
 40
0.6153846153846154
 40
0.6153846153846154
 40
0.6153846153846154
 40
0.6923076923076923
 40
0.6923076923076923
 40
0.6923076923076923
 40
0.6923076923076923
 40
0.7692307692307693
 40
0.7692307692307693
 40
0.7692307692307693
 40
0.7692307692307693
 40
0.8461538461538461
 40
0.8461538461538461
 40
0.8461538461538461
 40
0.8461538461538461
 40
1.0
 40
1.0
 40
1.0
 40
1.0
 10
-8.7152
 20
-2.9621
 30
0.0
 10
-8.7152
 20
-2.9621
 30
0.0
 10
-8.7152
 20
-18.0829
 30
0.0
 10
-8.7152
 20
-18.0829
 30
0.0
 10
-8.7152
 20
-18.0829
 30
0.0
 10
-8.7152
 20
-18.0829
 30
0.0
 10
-11.0087
 20
-18.0829
 30
0.0
 10
-11.0087
 20
-18.0829
 30
0.0
 10
-11.0087
 20
-18.0829
 30
0.0
 10
-11.0087
 20
-18.0829
 30
0.0
 10
-11.0087
 20
-33.5434
 30
0.0
 10
-11.0087
 20
-33.5434
 30
0.0
 10
-11.0087
 20
-33.5434
 30
0.0
 10
-11.0087
 20
-33.5434
 30
0.0
 10
-37.4276
 20
-33.5434
 30
0.0
 10
-37.4276
 20
-33.5434
 30
0.0
 10
-37.4276
 20
-33.5434
 30
0.0
 10
-37.4276
 20
-33.5434
 30
0.0
 10
-11.0087
 20
-33.5434
 30
0.0
 10
-11.0087
 20
-33.5434
 30
0.0
 10
-11.0087
 20
-33.5434
 30
0.0
 10
-11.0087
 20
-33.5434
 30
0.0
 10
-11.0087
 20
-18.0829
 30
0.0
 10
-11.0087
 20
-18.0829
 30
0.0
 10
-11.0087
 20
-18.0829
 30
0.0
 10
-11.0087
 20
-18.0829
 30
0.0
 10
-8.7152
 20
-18.0829
 30
0.0
 10
-8.7152
 20
-18.0829
 30
0.0
 10
-8.7152
 20
-18.0829
 30
0.0
 10
-8.7152
 20
-18.0829
 30
0.0
 10
-8.7152
 20
-2.9621
 30
0.0
 10
-8.7152
 20
-2.9621
 30
0.0
 10
-8.7152
 20
-2.9621
 30
0.0
 10
-8.7152
 20
-2.9621
 30
0.0
 10
-18.4269
 20
-2.9621
 30
0.0
 10
-18.4269
 20
-2.9621
 30
0.0
 10
-18.4269
 20
-2.9621
 30
0.0
 10
-18.4269
 20
-2.9621
 30
0.0
 10
-18.5691
 20
-2.9621
 30
0.0
 10
-18.5691
 20
-2.9621
 30
0.0
 10
-18.5691
 20
-2.9621
 30
0.0
 10
-18.5691
 20
-2.9621
 30
0.0
 10
-18.4269
 20
-2.9621
 30
0.0
 10
-18.4269
 20
-2.9621
 30
0.0
 10
-18.4269
 20
-2.9621
 30
0.0
 10
-18.4269
 20
-2.9621
 30
0.0
 10
-8.7152
 20
-2.9621
 30
0.0
 10
-8.7152
 20
-2.9621
 30
0.0
  0
SPLINE
  5
7F
330
1F
100
AcDbEntity
  8
VRSTVA_1
 62
   250
100
AcDbSpline
210
0.0
220
0.0
230
1.0
 70
    11
 71
     3
 72
    28
 73
    24
 74
     0
 42
0.0000000001
 43
0.0000000001
 40
0.0
 40
0.0
 40
0.0
 40
0.0
 40
0.1428571428571428
 40
0.1428571428571428
 40
0.1428571428571428
 40
0.1428571428571428
 40
0.2857142857142857
 40
0.2857142857142857
 40
0.2857142857142857
 40
0.2857142857142857
 40
0.4285714285714285
 40
0.4285714285714285
 40
0.4285714285714285
 40
0.4285714285714285
 40
0.5714285714285714
 40
0.5714285714285714
 40
0.5714285714285714
 40
0.5714285714285714
 40
0.7142857142857143
 40
0.7142857142857143
 40
0.7142857142857143
 40
0.7142857142857143
 40
1.0
 40
1.0
 40
1.0
 40
1.0
 10
-26.1295
 20
-18.4226
 30
0.0
 10
-26.1295
 20
-18.4226
 30
0.0
 10
-26.1295
 20
-10.5225
 30
0.0
 10
-26.1295
 20
-10.5225
 30
0.0
 10
-26.1295
 20
-10.5225
 30
0.0
 10
-26.1295
 20
-10.5225
 30
0.0
 10
-26.1295
 20
-18.4226
 30
0.0
 10
-26.1295
 20
-18.4226
 30
0.0
 10
-26.1295
 20
-18.4226
 30
0.0
 10
-26.1295
 20
-18.4226
 30
0.0
 10
-29.8672
 20
-18.4226
 30
0.0
 10
-29.8672
 20
-18.4226
 30
0.0
 10
-29.8672
 20
-18.4226
 30
0.0
 10
-29.8672
 20
-18.4226
 30
0.0
 10
-29.8672
 20
-16.129
 30
0.0
 10
-29.8672
 20
-16.129
 30
0.0
 10
-29.8672
 20
-16.129
 30
0.0
 10
-29.8672
 20
-16.129
 30
0.0
 10
-29.8672
 20
-18.4226
 30
0.0
 10
-29.8672
 20
-18.4226
 30
0.0
 10
-29.8672
 20
-18.4226
 30
0.0
 10
-29.8672
 20
-18.4226
 30
0.0
 10
-26.1295
 20
-18.4226
 30
0.0
 10
-26.1295
 20
-18.4226
 30
0.0
  0
SPLINE
  5
80
330
1F
100
AcDbEntity
  8
VRSTVA_1
 62
   250
100
AcDbSpline
210
0.0
220
0.0
230
1.0
 70
    27
 71
     3
 72
    12
 73
     8
 74
     0
 42
0.0000000001
 43
0.0000000001
 40
0.0
 40
0.0
 40
0.0
 40
0.0
 40
0.3333333333333333
 40
0.3333333333333333
 40
0.3333333333333333
 40
0.3333333333333333
 40
1.0
 40
1.0
 40
1.0
 40
1.0
 10
-11.0087
 20
-33.5434
 30
0.0
 10
-11.0087
 20
-33.5434
 30
0.0
 10
-26.1295
 20
-18.4226
 30
0.0
 10
-26.1295
 20
-18.4226
 30
0.0
 10
-26.1295
 20
-18.4226
 30
0.0
 10
-26.1295
 20
-18.4226
 30
0.0
 10
-11.0087
 20
-33.5434
 30
0.0
 10
-11.0087
 20
-33.5434
 30
0.0
  0
SPLINE
  5
81
330
1F
100
AcDbEntity
  8
VRSTVA_1
 62
   250
100
AcDbSpline
210
0.0
220
0.0
230
1.0
 70
    27
 71
     3
 72
    12
 73
     8
 74
     0
 42
0.0000000001
 43
0.0000000001
 40
0.0
 40
0.0
 40
0.0
 40
0.0
 40
0.3333333333333333
 40
0.3333333333333333
 40
0.3333333333333333
 40
0.3333333333333333
 40
1.0
 40
1.0
 40
1.0
 40
1.0
 10
-44.988
 20
-25.983
 30
0.0
 10
-44.988
 20
-25.983
 30
0.0
 10
-44.988
 20
-16.129
 30
0.0
 10
-44.988
 20
-16.129
 30
0.0
 10
-44.988
 20
-16.129
 30
0.0
 10
-44.988
 20
-16.129
 30
0.0
 10
-44.988
 20
-25.983
 30
0.0
 10
-44.988
 20
-25.983
 30
0.0
  0
SPLINE
  5
82
330
1F
100
AcDbEntity
  8
VRSTVA_1
 62
   250
100
AcDbSpline
210
0.0
220
0.0
230
1.0
 70
     8
 71
     3
 72
    24
 73
    20
 74
     0
 42
0.0000000001
 43
0.0000000001
 40
0.0
 40
0.0
 40
0.0
 40
0.0
 40
0.1666666666666667
 40
0.1666666666666667
 40
0.1666666666666667
 40
0.1666666666666667
 40
0.3333333333333333
 40
0.3333333333333333
 40
0.3333333333333333
 40
0.3333333333333333
 40
0.5
 40
0.5
 40
0.5
 40
0.5
 40
0.6666666666666666
 40
0.6666666666666666
 40
0.6666666666666666
 40
0.6666666666666666
 40
1.0
 40
1.0
 40
1.0
 40
1.0
 10
-7.7272
 20
-18.6777
 30
0.0
 10
-7.7272
 20
-18.6777
 30
0.0
 10
-8.3881
 20
-18.7121
 30
0.0
 10
-8.3881
 20
-18.7121
 30
0.0
 10
-8.3881
 20
-18.7121
 30
0.0
 10
-8.3881
 20
-18.7121
 30
0.0
 10
-8.6941
 20
-18.0652
 30
0.0
 10
-8.6941
 20
-18.0652
 30
0.0
 10
-8.6941
 20
-18.0652
 30
0.0
 10
-8.6941
 20
-18.0652
 30
0.0
 10
-8.6941
 20
-2.9444
 30
0.0
 10
-8.6941
 20
-2.9444
 30
0.0
 10
-8.6941
 20
-2.9444
 30
0.0
 10
-8.6941
 20
-2.9444
 30
0.0
 10
-8.4861
 20
-2.3329
 30
0.0
 10
-8.4861
 20
-2.3329
 30
0.0
 10
-8.4861
 20
-2.3329
 30
0.0
 10
-8.4861
 20
-2.3329
 30
0.0
 10
-7.7518
 20
-2.3329
 30
0.0
 10
-7.7518
 20
-2.3329
 30
0.0
  0
SPLINE
  5
83
330
1F
100
AcDbEntity
  8
VRSTVA_1
 62
   250
100
AcDbSpline
210
0.0
220
0.0
230
1.0
 70
     8
 71
     3
 72
    28
 73
    24
 74
     0
 42
0.0000000001
 43
0.0000000001
 40
0.0
 40
0.0
 40
0.0
 40
0.0
 40
0.1428571428571428
 40
0.1428571428571428
 40
0.1428571428571428
 40
0.1428571428571428
 40
0.2857142857142857
 40
0.2857142857142857
 40
0.2857142857142857
 40
0.2857142857142857
 40
0.4285714285714285
 40
0.4285714285714285
 40
0.4285714285714285
 40
0.4285714285714285
 40
0.5714285714285714
 40
0.5714285714285714
 40
0.5714285714285714
 40
0.5714285714285714
 40
0.7142857142857143
 40
0.7142857142857143
 40
0.7142857142857143
 40
0.7142857142857143
 40
1.0
 40
1.0
 40
1.0
 40
1.0
 10
-45.6446
 20
19.2164
 30
0.0
 10
-45.6446
 20
18.8397
 30
0.0
 10
-45.3394
 20
18.5343
 30
0.0
 10
-44.9628
 20
18.5343
 30
0.0
 10
-44.9628
 20
18.5343
 30
0.0
 10
-44.9628
 20
18.5343
 30
0.0
 10
-29.9065
 20
18.5267
 30
0.0
 10
-29.9065
 20
18.5267
 30
0.0
 10
-29.9065
 20
18.5267
 30
0.0
 10
-29.9065
 20
18.5267
 30
0.0
 10
-29.644
 20
18.6052
 30
0.0
 10
-29.644
 20
18.6052
 30
0.0
 10
-29.644
 20
18.6052
 30
0.0
 10
-29.644
 20
18.6052
 30
0.0
 10
-29.4816
 20
18.759
 30
0.0
 10
-29.4816
 20
18.759
 30
0.0
 10
-29.4816
 20
18.759
 30
0.0
 10
-29.4816
 20
18.759
 30
0.0
 10
-29.3191
 20
18.9762
 30
0.0
 10
-29.3191
 20
18.9762
 30
0.0
 10
-29.3191
 20
18.9762
 30
0.0
 10
-29.3191
 20
18.9762
 30
0.0
 10
-29.2379
 20
19.2023
 30
0.0
 10
-29.2379
 20
19.2023
 30
0.0
  0
SPLINE
  5
84
330
1F
100
AcDbEntity
  8
VRSTVA_1
 62
   250
100
AcDbSpline
210
0.0
220
0.0
230
1.0
 70
    11
 71
     3
 72
    88
 73
    84
 74
     0
 42
0.0000000001
 43
0.0000000001
 40
0.0
 40
0.0
 40
0.0
 40
0.0
 40
0.0454545454545455
 40
0.0454545454545455
 40
0.0454545454545455
 40
0.0454545454545455
 40
0.0909090909090909
 40
0.0909090909090909
 40
0.0909090909090909
 40
0.0909090909090909
 40
0.1363636363636364
 40
0.1363636363636364
 40
0.1363636363636364
 40
0.1363636363636364
 40
0.1818181818181818
 40
0.1818181818181818
 40
0.1818181818181818
 40
0.1818181818181818
 40
0.2272727272727273
 40
0.2272727272727273
 40
0.2272727272727273
 40
0.2272727272727273
 40
0.2727272727272727
 40
0.2727272727272727
 40
0.2727272727272727
 40
0.2727272727272727
 40
0.3181818181818182
 40
0.3181818181818182
 40
0.3181818181818182
 40
0.3181818181818182
 40
0.3636363636363636
 40
0.3636363636363636
 40
0.3636363636363636
 40
0.3636363636363636
 40
0.4090909090909091
 40
0.4090909090909091
 40
0.4090909090909091
 40
0.4090909090909091
 40
0.4545454545454545
 40
0.4545454545454545
 40
0.4545454545454545
 40
0.4545454545454545
 40
0.5
 40
0.5
 40
0.5
 40
0.5
 40
0.5454545454545454
 40
0.5454545454545454
 40
0.5454545454545454
 40
0.5454545454545454
 40
0.5909090909090909
 40
0.5909090909090909
 40
0.5909090909090909
 40
0.5909090909090909
 40
0.6363636363636364
 40
0.6363636363636364
 40
0.6363636363636364
 40
0.6363636363636364
 40
0.6818181818181818
 40
0.6818181818181818
 40
0.6818181818181818
 40
0.6818181818181818
 40
0.7272727272727273
 40
0.7272727272727273
 40
0.7272727272727273
 40
0.7272727272727273
 40
0.7727272727272727
 40
0.7727272727272727
 40
0.7727272727272727
 40
0.7727272727272727
 40
0.8181818181818182
 40
0.8181818181818182
 40
0.8181818181818182
 40
0.8181818181818182
 40
0.8636363636363636
 40
0.8636363636363636
 40
0.8636363636363636
 40
0.8636363636363636
 40
0.9090909090909091
 40
0.9090909090909091
 40
0.9090909090909091
 40
0.9090909090909091
 40
1.0
 40
1.0
 40
1.0
 40
1.0
 10
-42.4246
 20
22.2621
 30
0.0
 10
-42.4246
 20
22.2621
 30
0.0
 10
-42.4847
 20
22.5036
 30
0.0
 10
-42.4847
 20
22.5036
 30
0.0
 10
-42.4847
 20
22.5036
 30
0.0
 10
-42.4847
 20
22.5036
 30
0.0
 10
-42.6534
 20
22.7694
 30
0.0
 10
-42.6534
 20
22.7694
 30
0.0
 10
-42.6534
 20
22.7694
 30
0.0
 10
-42.6534
 20
22.7694
 30
0.0
 10
-42.846
 20
22.89
 30
0.0
 10
-42.846
 20
22.89
 30
0.0
 10
-42.846
 20
22.89
 30
0.0
 10
-42.846
 20
22.89
 30
0.0
 10
-43.0918
 20
22.9356
 30
0.0
 10
-43.0918
 20
22.9356
 30
0.0
 10
-43.0918
 20
22.9356
 30
0.0
 10
-43.0918
 20
22.9356
 30
0.0
 10
-43.2265
 20
22.9188
 30
0.0
 10
-43.2265
 20
22.9188
 30
0.0
 10
-43.2265
 20
22.9188
 30
0.0
 10
-43.2265
 20
22.9188
 30
0.0
 10
-43.3581
 20
22.8679
 30
0.0
 10
-43.3581
 20
22.8679
 30
0.0
 10
-43.3581
 20
22.8679
 30
0.0
 10
-43.3581
 20
22.8679
 30
0.0
 10
-43.4763
 20
22.7861
 30
0.0
 10
-43.4763
 20
22.7861
 30
0.0
 10
-43.4763
 20
22.7861
 30
0.0
 10
-43.4763
 20
22.7861
 30
0.0
 10
-43.574
 20
22.6795
 30
0.0
 10
-43.574
 20
22.6795
 30
0.0
 10
-43.574
 20
22.6795
 30
0.0
 10
-43.574
 20
22.6795
 30
0.0
 10
-43.649
 20
22.5503
 30
0.0
 10
-43.649
 20
22.5503
 30
0.0
 10
-43.649
 20
22.5503
 30
0.0
 10
-43.649
 20
22.5503
 30
0.0
 10
-43.6965
 20
22.4043
 30
0.0
 10
-43.6965
 20
22.4043
 30
0.0
 10
-43.6965
 20
22.4043
 30
0.0
 10
-43.6965
 20
22.4043
 30
0.0
 10
-43.7122
 20
22.2537
 30
0.0
 10
-43.7122
 20
22.2537
 30
0.0
 10
-43.7122
 20
22.2537
 30
0.0
 10
-43.7122
 20
22.2537
 30
0.0
 10
-43.7375
 20
19.872
 30
0.0
 10
-43.7375
 20
19.872
 30
0.0
 10
-43.7375
 20
19.872
 30
0.0
 10
-43.7375
 20
19.872
 30
0.0
 10
-43.6533
 20
19.6184
 30
0.0
 10
-43.6533
 20
19.6184
 30
0.0
 10
-43.6533
 20
19.6184
 30
0.0
 10
-43.6533
 20
19.6184
 30
0.0
 10
-43.5208
 20
19.3891
 30
0.0
 10
-43.5208
 20
19.3891
 30
0.0
 10
-43.5208
 20
19.3891
 30
0.0
 10
-43.5208
 20
19.3891
 30
0.0
 10
-43.2918
 20
19.1959
 30
0.0
 10
-43.2918
 20
19.1959
 30
0.0
 10
-43.2918
 20
19.1959
 30
0.0
 10
-43.2918
 20
19.1959
 30
0.0
 10
-43.0028
 20
19.1718
 30
0.0
 10
-43.0028
 20
19.1718
 30
0.0
 10
-43.0028
 20
19.1718
 30
0.0
 10
-43.0028
 20
19.1718
 30
0.0
 10
-42.7497
 20
19.2563
 30
0.0
 10
-42.7497
 20
19.2563
 30
0.0
 10
-42.7497
 20
19.2563
 30
0.0
 10
-42.7497
 20
19.2563
 30
0.0
 10
-42.5328
 20
19.4616
 30
0.0
 10
-42.5328
 20
19.4616
 30
0.0
 10
-42.5328
 20
19.4616
 30
0.0
 10
-42.5328
 20
19.4616
 30
0.0
 10
-42.4486
 20
19.6063
 30
0.0
 10
-42.4486
 20
19.6063
 30
0.0
 10
-42.4486
 20
19.6063
 30
0.0
 10
-42.4486
 20
19.6063
 30
0.0
 10
-42.4486
 20
19.8237
 30
0.0
 10
-42.4486
 20
19.8237
 30
0.0
 10
-42.4486
 20
19.8237
 30
0.0
 10
-42.4486
 20
19.8237
 30
0.0
 10
-42.4246
 20
22.2621
 30
0.0
 10
-42.4246
 20
22.2621
 30
0.0
  0
SPLINE
  5
85
330
1F
100
AcDbEntity
  8
VRSTVA_1
 62
   250
100
AcDbSpline
210
0.0
220
0.0
230
1.0
 70
    11
 71
     3
 72
    88
 73
    84
 74
     0
 42
0.0000000001
 43
0.0000000001
 40
0.0
 40
0.0
 40
0.0
 40
0.0
 40
0.0454545454545455
 40
0.0454545454545455
 40
0.0454545454545455
 40
0.0454545454545455
 40
0.0909090909090909
 40
0.0909090909090909
 40
0.0909090909090909
 40
0.0909090909090909
 40
0.1363636363636364
 40
0.1363636363636364
 40
0.1363636363636364
 40
0.1363636363636364
 40
0.1818181818181818
 40
0.1818181818181818
 40
0.1818181818181818
 40
0.1818181818181818
 40
0.2272727272727273
 40
0.2272727272727273
 40
0.2272727272727273
 40
0.2272727272727273
 40
0.2727272727272727
 40
0.2727272727272727
 40
0.2727272727272727
 40
0.2727272727272727
 40
0.3181818181818182
 40
0.3181818181818182
 40
0.3181818181818182
 40
0.3181818181818182
 40
0.3636363636363636
 40
0.3636363636363636
 40
0.3636363636363636
 40
0.3636363636363636
 40
0.4090909090909091
 40
0.4090909090909091
 40
0.4090909090909091
 40
0.4090909090909091
 40
0.4545454545454545
 40
0.4545454545454545
 40
0.4545454545454545
 40
0.4545454545454545
 40
0.5
 40
0.5
 40
0.5
 40
0.5
 40
0.5454545454545454
 40
0.5454545454545454
 40
0.5454545454545454
 40
0.5454545454545454
 40
0.5909090909090909
 40
0.5909090909090909
 40
0.5909090909090909
 40
0.5909090909090909
 40
0.6363636363636364
 40
0.6363636363636364
 40
0.6363636363636364
 40
0.6363636363636364
 40
0.6818181818181818
 40
0.6818181818181818
 40
0.6818181818181818
 40
0.6818181818181818
 40
0.7272727272727273
 40
0.7272727272727273
 40
0.7272727272727273
 40
0.7272727272727273
 40
0.7727272727272727
 40
0.7727272727272727
 40
0.7727272727272727
 40
0.7727272727272727
 40
0.8181818181818182
 40
0.8181818181818182
 40
0.8181818181818182
 40
0.8181818181818182
 40
0.8636363636363636
 40
0.8636363636363636
 40
0.8636363636363636
 40
0.8636363636363636
 40
0.9090909090909091
 40
0.9090909090909091
 40
0.9090909090909091
 40
0.9090909090909091
 40
1.0
 40
1.0
 40
1.0
 40
1.0
 10
-30.9254
 20
22.2931
 30
0.0
 10
-30.9254
 20
22.2931
 30
0.0
 10
-30.9855
 20
22.5346
 30
0.0
 10
-30.9855
 20
22.5346
 30
0.0
 10
-30.9855
 20
22.5346
 30
0.0
 10
-30.9855
 20
22.5346
 30
0.0
 10
-31.1542
 20
22.8004
 30
0.0
 10
-31.1542
 20
22.8004
 30
0.0
 10
-31.1542
 20
22.8004
 30
0.0
 10
-31.1542
 20
22.8004
 30
0.0
 10
-31.3468
 20
22.921
 30
0.0
 10
-31.3468
 20
22.921
 30
0.0
 10
-31.3468
 20
22.921
 30
0.0
 10
-31.3468
 20
22.921
 30
0.0
 10
-31.5926
 20
22.9666
 30
0.0
 10
-31.5926
 20
22.9666
 30
0.0
 10
-31.5926
 20
22.9666
 30
0.0
 10
-31.5926
 20
22.9666
 30
0.0
 10
-31.7273
 20
22.9499
 30
0.0
 10
-31.7273
 20
22.9499
 30
0.0
 10
-31.7273
 20
22.9499
 30
0.0
 10
-31.7273
 20
22.9499
 30
0.0
 10
-31.8589
 20
22.8989
 30
0.0
 10
-31.8589
 20
22.8989
 30
0.0
 10
-31.8589
 20
22.8989
 30
0.0
 10
-31.8589
 20
22.8989
 30
0.0
 10
-31.9771
 20
22.8171
 30
0.0
 10
-31.9771
 20
22.8171
 30
0.0
 10
-31.9771
 20
22.8171
 30
0.0
 10
-31.9771
 20
22.8171
 30
0.0
 10
-32.0748
 20
22.7105
 30
0.0
 10
-32.0748
 20
22.7105
 30
0.0
 10
-32.0748
 20
22.7105
 30
0.0
 10
-32.0748
 20
22.7105
 30
0.0
 10
-32.1498
 20
22.5813
 30
0.0
 10
-32.1498
 20
22.5813
 30
0.0
 10
-32.1498
 20
22.5813
 30
0.0
 10
-32.1498
 20
22.5813
 30
0.0
 10
-32.1973
 20
22.4353
 30
0.0
 10
-32.1973
 20
22.4353
 30
0.0
 10
-32.1973
 20
22.4353
 30
0.0
 10
-32.1973
 20
22.4353
 30
0.0
 10
-32.2129
 20
22.2848
 30
0.0
 10
-32.2129
 20
22.2848
 30
0.0
 10
-32.2129
 20
22.2848
 30
0.0
 10
-32.2129
 20
22.2848
 30
0.0
 10
-32.2383
 20
19.9031
 30
0.0
 10
-32.2383
 20
19.9031
 30
0.0
 10
-32.2383
 20
19.9031
 30
0.0
 10
-32.2383
 20
19.9031
 30
0.0
 10
-32.1541
 20
19.6494
 30
0.0
 10
-32.1541
 20
19.6494
 30
0.0
 10
-32.1541
 20
19.6494
 30
0.0
 10
-32.1541
 20
19.6494
 30
0.0
 10
-32.0216
 20
19.4201
 30
0.0
 10
-32.0216
 20
19.4201
 30
0.0
 10
-32.0216
 20
19.4201
 30
0.0
 10
-32.0216
 20
19.4201
 30
0.0
 10
-31.7926
 20
19.2269
 30
0.0
 10
-31.7926
 20
19.2269
 30
0.0
 10
-31.7926
 20
19.2269
 30
0.0
 10
-31.7926
 20
19.2269
 30
0.0
 10
-31.5036
 20
19.2029
 30
0.0
 10
-31.5036
 20
19.2029
 30
0.0
 10
-31.5036
 20
19.2029
 30
0.0
 10
-31.5036
 20
19.2029
 30
0.0
 10
-31.2505
 20
19.2873
 30
0.0
 10
-31.2505
 20
19.2873
 30
0.0
 10
-31.2505
 20
19.2873
 30
0.0
 10
-31.2505
 20
19.2873
 30
0.0
 10
-31.0336
 20
19.4927
 30
0.0
 10
-31.0336
 20
19.4927
 30
0.0
 10
-31.0336
 20
19.4927
 30
0.0
 10
-31.0336
 20
19.4927
 30
0.0
 10
-30.9494
 20
19.6373
 30
0.0
 10
-30.9494
 20
19.6373
 30
0.0
 10
-30.9494
 20
19.6373
 30
0.0
 10
-30.9494
 20
19.6373
 30
0.0
 10
-30.9494
 20
19.8548
 30
0.0
 10
-30.9494
 20
19.8548
 30
0.0
 10
-30.9494
 20
19.8548
 30
0.0
 10
-30.9494
 20
19.8548
 30
0.0
 10
-30.9254
 20
22.2931
 30
0.0
 10
-30.9254
 20
22.2931
 30
0.0
  0
SPLINE
  5
86
330
1F
100
AcDbEntity
  8
VRSTVA_1
 62
   250
100
AcDbSpline
210
0.0
220
0.0
230
1.0
 70
    11
 71
     3
 72
    84
 73
    80
 74
     0
 42
0.0000000001
 43
0.0000000001
 40
0.0
 40
0.0
 40
0.0
 40
0.0
 40
0.0476190476190476
 40
0.0476190476190476
 40
0.0476190476190476
 40
0.0476190476190476
 40
0.0952380952380952
 40
0.0952380952380952
 40
0.0952380952380952
 40
0.0952380952380952
 40
0.1428571428571428
 40
0.1428571428571428
 40
0.1428571428571428
 40
0.1428571428571428
 40
0.1904761904761905
 40
0.1904761904761905
 40
0.1904761904761905
 40
0.1904761904761905
 40
0.2380952380952381
 40
0.2380952380952381
 40
0.2380952380952381
 40
0.2380952380952381
 40
0.2857142857142857
 40
0.2857142857142857
 40
0.2857142857142857
 40
0.2857142857142857
 40
0.3333333333333333
 40
0.3333333333333333
 40
0.3333333333333333
 40
0.3333333333333333
 40
0.3809523809523809
 40
0.3809523809523809
 40
0.3809523809523809
 40
0.3809523809523809
 40
0.4285714285714285
 40
0.4285714285714285
 40
0.4285714285714285
 40
0.4285714285714285
 40
0.4761904761904762
 40
0.4761904761904762
 40
0.4761904761904762
 40
0.4761904761904762
 40
0.5238095238095238
 40
0.5238095238095238
 40
0.5238095238095238
 40
0.5238095238095238
 40
0.5714285714285714
 40
0.5714285714285714
 40
0.5714285714285714
 40
0.5714285714285714
 40
0.6190476190476191
 40
0.6190476190476191
 40
0.6190476190476191
 40
0.6190476190476191
 40
0.6666666666666666
 40
0.6666666666666666
 40
0.6666666666666666
 40
0.6666666666666666
 40
0.7142857142857143
 40
0.7142857142857143
 40
0.7142857142857143
 40
0.7142857142857143
 40
0.7619047619047619
 40
0.7619047619047619
 40
0.7619047619047619
 40
0.7619047619047619
 40
0.8095238095238095
 40
0.8095238095238095
 40
0.8095238095238095
 40
0.8095238095238095
 40
0.8571428571428571
 40
0.8571428571428571
 40
0.8571428571428571
 40
0.8571428571428571
 40
0.9047619047619048
 40
0.9047619047619048
 40
0.9047619047619048
 40
0.9047619047619048
 40
1.0
 40
1.0
 40
1.0
 40
1.0
 10
-29.1548
 20
19.2803
 30
0.0
 10
-29.1548
 20
19.2803
 30
0.0
 10
-29.3002
 20
19.2935
 30
0.0
 10
-29.3002
 20
19.2935
 30
0.0
 10
-29.3002
 20
19.2935
 30
0.0
 10
-29.3002
 20
19.2935
 30
0.0
 10
-29.3663
 20
19.4395
 30
0.0
 10
-29.3663
 20
19.4395
 30
0.0
 10
-29.3663
 20
19.4395
 30
0.0
 10
-29.3663
 20
19.4395
 30
0.0
 10
-29.4459
 20
19.7976
 30
0.0
 10
-29.4459
 20
19.7976
 30
0.0
 10
-29.4459
 20
19.7976
 30
0.0
 10
-29.4459
 20
19.7976
 30
0.0
 10
-29.4592
 20
20.1953
 30
0.0
 10
-29.4592
 20
20.1953
 30
0.0
 10
-29.4592
 20
20.1953
 30
0.0
 10
-29.4592
 20
20.1953
 30
0.0
 10
-29.4195
 20
22.6215
 30
0.0
 10
-29.4195
 20
22.6215
 30
0.0
 10
-29.4195
 20
22.6215
 30
0.0
 10
-29.4195
 20
22.6215
 30
0.0
 10
-29.3796
 20
22.8204
 30
0.0
 10
-29.3796
 20
22.8204
 30
0.0
 10
-29.3796
 20
22.8204
 30
0.0
 10
-29.3796
 20
22.8204
 30
0.0
 10
-29.219
 20
23.0149
 30
0.0
 10
-29.219
 20
23.0149
 30
0.0
 10
-29.219
 20
23.0149
 30
0.0
 10
-29.219
 20
23.0149
 30
0.0
 10
-29.1753
 20
23.0044
 30
0.0
 10
-29.1753
 20
23.0044
 30
0.0
 10
-29.1753
 20
23.0044
 30
0.0
 10
-29.1753
 20
23.0044
 30
0.0
 10
-29.0507
 20
22.9496
 30
0.0
 10
-29.0507
 20
22.9496
 30
0.0
 10
-29.0507
 20
22.9496
 30
0.0
 10
-29.0507
 20
22.9496
 30
0.0
 10
-28.9514
 20
22.8714
 30
0.0
 10
-28.9514
 20
22.8714
 30
0.0
 10
-28.9514
 20
22.8714
 30
0.0
 10
-28.9514
 20
22.8714
 30
0.0
 10
-28.8817
 20
22.7845
 30
0.0
 10
-28.8817
 20
22.7845
 30
0.0
 10
-28.8817
 20
22.7845
 30
0.0
 10
-28.8817
 20
22.7845
 30
0.0
 10
-28.8372
 20
22.6998
 30
0.0
 10
-28.8372
 20
22.6998
 30
0.0
 10
-28.8372
 20
22.6998
 30
0.0
 10
-28.8372
 20
22.6998
 30
0.0
 10
-28.8108
 20
22.6212
 30
0.0
 10
-28.8108
 20
22.6212
 30
0.0
 10
-28.8108
 20
22.6212
 30
0.0
 10
-28.8108
 20
22.6212
 30
0.0
 10
-28.7946
 20
22.5433
 30
0.0
 10
-28.7946
 20
22.5433
 30
0.0
 10
-28.7946
 20
22.5433
 30
0.0
 10
-28.7946
 20
22.5433
 30
0.0
 10
-28.7843
 20
22.4512
 30
0.0
 10
-28.7843
 20
22.4512
 30
0.0
 10
-28.7843
 20
22.4512
 30
0.0
 10
-28.7843
 20
22.4512
 30
0.0
 10
-28.7806
 20
22.3428
 30
0.0
 10
-28.7806
 20
22.3428
 30
0.0
 10
-28.7806
 20
22.3428
 30
0.0
 10
-28.7806
 20
22.3428
 30
0.0
 10
-28.7711
 20
19.9036
 30
0.0
 10
-28.7711
 20
19.9036
 30
0.0
 10
-28.7711
 20
19.9036
 30
0.0
 10
-28.7711
 20
19.9036
 30
0.0
 10
-28.7843
 20
19.5984
 30
0.0
 10
-28.7843
 20
19.5984
 30
0.0
 10
-28.7843
 20
19.5984
 30
0.0
 10
-28.7843
 20
19.5984
 30
0.0
 10
-28.9166
 20
19.3996
 30
0.0
 10
-28.9166
 20
19.3996
 30
0.0
 10
-28.9166
 20
19.3996
 30
0.0
 10
-28.9166
 20
19.3996
 30
0.0
 10
-29.1548
 20
19.2803
 30
0.0
 10
-29.1548
 20
19.2803
 30
0.0
  0
SPLINE
  5
87
330
1F
100
AcDbEntity
  8
VRSTVA_1
 62
   250
100
AcDbSpline
210
0.0
220
0.0
230
1.0
 70
    11
 71
     3
 72
    88
 73
    84
 74
     0
 42
0.0000000001
 43
0.0000000001
 40
0.0
 40
0.0
 40
0.0
 40
0.0
 40
0.0454545454545455
 40
0.0454545454545455
 40
0.0454545454545455
 40
0.0454545454545455
 40
0.0909090909090909
 40
0.0909090909090909
 40
0.0909090909090909
 40
0.0909090909090909
 40
0.1363636363636364
 40
0.1363636363636364
 40
0.1363636363636364
 40
0.1363636363636364
 40
0.1818181818181818
 40
0.1818181818181818
 40
0.1818181818181818
 40
0.1818181818181818
 40
0.2272727272727273
 40
0.2272727272727273
 40
0.2272727272727273
 40
0.2272727272727273
 40
0.2727272727272727
 40
0.2727272727272727
 40
0.2727272727272727
 40
0.2727272727272727
 40
0.3181818181818182
 40
0.3181818181818182
 40
0.3181818181818182
 40
0.3181818181818182
 40
0.3636363636363636
 40
0.3636363636363636
 40
0.3636363636363636
 40
0.3636363636363636
 40
0.4090909090909091
 40
0.4090909090909091
 40
0.4090909090909091
 40
0.4090909090909091
 40
0.4545454545454545
 40
0.4545454545454545
 40
0.4545454545454545
 40
0.4545454545454545
 40
0.5
 40
0.5
 40
0.5
 40
0.5
 40
0.5454545454545454
 40
0.5454545454545454
 40
0.5454545454545454
 40
0.5454545454545454
 40
0.5909090909090909
 40
0.5909090909090909
 40
0.5909090909090909
 40
0.5909090909090909
 40
0.6363636363636364
 40
0.6363636363636364
 40
0.6363636363636364
 40
0.6363636363636364
 40
0.6818181818181818
 40
0.6818181818181818
 40
0.6818181818181818
 40
0.6818181818181818
 40
0.7272727272727273
 40
0.7272727272727273
 40
0.7272727272727273
 40
0.7272727272727273
 40
0.7727272727272727
 40
0.7727272727272727
 40
0.7727272727272727
 40
0.7727272727272727
 40
0.8181818181818182
 40
0.8181818181818182
 40
0.8181818181818182
 40
0.8181818181818182
 40
0.8636363636363636
 40
0.8636363636363636
 40
0.8636363636363636
 40
0.8636363636363636
 40
0.9090909090909091
 40
0.9090909090909091
 40
0.9090909090909091
 40
0.9090909090909091
 40
1.0
 40
1.0
 40
1.0
 40
1.0
 10
-36.72
 20
22.3242
 30
0.0
 10
-36.72
 20
22.3242
 30
0.0
 10
-36.7802
 20
22.5657
 30
0.0
 10
-36.7802
 20
22.5657
 30
0.0
 10
-36.7802
 20
22.5657
 30
0.0
 10
-36.7802
 20
22.5657
 30
0.0
 10
-36.9488
 20
22.8314
 30
0.0
 10
-36.9488
 20
22.8314
 30
0.0
 10
-36.9488
 20
22.8314
 30
0.0
 10
-36.9488
 20
22.8314
 30
0.0
 10
-37.1415
 20
22.952
 30
0.0
 10
-37.1415
 20
22.952
 30
0.0
 10
-37.1415
 20
22.952
 30
0.0
 10
-37.1415
 20
22.952
 30
0.0
 10
-37.3873
 20
22.9976
 30
0.0
 10
-37.3873
 20
22.9976
 30
0.0
 10
-37.3873
 20
22.9976
 30
0.0
 10
-37.3873
 20
22.9976
 30
0.0
 10
-37.5219
 20
22.9809
 30
0.0
 10
-37.5219
 20
22.9809
 30
0.0
 10
-37.5219
 20
22.9809
 30
0.0
 10
-37.5219
 20
22.9809
 30
0.0
 10
-37.6536
 20
22.9299
 30
0.0
 10
-37.6536
 20
22.9299
 30
0.0
 10
-37.6536
 20
22.9299
 30
0.0
 10
-37.6536
 20
22.9299
 30
0.0
 10
-37.7718
 20
22.8482
 30
0.0
 10
-37.7718
 20
22.8482
 30
0.0
 10
-37.7718
 20
22.8482
 30
0.0
 10
-37.7718
 20
22.8482
 30
0.0
 10
-37.8695
 20
22.7416
 30
0.0
 10
-37.8695
 20
22.7416
 30
0.0
 10
-37.8695
 20
22.7416
 30
0.0
 10
-37.8695
 20
22.7416
 30
0.0
 10
-37.9445
 20
22.6123
 30
0.0
 10
-37.9445
 20
22.6123
 30
0.0
 10
-37.9445
 20
22.6123
 30
0.0
 10
-37.9445
 20
22.6123
 30
0.0
 10
-37.992
 20
22.4664
 30
0.0
 10
-37.992
 20
22.4664
 30
0.0
 10
-37.992
 20
22.4664
 30
0.0
 10
-37.992
 20
22.4664
 30
0.0
 10
-38.0076
 20
22.3158
 30
0.0
 10
-38.0076
 20
22.3158
 30
0.0
 10
-38.0076
 20
22.3158
 30
0.0
 10
-38.0076
 20
22.3158
 30
0.0
 10
-38.033
 20
19.9341
 30
0.0
 10
-38.033
 20
19.9341
 30
0.0
 10
-38.033
 20
19.9341
 30
0.0
 10
-38.033
 20
19.9341
 30
0.0
 10
-37.9488
 20
19.6805
 30
0.0
 10
-37.9488
 20
19.6805
 30
0.0
 10
-37.9488
 20
19.6805
 30
0.0
 10
-37.9488
 20
19.6805
 30
0.0
 10
-37.8163
 20
19.4511
 30
0.0
 10
-37.8163
 20
19.4511
 30
0.0
 10
-37.8163
 20
19.4511
 30
0.0
 10
-37.8163
 20
19.4511
 30
0.0
 10
-37.5872
 20
19.2579
 30
0.0
 10
-37.5872
 20
19.2579
 30
0.0
 10
-37.5872
 20
19.2579
 30
0.0
 10
-37.5872
 20
19.2579
 30
0.0
 10
-37.2983
 20
19.2339
 30
0.0
 10
-37.2983
 20
19.2339
 30
0.0
 10
-37.2983
 20
19.2339
 30
0.0
 10
-37.2983
 20
19.2339
 30
0.0
 10
-37.0452
 20
19.3184
 30
0.0
 10
-37.0452
 20
19.3184
 30
0.0
 10
-37.0452
 20
19.3184
 30
0.0
 10
-37.0452
 20
19.3184
 30
0.0
 10
-36.8282
 20
19.5237
 30
0.0
 10
-36.8282
 20
19.5237
 30
0.0
 10
-36.8282
 20
19.5237
 30
0.0
 10
-36.8282
 20
19.5237
 30
0.0
 10
-36.744
 20
19.6683
 30
0.0
 10
-36.744
 20
19.6683
 30
0.0
 10
-36.744
 20
19.6683
 30
0.0
 10
-36.744
 20
19.6683
 30
0.0
 10
-36.744
 20
19.8858
 30
0.0
 10
-36.744
 20
19.8858
 30
0.0
 10
-36.744
 20
19.8858
 30
0.0
 10
-36.744
 20
19.8858
 30
0.0
 10
-36.72
 20
22.3242
 30
0.0
 10
-36.72
 20
22.3242
 30
0.0
  0
SPLINE
  5
88
330
1F
100
AcDbEntity
  8
VRSTVA_1
 62
   250
100
AcDbSpline
210
0.0
220
0.0
230
1.0
 70
    11
 71
     3
 72
    84
 73
    80
 74
     0
 42
0.0000000001
 43
0.0000000001
 40
0.0
 40
0.0
 40
0.0
 40
0.0
 40
0.0476190476190476
 40
0.0476190476190476
 40
0.0476190476190476
 40
0.0476190476190476
 40
0.0952380952380952
 40
0.0952380952380952
 40
0.0952380952380952
 40
0.0952380952380952
 40
0.1428571428571428
 40
0.1428571428571428
 40
0.1428571428571428
 40
0.1428571428571428
 40
0.1904761904761905
 40
0.1904761904761905
 40
0.1904761904761905
 40
0.1904761904761905
 40
0.2380952380952381
 40
0.2380952380952381
 40
0.2380952380952381
 40
0.2380952380952381
 40
0.2857142857142857
 40
0.2857142857142857
 40
0.2857142857142857
 40
0.2857142857142857
 40
0.3333333333333333
 40
0.3333333333333333
 40
0.3333333333333333
 40
0.3333333333333333
 40
0.3809523809523809
 40
0.3809523809523809
 40
0.3809523809523809
 40
0.3809523809523809
 40
0.4285714285714285
 40
0.4285714285714285
 40
0.4285714285714285
 40
0.4285714285714285
 40
0.4761904761904762
 40
0.4761904761904762
 40
0.4761904761904762
 40
0.4761904761904762
 40
0.5238095238095238
 40
0.5238095238095238
 40
0.5238095238095238
 40
0.5238095238095238
 40
0.5714285714285714
 40
0.5714285714285714
 40
0.5714285714285714
 40
0.5714285714285714
 40
0.6190476190476191
 40
0.6190476190476191
 40
0.6190476190476191
 40
0.6190476190476191
 40
0.6666666666666666
 40
0.6666666666666666
 40
0.6666666666666666
 40
0.6666666666666666
 40
0.7142857142857143
 40
0.7142857142857143
 40
0.7142857142857143
 40
0.7142857142857143
 40
0.7619047619047619
 40
0.7619047619047619
 40
0.7619047619047619
 40
0.7619047619047619
 40
0.8095238095238095
 40
0.8095238095238095
 40
0.8095238095238095
 40
0.8095238095238095
 40
0.8571428571428571
 40
0.8571428571428571
 40
0.8571428571428571
 40
0.8571428571428571
 40
0.9047619047619048
 40
0.9047619047619048
 40
0.9047619047619048
 40
0.9047619047619048
 40
1.0
 40
1.0
 40
1.0
 40
1.0
 10
-45.7077
 20
22.9607
 30
0.0
 10
-45.7077
 20
22.9607
 30
0.0
 10
-45.5623
 20
22.9474
 30
0.0
 10
-45.5623
 20
22.9474
 30
0.0
 10
-45.5623
 20
22.9474
 30
0.0
 10
-45.5623
 20
22.9474
 30
0.0
 10
-45.4962
 20
22.8015
 30
0.0
 10
-45.4962
 20
22.8015
 30
0.0
 10
-45.4962
 20
22.8015
 30
0.0
 10
-45.4962
 20
22.8015
 30
0.0
 10
-45.4166
 20
22.4434
 30
0.0
 10
-45.4166
 20
22.4434
 30
0.0
 10
-45.4166
 20
22.4434
 30
0.0
 10
-45.4166
 20
22.4434
 30
0.0
 10
-45.4034
 20
22.0457
 30
0.0
 10
-45.4034
 20
22.0457
 30
0.0
 10
-45.4034
 20
22.0457
 30
0.0
 10
-45.4034
 20
22.0457
 30
0.0
 10
-45.443
 20
19.6195
 30
0.0
 10
-45.443
 20
19.6195
 30
0.0
 10
-45.443
 20
19.6195
 30
0.0
 10
-45.443
 20
19.6195
 30
0.0
 10
-45.483
 20
19.4206
 30
0.0
 10
-45.483
 20
19.4206
 30
0.0
 10
-45.483
 20
19.4206
 30
0.0
 10
-45.483
 20
19.4206
 30
0.0
 10
-45.6435
 20
19.2261
 30
0.0
 10
-45.6435
 20
19.2261
 30
0.0
 10
-45.6435
 20
19.2261
 30
0.0
 10
-45.6435
 20
19.2261
 30
0.0
 10
-45.6872
 20
19.2366
 30
0.0
 10
-45.6872
 20
19.2366
 30
0.0
 10
-45.6872
 20
19.2366
 30
0.0
 10
-45.6872
 20
19.2366
 30
0.0
 10
-45.8119
 20
19.2914
 30
0.0
 10
-45.8119
 20
19.2914
 30
0.0
 10
-45.8119
 20
19.2914
 30
0.0
 10
-45.8119
 20
19.2914
 30
0.0
 10
-45.9112
 20
19.3696
 30
0.0
 10
-45.9112
 20
19.3696
 30
0.0
 10
-45.9112
 20
19.3696
 30
0.0
 10
-45.9112
 20
19.3696
 30
0.0
 10
-45.9808
 20
19.4565
 30
0.0
 10
-45.9808
 20
19.4565
 30
0.0
 10
-45.9808
 20
19.4565
 30
0.0
 10
-45.9808
 20
19.4565
 30
0.0
 10
-46.0253
 20
19.5412
 30
0.0
 10
-46.0253
 20
19.5412
 30
0.0
 10
-46.0253
 20
19.5412
 30
0.0
 10
-46.0253
 20
19.5412
 30
0.0
 10
-46.0518
 20
19.6198
 30
0.0
 10
-46.0518
 20
19.6198
 30
0.0
 10
-46.0518
 20
19.6198
 30
0.0
 10
-46.0518
 20
19.6198
 30
0.0
 10
-46.068
 20
19.6977
 30
0.0
 10
-46.068
 20
19.6977
 30
0.0
 10
-46.068
 20
19.6977
 30
0.0
 10
-46.068
 20
19.6977
 30
0.0
 10
-46.0782
 20
19.7897
 30
0.0
 10
-46.0782
 20
19.7897
 30
0.0
 10
-46.0782
 20
19.7897
 30
0.0
 10
-46.0782
 20
19.7897
 30
0.0
 10
-46.082
 20
19.8982
 30
0.0
 10
-46.082
 20
19.8982
 30
0.0
 10
-46.082
 20
19.8982
 30
0.0
 10
-46.082
 20
19.8982
 30
0.0
 10
-46.0914
 20
22.3374
 30
0.0
 10
-46.0914
 20
22.3374
 30
0.0
 10
-46.0914
 20
22.3374
 30
0.0
 10
-46.0914
 20
22.3374
 30
0.0
 10
-46.0782
 20
22.6426
 30
0.0
 10
-46.0782
 20
22.6426
 30
0.0
 10
-46.0782
 20
22.6426
 30
0.0
 10
-46.0782
 20
22.6426
 30
0.0
 10
-45.946
 20
22.8414
 30
0.0
 10
-45.946
 20
22.8414
 30
0.0
 10
-45.946
 20
22.8414
 30
0.0
 10
-45.946
 20
22.8414
 30
0.0
 10
-45.7077
 20
22.9607
 30
0.0
 10
-45.7077
 20
22.9607
 30
0.0
  0
SPLINE
  5
89
330
1F
100
AcDbEntity
  8
VRSTVA_1
 62
   250
100
AcDbSpline
210
0.0
220
0.0
230
1.0
 70
     8
 71
     3
 72
    24
 73
    20
 74
     0
 42
0.0000000001
 43
0.0000000001
 40
0.0
 40
0.0
 40
0.0
 40
0.0
 40
0.1666666666666667
 40
0.1666666666666667
 40
0.1666666666666667
 40
0.1666666666666667
 40
0.3333333333333333
 40
0.3333333333333333
 40
0.3333333333333333
 40
0.3333333333333333
 40
0.5
 40
0.5
 40
0.5
 40
0.5
 40
0.6666666666666666
 40
0.6666666666666666
 40
0.6666666666666666
 40
0.6666666666666666
 40
1.0
 40
1.0
 40
1.0
 40
1.0
 10
-45.6446
 20
22.9666
 30
0.0
 10
-45.6446
 20
23.3433
 30
0.0
 10
-45.3394
 20
23.6484
 30
0.0
 10
-44.9628
 20
23.6484
 30
0.0
 10
-44.9628
 20
23.6484
 30
0.0
 10
-44.9628
 20
23.6484
 30
0.0
 10
-29.9308
 20
23.6422
 30
0.0
 10
-29.9308
 20
23.6422
 30
0.0
 10
-29.9308
 20
23.6422
 30
0.0
 10
-29.9308
 20
23.6422
 30
0.0
 10
-29.6189
 20
23.5446
 30
0.0
 10
-29.6189
 20
23.5446
 30
0.0
 10
-29.6189
 20
23.5446
 30
0.0
 10
-29.6189
 20
23.5446
 30
0.0
 10
-29.4629
 20
23.4469
 30
0.0
 10
-29.4629
 20
23.4469
 30
0.0
 10
-29.4629
 20
23.4469
 30
0.0
 10
-29.4629
 20
23.4469
 30
0.0
 10
-29.2876
 20
22.9974
 30
0.0
 10
-29.2876
 20
22.9974
 30
0.0
  0
SPLINE
  5
8A
330
1F
100
AcDbEntity
  8
VRSTVA_1
 62
   250
100
AcDbSpline
210
0.0
220
0.0
230
1.0
 70
     8
 71
     3
 72
    28
 73
    24
 74
     0
 42
0.0000000001
 43
0.0000000001
 40
0.0
 40
0.0
 40
0.0
 40
0.0
 40
0.1428571428571428
 40
0.1428571428571428
 40
0.1428571428571428
 40
0.1428571428571428
 40
0.2857142857142857
 40
0.2857142857142857
 40
0.2857142857142857
 40
0.2857142857142857
 40
0.4285714285714285
 40
0.4285714285714285
 40
0.4285714285714285
 40
0.4285714285714285
 40
0.5714285714285714
 40
0.5714285714285714
 40
0.5714285714285714
 40
0.5714285714285714
 40
0.7142857142857143
 40
0.7142857142857143
 40
0.7142857142857143
 40
0.7142857142857143
 40
1.0
 40
1.0
 40
1.0
 40
1.0
 10
-46.5262
 20
-14.0924
 30
0.0
 10
-46.5262
 20
-14.4691
 30
0.0
 10
-46.1869
 20
-14.7745
 30
0.0
 10
-45.7682
 20
-14.7745
 30
0.0
 10
-45.7682
 20
-14.7745
 30
0.0
 10
-45.7682
 20
-14.7745
 30
0.0
 10
-29.0317
 20
-14.7821
 30
0.0
 10
-29.0317
 20
-14.7821
 30
0.0
 10
-29.0317
 20
-14.7821
 30
0.0
 10
-29.0317
 20
-14.7821
 30
0.0
 10
-28.7398
 20
-14.7036
 30
0.0
 10
-28.7398
 20
-14.7036
 30
0.0
 10
-28.7398
 20
-14.7036
 30
0.0
 10
-28.7398
 20
-14.7036
 30
0.0
 10
-28.5593
 20
-14.5498
 30
0.0
 10
-28.5593
 20
-14.5498
 30
0.0
 10
-28.5593
 20
-14.5498
 30
0.0
 10
-28.5593
 20
-14.5498
 30
0.0
 10
-28.3787
 20
-14.3326
 30
0.0
 10
-28.3787
 20
-14.3326
 30
0.0
 10
-28.3787
 20
-14.3326
 30
0.0
 10
-28.3787
 20
-14.3326
 30
0.0
 10
-28.2884
 20
-14.1065
 30
0.0
 10
-28.2884
 20
-14.1065
 30
0.0
  0
SPLINE
  5
8B
330
1F
100
AcDbEntity
  8
VRSTVA_1
 62
   250
100
AcDbSpline
210
0.0
220
0.0
230
1.0
 70
    11
 71
     3
 72
    88
 73
    84
 74
     0
 42
0.0000000001
 43
0.0000000001
 40
0.0
 40
0.0
 40
0.0
 40
0.0
 40
0.0454545454545455
 40
0.0454545454545455
 40
0.0454545454545455
 40
0.0454545454545455
 40
0.0909090909090909
 40
0.0909090909090909
 40
0.0909090909090909
 40
0.0909090909090909
 40
0.1363636363636364
 40
0.1363636363636364
 40
0.1363636363636364
 40
0.1363636363636364
 40
0.1818181818181818
 40
0.1818181818181818
 40
0.1818181818181818
 40
0.1818181818181818
 40
0.2272727272727273
 40
0.2272727272727273
 40
0.2272727272727273
 40
0.2272727272727273
 40
0.2727272727272727
 40
0.2727272727272727
 40
0.2727272727272727
 40
0.2727272727272727
 40
0.3181818181818182
 40
0.3181818181818182
 40
0.3181818181818182
 40
0.3181818181818182
 40
0.3636363636363636
 40
0.3636363636363636
 40
0.3636363636363636
 40
0.3636363636363636
 40
0.4090909090909091
 40
0.4090909090909091
 40
0.4090909090909091
 40
0.4090909090909091
 40
0.4545454545454545
 40
0.4545454545454545
 40
0.4545454545454545
 40
0.4545454545454545
 40
0.5
 40
0.5
 40
0.5
 40
0.5
 40
0.5454545454545454
 40
0.5454545454545454
 40
0.5454545454545454
 40
0.5454545454545454
 40
0.5909090909090909
 40
0.5909090909090909
 40
0.5909090909090909
 40
0.5909090909090909
 40
0.6363636363636364
 40
0.6363636363636364
 40
0.6363636363636364
 40
0.6363636363636364
 40
0.6818181818181818
 40
0.6818181818181818
 40
0.6818181818181818
 40
0.6818181818181818
 40
0.7272727272727273
 40
0.7272727272727273
 40
0.7272727272727273
 40
0.7272727272727273
 40
0.7727272727272727
 40
0.7727272727272727
 40
0.7727272727272727
 40
0.7727272727272727
 40
0.8181818181818182
 40
0.8181818181818182
 40
0.8181818181818182
 40
0.8181818181818182
 40
0.8636363636363636
 40
0.8636363636363636
 40
0.8636363636363636
 40
0.8636363636363636
 40
0.9090909090909091
 40
0.9090909090909091
 40
0.9090909090909091
 40
0.9090909090909091
 40
1.0
 40
1.0
 40
1.0
 40
1.0
 10
-42.9468
 20
-11.0467
 30
0.0
 10
-42.9468
 20
-11.0467
 30
0.0
 10
-43.0136
 20
-10.8052
 30
0.0
 10
-43.0136
 20
-10.8052
 30
0.0
 10
-43.0136
 20
-10.8052
 30
0.0
 10
-43.0136
 20
-10.8052
 30
0.0
 10
-43.2011
 20
-10.5394
 30
0.0
 10
-43.2011
 20
-10.5394
 30
0.0
 10
-43.2011
 20
-10.5394
 30
0.0
 10
-43.2011
 20
-10.5394
 30
0.0
 10
-43.4153
 20
-10.4188
 30
0.0
 10
-43.4153
 20
-10.4188
 30
0.0
 10
-43.4153
 20
-10.4188
 30
0.0
 10
-43.4153
 20
-10.4188
 30
0.0
 10
-43.6885
 20
-10.3732
 30
0.0
 10
-43.6885
 20
-10.3732
 30
0.0
 10
-43.6885
 20
-10.3732
 30
0.0
 10
-43.6885
 20
-10.3732
 30
0.0
 10
-43.8382
 20
-10.39
 30
0.0
 10
-43.8382
 20
-10.39
 30
0.0
 10
-43.8382
 20
-10.39
 30
0.0
 10
-43.8382
 20
-10.39
 30
0.0
 10
-43.9845
 20
-10.4409
 30
0.0
 10
-43.9845
 20
-10.4409
 30
0.0
 10
-43.9845
 20
-10.4409
 30
0.0
 10
-43.9845
 20
-10.4409
 30
0.0
 10
-44.1159
 20
-10.5227
 30
0.0
 10
-44.1159
 20
-10.5227
 30
0.0
 10
-44.1159
 20
-10.5227
 30
0.0
 10
-44.1159
 20
-10.5227
 30
0.0
 10
-44.2245
 20
-10.6293
 30
0.0
 10
-44.2245
 20
-10.6293
 30
0.0
 10
-44.2245
 20
-10.6293
 30
0.0
 10
-44.2245
 20
-10.6293
 30
0.0
 10
-44.3079
 20
-10.7585
 30
0.0
 10
-44.3079
 20
-10.7585
 30
0.0
 10
-44.3079
 20
-10.7585
 30
0.0
 10
-44.3079
 20
-10.7585
 30
0.0
 10
-44.3606
 20
-10.9045
 30
0.0
 10
-44.3606
 20
-10.9045
 30
0.0
 10
-44.3606
 20
-10.9045
 30
0.0
 10
-44.3606
 20
-10.9045
 30
0.0
 10
-44.378
 20
-11.0551
 30
0.0
 10
-44.378
 20
-11.0551
 30
0.0
 10
-44.378
 20
-11.0551
 30
0.0
 10
-44.378
 20
-11.0551
 30
0.0
 10
-44.4062
 20
-13.4368
 30
0.0
 10
-44.4062
 20
-13.4368
 30
0.0
 10
-44.4062
 20
-13.4368
 30
0.0
 10
-44.4062
 20
-13.4368
 30
0.0
 10
-44.3127
 20
-13.6904
 30
0.0
 10
-44.3127
 20
-13.6904
 30
0.0
 10
-44.3127
 20
-13.6904
 30
0.0
 10
-44.3127
 20
-13.6904
 30
0.0
 10
-44.1654
 20
-13.9197
 30
0.0
 10
-44.1654
 20
-13.9197
 30
0.0
 10
-44.1654
 20
-13.9197
 30
0.0
 10
-44.1654
 20
-13.9197
 30
0.0
 10
-43.9107
 20
-14.1129
 30
0.0
 10
-43.9107
 20
-14.1129
 30
0.0
 10
-43.9107
 20
-14.1129
 30
0.0
 10
-43.9107
 20
-14.1129
 30
0.0
 10
-43.5895
 20
-14.1369
 30
0.0
 10
-43.5895
 20
-14.1369
 30
0.0
 10
-43.5895
 20
-14.1369
 30
0.0
 10
-43.5895
 20
-14.1369
 30
0.0
 10
-43.3082
 20
-14.0525
 30
0.0
 10
-43.3082
 20
-14.0525
 30
0.0
 10
-43.3082
 20
-14.0525
 30
0.0
 10
-43.3082
 20
-14.0525
 30
0.0
 10
-43.067
 20
-13.8472
 30
0.0
 10
-43.067
 20
-13.8472
 30
0.0
 10
-43.067
 20
-13.8472
 30
0.0
 10
-43.067
 20
-13.8472
 30
0.0
 10
-42.9735
 20
-13.7025
 30
0.0
 10
-42.9735
 20
-13.7025
 30
0.0
 10
-42.9735
 20
-13.7025
 30
0.0
 10
-42.9735
 20
-13.7025
 30
0.0
 10
-42.9735
 20
-13.4851
 30
0.0
 10
-42.9735
 20
-13.4851
 30
0.0
 10
-42.9735
 20
-13.4851
 30
0.0
 10
-42.9735
 20
-13.4851
 30
0.0
 10
-42.9468
 20
-11.0467
 30
0.0
 10
-42.9468
 20
-11.0467
 30
0.0
  0
SPLINE
  5
8C
330
1F
100
AcDbEntity
  8
VRSTVA_1
 62
   250
100
AcDbSpline
210
0.0
220
0.0
230
1.0
 70
    11
 71
     3
 72
    88
 73
    84
 74
     0
 42
0.0000000001
 43
0.0000000001
 40
0.0
 40
0.0
 40
0.0
 40
0.0
 40
0.0454545454545455
 40
0.0454545454545455
 40
0.0454545454545455
 40
0.0454545454545455
 40
0.0909090909090909
 40
0.0909090909090909
 40
0.0909090909090909
 40
0.0909090909090909
 40
0.1363636363636364
 40
0.1363636363636364
 40
0.1363636363636364
 40
0.1363636363636364
 40
0.1818181818181818
 40
0.1818181818181818
 40
0.1818181818181818
 40
0.1818181818181818
 40
0.2272727272727273
 40
0.2272727272727273
 40
0.2272727272727273
 40
0.2272727272727273
 40
0.2727272727272727
 40
0.2727272727272727
 40
0.2727272727272727
 40
0.2727272727272727
 40
0.3181818181818182
 40
0.3181818181818182
 40
0.3181818181818182
 40
0.3181818181818182
 40
0.3636363636363636
 40
0.3636363636363636
 40
0.3636363636363636
 40
0.3636363636363636
 40
0.4090909090909091
 40
0.4090909090909091
 40
0.4090909090909091
 40
0.4090909090909091
 40
0.4545454545454545
 40
0.4545454545454545
 40
0.4545454545454545
 40
0.4545454545454545
 40
0.5
 40
0.5
 40
0.5
 40
0.5
 40
0.5454545454545454
 40
0.5454545454545454
 40
0.5454545454545454
 40
0.5454545454545454
 40
0.5909090909090909
 40
0.5909090909090909
 40
0.5909090909090909
 40
0.5909090909090909
 40
0.6363636363636364
 40
0.6363636363636364
 40
0.6363636363636364
 40
0.6363636363636364
 40
0.6818181818181818
 40
0.6818181818181818
 40
0.6818181818181818
 40
0.6818181818181818
 40
0.7272727272727273
 40
0.7272727272727273
 40
0.7272727272727273
 40
0.7272727272727273
 40
0.7727272727272727
 40
0.7727272727272727
 40
0.7727272727272727
 40
0.7727272727272727
 40
0.8181818181818182
 40
0.8181818181818182
 40
0.8181818181818182
 40
0.8181818181818182
 40
0.8636363636363636
 40
0.8636363636363636
 40
0.8636363636363636
 40
0.8636363636363636
 40
0.9090909090909091
 40
0.9090909090909091
 40
0.9090909090909091
 40
0.9090909090909091
 40
1.0
 40
1.0
 40
1.0
 40
1.0
 10
-30.1642
 20
-11.0157
 30
0.0
 10
-30.1642
 20
-11.0157
 30
0.0
 10
-30.2311
 20
-10.7742
 30
0.0
 10
-30.2311
 20
-10.7742
 30
0.0
 10
-30.2311
 20
-10.7742
 30
0.0
 10
-30.2311
 20
-10.7742
 30
0.0
 10
-30.4186
 20
-10.5084
 30
0.0
 10
-30.4186
 20
-10.5084
 30
0.0
 10
-30.4186
 20
-10.5084
 30
0.0
 10
-30.4186
 20
-10.5084
 30
0.0
 10
-30.6327
 20
-10.3878
 30
0.0
 10
-30.6327
 20
-10.3878
 30
0.0
 10
-30.6327
 20
-10.3878
 30
0.0
 10
-30.6327
 20
-10.3878
 30
0.0
 10
-30.9059
 20
-10.3422
 30
0.0
 10
-30.9059
 20
-10.3422
 30
0.0
 10
-30.9059
 20
-10.3422
 30
0.0
 10
-30.9059
 20
-10.3422
 30
0.0
 10
-31.0556
 20
-10.3589
 30
0.0
 10
-31.0556
 20
-10.3589
 30
0.0
 10
-31.0556
 20
-10.3589
 30
0.0
 10
-31.0556
 20
-10.3589
 30
0.0
 10
-31.202
 20
-10.4099
 30
0.0
 10
-31.202
 20
-10.4099
 30
0.0
 10
-31.202
 20
-10.4099
 30
0.0
 10
-31.202
 20
-10.4099
 30
0.0
 10
-31.3334
 20
-10.4917
 30
0.0
 10
-31.3334
 20
-10.4917
 30
0.0
 10
-31.3334
 20
-10.4917
 30
0.0
 10
-31.3334
 20
-10.4917
 30
0.0
 10
-31.4419
 20
-10.5983
 30
0.0
 10
-31.4419
 20
-10.5983
 30
0.0
 10
-31.4419
 20
-10.5983
 30
0.0
 10
-31.4419
 20
-10.5983
 30
0.0
 10
-31.5253
 20
-10.7275
 30
0.0
 10
-31.5253
 20
-10.7275
 30
0.0
 10
-31.5253
 20
-10.7275
 30
0.0
 10
-31.5253
 20
-10.7275
 30
0.0
 10
-31.5781
 20
-10.8735
 30
0.0
 10
-31.5781
 20
-10.8735
 30
0.0
 10
-31.5781
 20
-10.8735
 30
0.0
 10
-31.5781
 20
-10.8735
 30
0.0
 10
-31.5955
 20
-11.024
 30
0.0
 10
-31.5955
 20
-11.024
 30
0.0
 10
-31.5955
 20
-11.024
 30
0.0
 10
-31.5955
 20
-11.024
 30
0.0
 10
-31.6237
 20
-13.4057
 30
0.0
 10
-31.6237
 20
-13.4057
 30
0.0
 10
-31.6237
 20
-13.4057
 30
0.0
 10
-31.6237
 20
-13.4057
 30
0.0
 10
-31.5301
 20
-13.6594
 30
0.0
 10
-31.5301
 20
-13.6594
 30
0.0
 10
-31.5301
 20
-13.6594
 30
0.0
 10
-31.5301
 20
-13.6594
 30
0.0
 10
-31.3828
 20
-13.8887
 30
0.0
 10
-31.3828
 20
-13.8887
 30
0.0
 10
-31.3828
 20
-13.8887
 30
0.0
 10
-31.3828
 20
-13.8887
 30
0.0
 10
-31.1282
 20
-14.0819
 30
0.0
 10
-31.1282
 20
-14.0819
 30
0.0
 10
-31.1282
 20
-14.0819
 30
0.0
 10
-31.1282
 20
-14.0819
 30
0.0
 10
-30.807
 20
-14.1059
 30
0.0
 10
-30.807
 20
-14.1059
 30
0.0
 10
-30.807
 20
-14.1059
 30
0.0
 10
-30.807
 20
-14.1059
 30
0.0
 10
-30.5256
 20
-14.0215
 30
0.0
 10
-30.5256
 20
-14.0215
 30
0.0
 10
-30.5256
 20
-14.0215
 30
0.0
 10
-30.5256
 20
-14.0215
 30
0.0
 10
-30.2845
 20
-13.8161
 30
0.0
 10
-30.2845
 20
-13.8161
 30
0.0
 10
-30.2845
 20
-13.8161
 30
0.0
 10
-30.2845
 20
-13.8161
 30
0.0
 10
-30.1909
 20
-13.6715
 30
0.0
 10
-30.1909
 20
-13.6715
 30
0.0
 10
-30.1909
 20
-13.6715
 30
0.0
 10
-30.1909
 20
-13.6715
 30
0.0
 10
-30.1909
 20
-13.454
 30
0.0
 10
-30.1909
 20
-13.454
 30
0.0
 10
-30.1909
 20
-13.454
 30
0.0
 10
-30.1909
 20
-13.454
 30
0.0
 10
-30.1642
 20
-11.0157
 30
0.0
 10
-30.1642
 20
-11.0157
 30
0.0
  0
SPLINE
  5
8D
330
1F
100
AcDbEntity
  8
VRSTVA_1
 62
   250
100
AcDbSpline
210
0.0
220
0.0
230
1.0
 70
    11
 71
     3
 72
    84
 73
    80
 74
     0
 42
0.0000000001
 43
0.0000000001
 40
0.0
 40
0.0
 40
0.0
 40
0.0
 40
0.0476190476190476
 40
0.0476190476190476
 40
0.0476190476190476
 40
0.0476190476190476
 40
0.0952380952380952
 40
0.0952380952380952
 40
0.0952380952380952
 40
0.0952380952380952
 40
0.1428571428571428
 40
0.1428571428571428
 40
0.1428571428571428
 40
0.1428571428571428
 40
0.1904761904761905
 40
0.1904761904761905
 40
0.1904761904761905
 40
0.1904761904761905
 40
0.2380952380952381
 40
0.2380952380952381
 40
0.2380952380952381
 40
0.2380952380952381
 40
0.2857142857142857
 40
0.2857142857142857
 40
0.2857142857142857
 40
0.2857142857142857
 40
0.3333333333333333
 40
0.3333333333333333
 40
0.3333333333333333
 40
0.3333333333333333
 40
0.3809523809523809
 40
0.3809523809523809
 40
0.3809523809523809
 40
0.3809523809523809
 40
0.4285714285714285
 40
0.4285714285714285
 40
0.4285714285714285
 40
0.4285714285714285
 40
0.4761904761904762
 40
0.4761904761904762
 40
0.4761904761904762
 40
0.4761904761904762
 40
0.5238095238095238
 40
0.5238095238095238
 40
0.5238095238095238
 40
0.5238095238095238
 40
0.5714285714285714
 40
0.5714285714285714
 40
0.5714285714285714
 40
0.5714285714285714
 40
0.6190476190476191
 40
0.6190476190476191
 40
0.6190476190476191
 40
0.6190476190476191
 40
0.6666666666666666
 40
0.6666666666666666
 40
0.6666666666666666
 40
0.6666666666666666
 40
0.7142857142857143
 40
0.7142857142857143
 40
0.7142857142857143
 40
0.7142857142857143
 40
0.7619047619047619
 40
0.7619047619047619
 40
0.7619047619047619
 40
0.7619047619047619
 40
0.8095238095238095
 40
0.8095238095238095
 40
0.8095238095238095
 40
0.8095238095238095
 40
0.8571428571428571
 40
0.8571428571428571
 40
0.8571428571428571
 40
0.8571428571428571
 40
0.9047619047619048
 40
0.9047619047619048
 40
0.9047619047619048
 40
0.9047619047619048
 40
1.0
 40
1.0
 40
1.0
 40
1.0
 10
-28.1961
 20
-14.0285
 30
0.0
 10
-28.1961
 20
-14.0285
 30
0.0
 10
-28.3577
 20
-14.0153
 30
0.0
 10
-28.3577
 20
-14.0153
 30
0.0
 10
-28.3577
 20
-14.0153
 30
0.0
 10
-28.3577
 20
-14.0153
 30
0.0
 10
-28.4312
 20
-13.8693
 30
0.0
 10
-28.4312
 20
-13.8693
 30
0.0
 10
-28.4312
 20
-13.8693
 30
0.0
 10
-28.4312
 20
-13.8693
 30
0.0
 10
-28.5197
 20
-13.5112
 30
0.0
 10
-28.5197
 20
-13.5112
 30
0.0
 10
-28.5197
 20
-13.5112
 30
0.0
 10
-28.5197
 20
-13.5112
 30
0.0
 10
-28.5344
 20
-13.1135
 30
0.0
 10
-28.5344
 20
-13.1135
 30
0.0
 10
-28.5344
 20
-13.1135
 30
0.0
 10
-28.5344
 20
-13.1135
 30
0.0
 10
-28.4903
 20
-10.6873
 30
0.0
 10
-28.4903
 20
-10.6873
 30
0.0
 10
-28.4903
 20
-10.6873
 30
0.0
 10
-28.4903
 20
-10.6873
 30
0.0
 10
-28.4459
 20
-10.4884
 30
0.0
 10
-28.4459
 20
-10.4884
 30
0.0
 10
-28.4459
 20
-10.4884
 30
0.0
 10
-28.4459
 20
-10.4884
 30
0.0
 10
-28.2674
 20
-10.2939
 30
0.0
 10
-28.2674
 20
-10.2939
 30
0.0
 10
-28.2674
 20
-10.2939
 30
0.0
 10
-28.2674
 20
-10.2939
 30
0.0
 10
-28.2188
 20
-10.3044
 30
0.0
 10
-28.2188
 20
-10.3044
 30
0.0
 10
-28.2188
 20
-10.3044
 30
0.0
 10
-28.2188
 20
-10.3044
 30
0.0
 10
-28.0803
 20
-10.3592
 30
0.0
 10
-28.0803
 20
-10.3592
 30
0.0
 10
-28.0803
 20
-10.3592
 30
0.0
 10
-28.0803
 20
-10.3592
 30
0.0
 10
-27.9699
 20
-10.4374
 30
0.0
 10
-27.9699
 20
-10.4374
 30
0.0
 10
-27.9699
 20
-10.4374
 30
0.0
 10
-27.9699
 20
-10.4374
 30
0.0
 10
-27.8925
 20
-10.5243
 30
0.0
 10
-27.8925
 20
-10.5243
 30
0.0
 10
-27.8925
 20
-10.5243
 30
0.0
 10
-27.8925
 20
-10.5243
 30
0.0
 10
-27.843
 20
-10.609
 30
0.0
 10
-27.843
 20
-10.609
 30
0.0
 10
-27.843
 20
-10.609
 30
0.0
 10
-27.843
 20
-10.609
 30
0.0
 10
-27.8136
 20
-10.6876
 30
0.0
 10
-27.8136
 20
-10.6876
 30
0.0
 10
-27.8136
 20
-10.6876
 30
0.0
 10
-27.8136
 20
-10.6876
 30
0.0
 10
-27.7956
 20
-10.7655
 30
0.0
 10
-27.7956
 20
-10.7655
 30
0.0
 10
-27.7956
 20
-10.7655
 30
0.0
 10
-27.7956
 20
-10.7655
 30
0.0
 10
-27.7842
 20
-10.8576
 30
0.0
 10
-27.7842
 20
-10.8576
 30
0.0
 10
-27.7842
 20
-10.8576
 30
0.0
 10
-27.7842
 20
-10.8576
 30
0.0
 10
-27.78
 20
-10.966
 30
0.0
 10
-27.78
 20
-10.966
 30
0.0
 10
-27.78
 20
-10.966
 30
0.0
 10
-27.78
 20
-10.966
 30
0.0
 10
-27.7695
 20
-13.4052
 30
0.0
 10
-27.7695
 20
-13.4052
 30
0.0
 10
-27.7695
 20
-13.4052
 30
0.0
 10
-27.7695
 20
-13.4052
 30
0.0
 10
-27.7842
 20
-13.7104
 30
0.0
 10
-27.7842
 20
-13.7104
 30
0.0
 10
-27.7842
 20
-13.7104
 30
0.0
 10
-27.7842
 20
-13.7104
 30
0.0
 10
-27.9312
 20
-13.9092
 30
0.0
 10
-27.9312
 20
-13.9092
 30
0.0
 10
-27.9312
 20
-13.9092
 30
0.0
 10
-27.9312
 20
-13.9092
 30
0.0
 10
-28.1961
 20
-14.0285
 30
0.0
 10
-28.1961
 20
-14.0285
 30
0.0
  0
SPLINE
  5
8E
330
1F
100
AcDbEntity
  8
VRSTVA_1
 62
   250
100
AcDbSpline
210
0.0
220
0.0
230
1.0
 70
    11
 71
     3
 72
    88
 73
    84
 74
     0
 42
0.0000000001
 43
0.0000000001
 40
0.0
 40
0.0
 40
0.0
 40
0.0
 40
0.0454545454545455
 40
0.0454545454545455
 40
0.0454545454545455
 40
0.0454545454545455
 40
0.0909090909090909
 40
0.0909090909090909
 40
0.0909090909090909
 40
0.0909090909090909
 40
0.1363636363636364
 40
0.1363636363636364
 40
0.1363636363636364
 40
0.1363636363636364
 40
0.1818181818181818
 40
0.1818181818181818
 40
0.1818181818181818
 40
0.1818181818181818
 40
0.2272727272727273
 40
0.2272727272727273
 40
0.2272727272727273
 40
0.2272727272727273
 40
0.2727272727272727
 40
0.2727272727272727
 40
0.2727272727272727
 40
0.2727272727272727
 40
0.3181818181818182
 40
0.3181818181818182
 40
0.3181818181818182
 40
0.3181818181818182
 40
0.3636363636363636
 40
0.3636363636363636
 40
0.3636363636363636
 40
0.3636363636363636
 40
0.4090909090909091
 40
0.4090909090909091
 40
0.4090909090909091
 40
0.4090909090909091
 40
0.4545454545454545
 40
0.4545454545454545
 40
0.4545454545454545
 40
0.4545454545454545
 40
0.5
 40
0.5
 40
0.5
 40
0.5
 40
0.5454545454545454
 40
0.5454545454545454
 40
0.5454545454545454
 40
0.5454545454545454
 40
0.5909090909090909
 40
0.5909090909090909
 40
0.5909090909090909
 40
0.5909090909090909
 40
0.6363636363636364
 40
0.6363636363636364
 40
0.6363636363636364
 40
0.6363636363636364
 40
0.6818181818181818
 40
0.6818181818181818
 40
0.6818181818181818
 40
0.6818181818181818
 40
0.7272727272727273
 40
0.7272727272727273
 40
0.7272727272727273
 40
0.7272727272727273
 40
0.7727272727272727
 40
0.7727272727272727
 40
0.7727272727272727
 40
0.7727272727272727
 40
0.8181818181818182
 40
0.8181818181818182
 40
0.8181818181818182
 40
0.8181818181818182
 40
0.8636363636363636
 40
0.8636363636363636
 40
0.8636363636363636
 40
0.8636363636363636
 40
0.9090909090909091
 40
0.9090909090909091
 40
0.9090909090909091
 40
0.9090909090909091
 40
1.0
 40
1.0
 40
1.0
 40
1.0
 10
-36.6056
 20
-10.9846
 30
0.0
 10
-36.6056
 20
-10.9846
 30
0.0
 10
-36.6725
 20
-10.7431
 30
0.0
 10
-36.6725
 20
-10.7431
 30
0.0
 10
-36.6725
 20
-10.7431
 30
0.0
 10
-36.6725
 20
-10.7431
 30
0.0
 10
-36.8599
 20
-10.4774
 30
0.0
 10
-36.8599
 20
-10.4774
 30
0.0
 10
-36.8599
 20
-10.4774
 30
0.0
 10
-36.8599
 20
-10.4774
 30
0.0
 10
-37.0741
 20
-10.3568
 30
0.0
 10
-37.0741
 20
-10.3568
 30
0.0
 10
-37.0741
 20
-10.3568
 30
0.0
 10
-37.0741
 20
-10.3568
 30
0.0
 10
-37.3473
 20
-10.3112
 30
0.0
 10
-37.3473
 20
-10.3112
 30
0.0
 10
-37.3473
 20
-10.3112
 30
0.0
 10
-37.3473
 20
-10.3112
 30
0.0
 10
-37.497
 20
-10.3279
 30
0.0
 10
-37.497
 20
-10.3279
 30
0.0
 10
-37.497
 20
-10.3279
 30
0.0
 10
-37.497
 20
-10.3279
 30
0.0
 10
-37.6433
 20
-10.3789
 30
0.0
 10
-37.6433
 20
-10.3789
 30
0.0
 10
-37.6433
 20
-10.3789
 30
0.0
 10
-37.6433
 20
-10.3789
 30
0.0
 10
-37.7747
 20
-10.4606
 30
0.0
 10
-37.7747
 20
-10.4606
 30
0.0
 10
-37.7747
 20
-10.4606
 30
0.0
 10
-37.7747
 20
-10.4606
 30
0.0
 10
-37.8833
 20
-10.5672
 30
0.0
 10
-37.8833
 20
-10.5672
 30
0.0
 10
-37.8833
 20
-10.5672
 30
0.0
 10
-37.8833
 20
-10.5672
 30
0.0
 10
-37.9667
 20
-10.6965
 30
0.0
 10
-37.9667
 20
-10.6965
 30
0.0
 10
-37.9667
 20
-10.6965
 30
0.0
 10
-37.9667
 20
-10.6965
 30
0.0
 10
-38.0195
 20
-10.8424
 30
0.0
 10
-38.0195
 20
-10.8424
 30
0.0
 10
-38.0195
 20
-10.8424
 30
0.0
 10
-38.0195
 20
-10.8424
 30
0.0
 10
-38.0369
 20
-10.993
 30
0.0
 10
-38.0369
 20
-10.993
 30
0.0
 10
-38.0369
 20
-10.993
 30
0.0
 10
-38.0369
 20
-10.993
 30
0.0
 10
-38.065
 20
-13.3747
 30
0.0
 10
-38.065
 20
-13.3747
 30
0.0
 10
-38.065
 20
-13.3747
 30
0.0
 10
-38.065
 20
-13.3747
 30
0.0
 10
-37.9715
 20
-13.6283
 30
0.0
 10
-37.9715
 20
-13.6283
 30
0.0
 10
-37.9715
 20
-13.6283
 30
0.0
 10
-37.9715
 20
-13.6283
 30
0.0
 10
-37.8242
 20
-13.8577
 30
0.0
 10
-37.8242
 20
-13.8577
 30
0.0
 10
-37.8242
 20
-13.8577
 30
0.0
 10
-37.8242
 20
-13.8577
 30
0.0
 10
-37.5696
 20
-14.0509
 30
0.0
 10
-37.5696
 20
-14.0509
 30
0.0
 10
-37.5696
 20
-14.0509
 30
0.0
 10
-37.5696
 20
-14.0509
 30
0.0
 10
-37.2483
 20
-14.0749
 30
0.0
 10
-37.2483
 20
-14.0749
 30
0.0
 10
-37.2483
 20
-14.0749
 30
0.0
 10
-37.2483
 20
-14.0749
 30
0.0
 10
-36.967
 20
-13.9904
 30
0.0
 10
-36.967
 20
-13.9904
 30
0.0
 10
-36.967
 20
-13.9904
 30
0.0
 10
-36.967
 20
-13.9904
 30
0.0
 10
-36.7258
 20
-13.7851
 30
0.0
 10
-36.7258
 20
-13.7851
 30
0.0
 10
-36.7258
 20
-13.7851
 30
0.0
 10
-36.7258
 20
-13.7851
 30
0.0
 10
-36.6323
 20
-13.6405
 30
0.0
 10
-36.6323
 20
-13.6405
 30
0.0
 10
-36.6323
 20
-13.6405
 30
0.0
 10
-36.6323
 20
-13.6405
 30
0.0
 10
-36.6323
 20
-13.423
 30
0.0
 10
-36.6323
 20
-13.423
 30
0.0
 10
-36.6323
 20
-13.423
 30
0.0
 10
-36.6323
 20
-13.423
 30
0.0
 10
-36.6056
 20
-10.9846
 30
0.0
 10
-36.6056
 20
-10.9846
 30
0.0
  0
SPLINE
  5
8F
330
1F
100
AcDbEntity
  8
VRSTVA_1
 62
   250
100
AcDbSpline
210
0.0
220
0.0
230
1.0
 70
    11
 71
     3
 72
    84
 73
    80
 74
     0
 42
0.0000000001
 43
0.0000000001
 40
0.0
 40
0.0
 40
0.0
 40
0.0
 40
0.0476190476190476
 40
0.0476190476190476
 40
0.0476190476190476
 40
0.0476190476190476
 40
0.0952380952380952
 40
0.0952380952380952
 40
0.0952380952380952
 40
0.0952380952380952
 40
0.1428571428571428
 40
0.1428571428571428
 40
0.1428571428571428
 40
0.1428571428571428
 40
0.1904761904761905
 40
0.1904761904761905
 40
0.1904761904761905
 40
0.1904761904761905
 40
0.2380952380952381
 40
0.2380952380952381
 40
0.2380952380952381
 40
0.2380952380952381
 40
0.2857142857142857
 40
0.2857142857142857
 40
0.2857142857142857
 40
0.2857142857142857
 40
0.3333333333333333
 40
0.3333333333333333
 40
0.3333333333333333
 40
0.3333333333333333
 40
0.3809523809523809
 40
0.3809523809523809
 40
0.3809523809523809
 40
0.3809523809523809
 40
0.4285714285714285
 40
0.4285714285714285
 40
0.4285714285714285
 40
0.4285714285714285
 40
0.4761904761904762
 40
0.4761904761904762
 40
0.4761904761904762
 40
0.4761904761904762
 40
0.5238095238095238
 40
0.5238095238095238
 40
0.5238095238095238
 40
0.5238095238095238
 40
0.5714285714285714
 40
0.5714285714285714
 40
0.5714285714285714
 40
0.5714285714285714
 40
0.6190476190476191
 40
0.6190476190476191
 40
0.6190476190476191
 40
0.6190476190476191
 40
0.6666666666666666
 40
0.6666666666666666
 40
0.6666666666666666
 40
0.6666666666666666
 40
0.7142857142857143
 40
0.7142857142857143
 40
0.7142857142857143
 40
0.7142857142857143
 40
0.7619047619047619
 40
0.7619047619047619
 40
0.7619047619047619
 40
0.7619047619047619
 40
0.8095238095238095
 40
0.8095238095238095
 40
0.8095238095238095
 40
0.8095238095238095
 40
0.8571428571428571
 40
0.8571428571428571
 40
0.8571428571428571
 40
0.8571428571428571
 40
0.9047619047619048
 40
0.9047619047619048
 40
0.9047619047619048
 40
0.9047619047619048
 40
1.0
 40
1.0
 40
1.0
 40
1.0
 10
-46.5963
 20
-10.3481
 30
0.0
 10
-46.5963
 20
-10.3481
 30
0.0
 10
-46.4347
 20
-10.3614
 30
0.0
 10
-46.4347
 20
-10.3614
 30
0.0
 10
-46.4347
 20
-10.3614
 30
0.0
 10
-46.4347
 20
-10.3614
 30
0.0
 10
-46.3612
 20
-10.5073
 30
0.0
 10
-46.3612
 20
-10.5073
 30
0.0
 10
-46.3612
 20
-10.5073
 30
0.0
 10
-46.3612
 20
-10.5073
 30
0.0
 10
-46.2727
 20
-10.8654
 30
0.0
 10
-46.2727
 20
-10.8654
 30
0.0
 10
-46.2727
 20
-10.8654
 30
0.0
 10
-46.2727
 20
-10.8654
 30
0.0
 10
-46.258
 20
-11.2631
 30
0.0
 10
-46.258
 20
-11.2631
 30
0.0
 10
-46.258
 20
-11.2631
 30
0.0
 10
-46.258
 20
-11.2631
 30
0.0
 10
-46.3021
 20
-13.6893
 30
0.0
 10
-46.3021
 20
-13.6893
 30
0.0
 10
-46.3021
 20
-13.6893
 30
0.0
 10
-46.3021
 20
-13.6893
 30
0.0
 10
-46.3465
 20
-13.8882
 30
0.0
 10
-46.3465
 20
-13.8882
 30
0.0
 10
-46.3465
 20
-13.8882
 30
0.0
 10
-46.3465
 20
-13.8882
 30
0.0
 10
-46.525
 20
-14.0827
 30
0.0
 10
-46.525
 20
-14.0827
 30
0.0
 10
-46.525
 20
-14.0827
 30
0.0
 10
-46.525
 20
-14.0827
 30
0.0
 10
-46.5735
 20
-14.0722
 30
0.0
 10
-46.5735
 20
-14.0722
 30
0.0
 10
-46.5735
 20
-14.0722
 30
0.0
 10
-46.5735
 20
-14.0722
 30
0.0
 10
-46.7121
 20
-14.0174
 30
0.0
 10
-46.7121
 20
-14.0174
 30
0.0
 10
-46.7121
 20
-14.0174
 30
0.0
 10
-46.7121
 20
-14.0174
 30
0.0
 10
-46.8225
 20
-13.9392
 30
0.0
 10
-46.8225
 20
-13.9392
 30
0.0
 10
-46.8225
 20
-13.9392
 30
0.0
 10
-46.8225
 20
-13.9392
 30
0.0
 10
-46.8999
 20
-13.8523
 30
0.0
 10
-46.8999
 20
-13.8523
 30
0.0
 10
-46.8999
 20
-13.8523
 30
0.0
 10
-46.8999
 20
-13.8523
 30
0.0
 10
-46.9494
 20
-13.7676
 30
0.0
 10
-46.9494
 20
-13.7676
 30
0.0
 10
-46.9494
 20
-13.7676
 30
0.0
 10
-46.9494
 20
-13.7676
 30
0.0
 10
-46.9788
 20
-13.689
 30
0.0
 10
-46.9788
 20
-13.689
 30
0.0
 10
-46.9788
 20
-13.689
 30
0.0
 10
-46.9788
 20
-13.689
 30
0.0
 10
-46.9968
 20
-13.6111
 30
0.0
 10
-46.9968
 20
-13.6111
 30
0.0
 10
-46.9968
 20
-13.6111
 30
0.0
 10
-46.9968
 20
-13.6111
 30
0.0
 10
-47.0082
 20
-13.5191
 30
0.0
 10
-47.0082
 20
-13.5191
 30
0.0
 10
-47.0082
 20
-13.5191
 30
0.0
 10
-47.0082
 20
-13.5191
 30
0.0
 10
-47.0123
 20
-13.4106
 30
0.0
 10
-47.0123
 20
-13.4106
 30
0.0
 10
-47.0123
 20
-13.4106
 30
0.0
 10
-47.0123
 20
-13.4106
 30
0.0
 10
-47.0228
 20
-10.9714
 30
0.0
 10
-47.0228
 20
-10.9714
 30
0.0
 10
-47.0228
 20
-10.9714
 30
0.0
 10
-47.0228
 20
-10.9714
 30
0.0
 10
-47.0082
 20
-10.6662
 30
0.0
 10
-47.0082
 20
-10.6662
 30
0.0
 10
-47.0082
 20
-10.6662
 30
0.0
 10
-47.0082
 20
-10.6662
 30
0.0
 10
-46.8612
 20
-10.4674
 30
0.0
 10
-46.8612
 20
-10.4674
 30
0.0
 10
-46.8612
 20
-10.4674
 30
0.0
 10
-46.8612
 20
-10.4674
 30
0.0
 10
-46.5963
 20
-10.3481
 30
0.0
 10
-46.5963
 20
-10.3481
 30
0.0
  0
SPLINE
  5
90
330
1F
100
AcDbEntity
  8
VRSTVA_1
 62
   250
100
AcDbSpline
210
0.0
220
0.0
230
1.0
 70
     8
 71
     3
 72
    24
 73
    20
 74
     0
 42
0.0000000001
 43
0.0000000001
 40
0.0
 40
0.0
 40
0.0
 40
0.0
 40
0.1666666666666667
 40
0.1666666666666667
 40
0.1666666666666667
 40
0.1666666666666667
 40
0.3333333333333333
 40
0.3333333333333333
 40
0.3333333333333333
 40
0.3333333333333333
 40
0.5
 40
0.5
 40
0.5
 40
0.5
 40
0.6666666666666666
 40
0.6666666666666666
 40
0.6666666666666666
 40
0.6666666666666666
 40
1.0
 40
1.0
 40
1.0
 40
1.0
 10
-46.5262
 20
-10.3422
 30
0.0
 10
-46.5262
 20
-9.9655
 30
0.0
 10
-46.1869
 20
-9.6604
 30
0.0
 10
-45.7682
 20
-9.6604
 30
0.0
 10
-45.7682
 20
-9.6604
 30
0.0
 10
-45.7682
 20
-9.6604
 30
0.0
 10
-29.0587
 20
-9.6666
 30
0.0
 10
-29.0587
 20
-9.6666
 30
0.0
 10
-29.0587
 20
-9.6666
 30
0.0
 10
-29.0587
 20
-9.6666
 30
0.0
 10
-28.7119
 20
-9.7642
 30
0.0
 10
-28.7119
 20
-9.7642
 30
0.0
 10
-28.7119
 20
-9.7642
 30
0.0
 10
-28.7119
 20
-9.7642
 30
0.0
 10
-28.5386
 20
-9.8619
 30
0.0
 10
-28.5386
 20
-9.8619
 30
0.0
 10
-28.5386
 20
-9.8619
 30
0.0
 10
-28.5386
 20
-9.8619
 30
0.0
 10
-28.3436
 20
-10.3114
 30
0.0
 10
-28.3436
 20
-10.3114
 30
0.0
  0
SPLINE
  5
91
330
1F
100
AcDbEntity
  8
VRSTVA_1
 62
   250
100
AcDbSpline
210
0.0
220
0.0
230
1.0
 70
     8
 71
     3
 72
    28
 73
    24
 74
     0
 42
0.0000000001
 43
0.0000000001
 40
0.0
 40
0.0
 40
0.0
 40
0.0
 40
0.1428571428571428
 40
0.1428571428571428
 40
0.1428571428571428
 40
0.1428571428571428
 40
0.2857142857142857
 40
0.2857142857142857
 40
0.2857142857142857
 40
0.2857142857142857
 40
0.4285714285714285
 40
0.4285714285714285
 40
0.4285714285714285
 40
0.4285714285714285
 40
0.5714285714285714
 40
0.5714285714285714
 40
0.5714285714285714
 40
0.5714285714285714
 40
0.7142857142857143
 40
0.7142857142857143
 40
0.7142857142857143
 40
0.7142857142857143
 40
1.0
 40
1.0
 40
1.0
 40
1.0
 10
-3.2984
 20
-19.7528
 30
0.0
 10
-2.9217
 20
-19.7528
 30
0.0
 10
-2.6163
 20
-19.4135
 30
0.0
 10
-2.6163
 20
-18.9948
 30
0.0
 10
-2.6163
 20
-18.9948
 30
0.0
 10
-2.6163
 20
-18.9948
 30
0.0
 10
-2.6087
 20
-2.2583
 30
0.0
 10
-2.6087
 20
-2.2583
 30
0.0
 10
-2.6087
 20
-2.2583
 30
0.0
 10
-2.6087
 20
-2.2583
 30
0.0
 10
-2.6872
 20
-1.9664
 30
0.0
 10
-2.6872
 20
-1.9664
 30
0.0
 10
-2.6872
 20
-1.9664
 30
0.0
 10
-2.6872
 20
-1.9664
 30
0.0
 10
-2.841
 20
-1.7859
 30
0.0
 10
-2.841
 20
-1.7859
 30
0.0
 10
-2.841
 20
-1.7859
 30
0.0
 10
-2.841
 20
-1.7859
 30
0.0
 10
-3.0582
 20
-1.6053
 30
0.0
 10
-3.0582
 20
-1.6053
 30
0.0
 10
-3.0582
 20
-1.6053
 30
0.0
 10
-3.0582
 20
-1.6053
 30
0.0
 10
-3.2843
 20
-1.515
 30
0.0
 10
-3.2843
 20
-1.515
 30
0.0
  0
SPLINE
  5
92
330
1F
100
AcDbEntity
  8
VRSTVA_1
 62
   250
100
AcDbSpline
210
0.0
220
0.0
230
1.0
 70
    11
 71
     3
 72
    88
 73
    84
 74
     0
 42
0.0000000001
 43
0.0000000001
 40
0.0
 40
0.0
 40
0.0
 40
0.0
 40
0.0454545454545455
 40
0.0454545454545455
 40
0.0454545454545455
 40
0.0454545454545455
 40
0.0909090909090909
 40
0.0909090909090909
 40
0.0909090909090909
 40
0.0909090909090909
 40
0.1363636363636364
 40
0.1363636363636364
 40
0.1363636363636364
 40
0.1363636363636364
 40
0.1818181818181818
 40
0.1818181818181818
 40
0.1818181818181818
 40
0.1818181818181818
 40
0.2272727272727273
 40
0.2272727272727273
 40
0.2272727272727273
 40
0.2272727272727273
 40
0.2727272727272727
 40
0.2727272727272727
 40
0.2727272727272727
 40
0.2727272727272727
 40
0.3181818181818182
 40
0.3181818181818182
 40
0.3181818181818182
 40
0.3181818181818182
 40
0.3636363636363636
 40
0.3636363636363636
 40
0.3636363636363636
 40
0.3636363636363636
 40
0.4090909090909091
 40
0.4090909090909091
 40
0.4090909090909091
 40
0.4090909090909091
 40
0.4545454545454545
 40
0.4545454545454545
 40
0.4545454545454545
 40
0.4545454545454545
 40
0.5
 40
0.5
 40
0.5
 40
0.5
 40
0.5454545454545454
 40
0.5454545454545454
 40
0.5454545454545454
 40
0.5454545454545454
 40
0.5909090909090909
 40
0.5909090909090909
 40
0.5909090909090909
 40
0.5909090909090909
 40
0.6363636363636364
 40
0.6363636363636364
 40
0.6363636363636364
 40
0.6363636363636364
 40
0.6818181818181818
 40
0.6818181818181818
 40
0.6818181818181818
 40
0.6818181818181818
 40
0.7272727272727273
 40
0.7272727272727273
 40
0.7272727272727273
 40
0.7272727272727273
 40
0.7727272727272727
 40
0.7727272727272727
 40
0.7727272727272727
 40
0.7727272727272727
 40
0.8181818181818182
 40
0.8181818181818182
 40
0.8181818181818182
 40
0.8181818181818182
 40
0.8636363636363636
 40
0.8636363636363636
 40
0.8636363636363636
 40
0.8636363636363636
 40
0.9090909090909091
 40
0.9090909090909091
 40
0.9090909090909091
 40
0.9090909090909091
 40
1.0
 40
1.0
 40
1.0
 40
1.0
 10
-6.3441
 20
-16.1734
 30
0.0
 10
-6.3441
 20
-16.1734
 30
0.0
 10
-6.5856
 20
-16.2402
 30
0.0
 10
-6.5856
 20
-16.2402
 30
0.0
 10
-6.5856
 20
-16.2402
 30
0.0
 10
-6.5856
 20
-16.2402
 30
0.0
 10
-6.8514
 20
-16.4277
 30
0.0
 10
-6.8514
 20
-16.4277
 30
0.0
 10
-6.8514
 20
-16.4277
 30
0.0
 10
-6.8514
 20
-16.4277
 30
0.0
 10
-6.972
 20
-16.6419
 30
0.0
 10
-6.972
 20
-16.6419
 30
0.0
 10
-6.972
 20
-16.6419
 30
0.0
 10
-6.972
 20
-16.6419
 30
0.0
 10
-7.0176
 20
-16.9151
 30
0.0
 10
-7.0176
 20
-16.9151
 30
0.0
 10
-7.0176
 20
-16.9151
 30
0.0
 10
-7.0176
 20
-16.9151
 30
0.0
 10
-7.0008
 20
-17.0648
 30
0.0
 10
-7.0008
 20
-17.0648
 30
0.0
 10
-7.0008
 20
-17.0648
 30
0.0
 10
-7.0008
 20
-17.0648
 30
0.0
 10
-6.9499
 20
-17.2111
 30
0.0
 10
-6.9499
 20
-17.2111
 30
0.0
 10
-6.9499
 20
-17.2111
 30
0.0
 10
-6.9499
 20
-17.2111
 30
0.0
 10
-6.8681
 20
-17.3425
 30
0.0
 10
-6.8681
 20
-17.3425
 30
0.0
 10
-6.8681
 20
-17.3425
 30
0.0
 10
-6.8681
 20
-17.3425
 30
0.0
 10
-6.7615
 20
-17.4511
 30
0.0
 10
-6.7615
 20
-17.4511
 30
0.0
 10
-6.7615
 20
-17.4511
 30
0.0
 10
-6.7615
 20
-17.4511
 30
0.0
 10
-6.6323
 20
-17.5345
 30
0.0
 10
-6.6323
 20
-17.5345
 30
0.0
 10
-6.6323
 20
-17.5345
 30
0.0
 10
-6.6323
 20
-17.5345
 30
0.0
 10
-6.4863
 20
-17.5872
 30
0.0
 10
-6.4863
 20
-17.5872
 30
0.0
 10
-6.4863
 20
-17.5872
 30
0.0
 10
-6.4863
 20
-17.5872
 30
0.0
 10
-6.3357
 20
-17.6046
 30
0.0
 10
-6.3357
 20
-17.6046
 30
0.0
 10
-6.3357
 20
-17.6046
 30
0.0
 10
-6.3357
 20
-17.6046
 30
0.0
 10
-3.954
 20
-17.6328
 30
0.0
 10
-3.954
 20
-17.6328
 30
0.0
 10
-3.954
 20
-17.6328
 30
0.0
 10
-3.954
 20
-17.6328
 30
0.0
 10
-3.7004
 20
-17.5393
 30
0.0
 10
-3.7004
 20
-17.5393
 30
0.0
 10
-3.7004
 20
-17.5393
 30
0.0
 10
-3.7004
 20
-17.5393
 30
0.0
 10
-3.4711
 20
-17.392
 30
0.0
 10
-3.4711
 20
-17.392
 30
0.0
 10
-3.4711
 20
-17.392
 30
0.0
 10
-3.4711
 20
-17.392
 30
0.0
 10
-3.2779
 20
-17.1373
 30
0.0
 10
-3.2779
 20
-17.1373
 30
0.0
 10
-3.2779
 20
-17.1373
 30
0.0
 10
-3.2779
 20
-17.1373
 30
0.0
 10
-3.2539
 20
-16.8161
 30
0.0
 10
-3.2539
 20
-16.8161
 30
0.0
 10
-3.2539
 20
-16.8161
 30
0.0
 10
-3.2539
 20
-16.8161
 30
0.0
 10
-3.3383
 20
-16.5348
 30
0.0
 10
-3.3383
 20
-16.5348
 30
0.0
 10
-3.3383
 20
-16.5348
 30
0.0
 10
-3.3383
 20
-16.5348
 30
0.0
 10
-3.5436
 20
-16.2936
 30
0.0
 10
-3.5436
 20
-16.2936
 30
0.0
 10
-3.5436
 20
-16.2936
 30
0.0
 10
-3.5436
 20
-16.2936
 30
0.0
 10
-3.6883
 20
-16.2001
 30
0.0
 10
-3.6883
 20
-16.2001
 30
0.0
 10
-3.6883
 20
-16.2001
 30
0.0
 10
-3.6883
 20
-16.2001
 30
0.0
 10
-3.9057
 20
-16.2001
 30
0.0
 10
-3.9057
 20
-16.2001
 30
0.0
 10
-3.9057
 20
-16.2001
 30
0.0
 10
-3.9057
 20
-16.2001
 30
0.0
 10
-6.3441
 20
-16.1734
 30
0.0
 10
-6.3441
 20
-16.1734
 30
0.0
  0
SPLINE
  5
93
330
1F
100
AcDbEntity
  8
VRSTVA_1
 62
   250
100
AcDbSpline
210
0.0
220
0.0
230
1.0
 70
    11
 71
     3
 72
    88
 73
    84
 74
     0
 42
0.0000000001
 43
0.0000000001
 40
0.0
 40
0.0
 40
0.0
 40
0.0
 40
0.0454545454545455
 40
0.0454545454545455
 40
0.0454545454545455
 40
0.0454545454545455
 40
0.0909090909090909
 40
0.0909090909090909
 40
0.0909090909090909
 40
0.0909090909090909
 40
0.1363636363636364
 40
0.1363636363636364
 40
0.1363636363636364
 40
0.1363636363636364
 40
0.1818181818181818
 40
0.1818181818181818
 40
0.1818181818181818
 40
0.1818181818181818
 40
0.2272727272727273
 40
0.2272727272727273
 40
0.2272727272727273
 40
0.2272727272727273
 40
0.2727272727272727
 40
0.2727272727272727
 40
0.2727272727272727
 40
0.2727272727272727
 40
0.3181818181818182
 40
0.3181818181818182
 40
0.3181818181818182
 40
0.3181818181818182
 40
0.3636363636363636
 40
0.3636363636363636
 40
0.3636363636363636
 40
0.3636363636363636
 40
0.4090909090909091
 40
0.4090909090909091
 40
0.4090909090909091
 40
0.4090909090909091
 40
0.4545454545454545
 40
0.4545454545454545
 40
0.4545454545454545
 40
0.4545454545454545
 40
0.5
 40
0.5
 40
0.5
 40
0.5
 40
0.5454545454545454
 40
0.5454545454545454
 40
0.5454545454545454
 40
0.5454545454545454
 40
0.5909090909090909
 40
0.5909090909090909
 40
0.5909090909090909
 40
0.5909090909090909
 40
0.6363636363636364
 40
0.6363636363636364
 40
0.6363636363636364
 40
0.6363636363636364
 40
0.6818181818181818
 40
0.6818181818181818
 40
0.6818181818181818
 40
0.6818181818181818
 40
0.7272727272727273
 40
0.7272727272727273
 40
0.7272727272727273
 40
0.7272727272727273
 40
0.7727272727272727
 40
0.7727272727272727
 40
0.7727272727272727
 40
0.7727272727272727
 40
0.8181818181818182
 40
0.8181818181818182
 40
0.8181818181818182
 40
0.8181818181818182
 40
0.8636363636363636
 40
0.8636363636363636
 40
0.8636363636363636
 40
0.8636363636363636
 40
0.9090909090909091
 40
0.9090909090909091
 40
0.9090909090909091
 40
0.9090909090909091
 40
1.0
 40
1.0
 40
1.0
 40
1.0
 10
-6.3751
 20
-3.3908
 30
0.0
 10
-6.3751
 20
-3.3908
 30
0.0
 10
-6.6166
 20
-3.4577
 30
0.0
 10
-6.6166
 20
-3.4577
 30
0.0
 10
-6.6166
 20
-3.4577
 30
0.0
 10
-6.6166
 20
-3.4577
 30
0.0
 10
-6.8824
 20
-3.6452
 30
0.0
 10
-6.8824
 20
-3.6452
 30
0.0
 10
-6.8824
 20
-3.6452
 30
0.0
 10
-6.8824
 20
-3.6452
 30
0.0
 10
-7.003
 20
-3.8593
 30
0.0
 10
-7.003
 20
-3.8593
 30
0.0
 10
-7.003
 20
-3.8593
 30
0.0
 10
-7.003
 20
-3.8593
 30
0.0
 10
-7.0486
 20
-4.1325
 30
0.0
 10
-7.0486
 20
-4.1325
 30
0.0
 10
-7.0486
 20
-4.1325
 30
0.0
 10
-7.0486
 20
-4.1325
 30
0.0
 10
-7.0319
 20
-4.2822
 30
0.0
 10
-7.0319
 20
-4.2822
 30
0.0
 10
-7.0319
 20
-4.2822
 30
0.0
 10
-7.0319
 20
-4.2822
 30
0.0
 10
-6.9809
 20
-4.4286
 30
0.0
 10
-6.9809
 20
-4.4286
 30
0.0
 10
-6.9809
 20
-4.4286
 30
0.0
 10
-6.9809
 20
-4.4286
 30
0.0
 10
-6.8991
 20
-4.56
 30
0.0
 10
-6.8991
 20
-4.56
 30
0.0
 10
-6.8991
 20
-4.56
 30
0.0
 10
-6.8991
 20
-4.56
 30
0.0
 10
-6.7925
 20
-4.6685
 30
0.0
 10
-6.7925
 20
-4.6685
 30
0.0
 10
-6.7925
 20
-4.6685
 30
0.0
 10
-6.7925
 20
-4.6685
 30
0.0
 10
-6.6633
 20
-4.7519
 30
0.0
 10
-6.6633
 20
-4.7519
 30
0.0
 10
-6.6633
 20
-4.7519
 30
0.0
 10
-6.6633
 20
-4.7519
 30
0.0
 10
-6.5173
 20
-4.8047
 30
0.0
 10
-6.5173
 20
-4.8047
 30
0.0
 10
-6.5173
 20
-4.8047
 30
0.0
 10
-6.5173
 20
-4.8047
 30
0.0
 10
-6.3668
 20
-4.8221
 30
0.0
 10
-6.3668
 20
-4.8221
 30
0.0
 10
-6.3668
 20
-4.8221
 30
0.0
 10
-6.3668
 20
-4.8221
 30
0.0
 10
-3.9851
 20
-4.8503
 30
0.0
 10
-3.9851
 20
-4.8503
 30
0.0
 10
-3.9851
 20
-4.8503
 30
0.0
 10
-3.9851
 20
-4.8503
 30
0.0
 10
-3.7314
 20
-4.7567
 30
0.0
 10
-3.7314
 20
-4.7567
 30
0.0
 10
-3.7314
 20
-4.7567
 30
0.0
 10
-3.7314
 20
-4.7567
 30
0.0
 10
-3.5021
 20
-4.6094
 30
0.0
 10
-3.5021
 20
-4.6094
 30
0.0
 10
-3.5021
 20
-4.6094
 30
0.0
 10
-3.5021
 20
-4.6094
 30
0.0
 10
-3.3089
 20
-4.3548
 30
0.0
 10
-3.3089
 20
-4.3548
 30
0.0
 10
-3.3089
 20
-4.3548
 30
0.0
 10
-3.3089
 20
-4.3548
 30
0.0
 10
-3.2849
 20
-4.0336
 30
0.0
 10
-3.2849
 20
-4.0336
 30
0.0
 10
-3.2849
 20
-4.0336
 30
0.0
 10
-3.2849
 20
-4.0336
 30
0.0
 10
-3.3693
 20
-3.7522
 30
0.0
 10
-3.3693
 20
-3.7522
 30
0.0
 10
-3.3693
 20
-3.7522
 30
0.0
 10
-3.3693
 20
-3.7522
 30
0.0
 10
-3.5747
 20
-3.5111
 30
0.0
 10
-3.5747
 20
-3.5111
 30
0.0
 10
-3.5747
 20
-3.5111
 30
0.0
 10
-3.5747
 20
-3.5111
 30
0.0
 10
-3.7193
 20
-3.4175
 30
0.0
 10
-3.7193
 20
-3.4175
 30
0.0
 10
-3.7193
 20
-3.4175
 30
0.0
 10
-3.7193
 20
-3.4175
 30
0.0
 10
-3.9368
 20
-3.4175
 30
0.0
 10
-3.9368
 20
-3.4175
 30
0.0
 10
-3.9368
 20
-3.4175
 30
0.0
 10
-3.9368
 20
-3.4175
 30
0.0
 10
-6.3751
 20
-3.3908
 30
0.0
 10
-6.3751
 20
-3.3908
 30
0.0
  0
SPLINE
  5
94
330
1F
100
AcDbEntity
  8
VRSTVA_1
 62
   250
100
AcDbSpline
210
0.0
220
0.0
230
1.0
 70
    11
 71
     3
 72
    84
 73
    80
 74
     0
 42
0.0000000001
 43
0.0000000001
 40
0.0
 40
0.0
 40
0.0
 40
0.0
 40
0.0476190476190476
 40
0.0476190476190476
 40
0.0476190476190476
 40
0.0476190476190476
 40
0.0952380952380952
 40
0.0952380952380952
 40
0.0952380952380952
 40
0.0952380952380952
 40
0.1428571428571428
 40
0.1428571428571428
 40
0.1428571428571428
 40
0.1428571428571428
 40
0.1904761904761905
 40
0.1904761904761905
 40
0.1904761904761905
 40
0.1904761904761905
 40
0.2380952380952381
 40
0.2380952380952381
 40
0.2380952380952381
 40
0.2380952380952381
 40
0.2857142857142857
 40
0.2857142857142857
 40
0.2857142857142857
 40
0.2857142857142857
 40
0.3333333333333333
 40
0.3333333333333333
 40
0.3333333333333333
 40
0.3333333333333333
 40
0.3809523809523809
 40
0.3809523809523809
 40
0.3809523809523809
 40
0.3809523809523809
 40
0.4285714285714285
 40
0.4285714285714285
 40
0.4285714285714285
 40
0.4285714285714285
 40
0.4761904761904762
 40
0.4761904761904762
 40
0.4761904761904762
 40
0.4761904761904762
 40
0.5238095238095238
 40
0.5238095238095238
 40
0.5238095238095238
 40
0.5238095238095238
 40
0.5714285714285714
 40
0.5714285714285714
 40
0.5714285714285714
 40
0.5714285714285714
 40
0.6190476190476191
 40
0.6190476190476191
 40
0.6190476190476191
 40
0.6190476190476191
 40
0.6666666666666666
 40
0.6666666666666666
 40
0.6666666666666666
 40
0.6666666666666666
 40
0.7142857142857143
 40
0.7142857142857143
 40
0.7142857142857143
 40
0.7142857142857143
 40
0.7619047619047619
 40
0.7619047619047619
 40
0.7619047619047619
 40
0.7619047619047619
 40
0.8095238095238095
 40
0.8095238095238095
 40
0.8095238095238095
 40
0.8095238095238095
 40
0.8571428571428571
 40
0.8571428571428571
 40
0.8571428571428571
 40
0.8571428571428571
 40
0.9047619047619048
 40
0.9047619047619048
 40
0.9047619047619048
 40
0.9047619047619048
 40
1.0
 40
1.0
 40
1.0
 40
1.0
 10
-3.3623
 20
-1.4227
 30
0.0
 10
-3.3623
 20
-1.4227
 30
0.0
 10
-3.3755
 20
-1.5843
 30
0.0
 10
-3.3755
 20
-1.5843
 30
0.0
 10
-3.3755
 20
-1.5843
 30
0.0
 10
-3.3755
 20
-1.5843
 30
0.0
 10
-3.5215
 20
-1.6578
 30
0.0
 10
-3.5215
 20
-1.6578
 30
0.0
 10
-3.5215
 20
-1.6578
 30
0.0
 10
-3.5215
 20
-1.6578
 30
0.0
 10
-3.8796
 20
-1.7463
 30
0.0
 10
-3.8796
 20
-1.7463
 30
0.0
 10
-3.8796
 20
-1.7463
 30
0.0
 10
-3.8796
 20
-1.7463
 30
0.0
 10
-4.2773
 20
-1.761
 30
0.0
 10
-4.2773
 20
-1.761
 30
0.0
 10
-4.2773
 20
-1.761
 30
0.0
 10
-4.2773
 20
-1.761
 30
0.0
 10
-6.7035
 20
-1.7169
 30
0.0
 10
-6.7035
 20
-1.7169
 30
0.0
 10
-6.7035
 20
-1.7169
 30
0.0
 10
-6.7035
 20
-1.7169
 30
0.0
 10
-6.9024
 20
-1.6725
 30
0.0
 10
-6.9024
 20
-1.6725
 30
0.0
 10
-6.9024
 20
-1.6725
 30
0.0
 10
-6.9024
 20
-1.6725
 30
0.0
 10
-7.0969
 20
-1.494
 30
0.0
 10
-7.0969
 20
-1.494
 30
0.0
 10
-7.0969
 20
-1.494
 30
0.0
 10
-7.0969
 20
-1.494
 30
0.0
 10
-7.0864
 20
-1.4454
 30
0.0
 10
-7.0864
 20
-1.4454
 30
0.0
 10
-7.0864
 20
-1.4454
 30
0.0
 10
-7.0864
 20
-1.4454
 30
0.0
 10
-7.0316
 20
-1.3069
 30
0.0
 10
-7.0316
 20
-1.3069
 30
0.0
 10
-7.0316
 20
-1.3069
 30
0.0
 10
-7.0316
 20
-1.3069
 30
0.0
 10
-6.9534
 20
-1.1965
 30
0.0
 10
-6.9534
 20
-1.1965
 30
0.0
 10
-6.9534
 20
-1.1965
 30
0.0
 10
-6.9534
 20
-1.1965
 30
0.0
 10
-6.8665
 20
-1.1191
 30
0.0
 10
-6.8665
 20
-1.1191
 30
0.0
 10
-6.8665
 20
-1.1191
 30
0.0
 10
-6.8665
 20
-1.1191
 30
0.0
 10
-6.7818
 20
-1.0696
 30
0.0
 10
-6.7818
 20
-1.0696
 30
0.0
 10
-6.7818
 20
-1.0696
 30
0.0
 10
-6.7818
 20
-1.0696
 30
0.0
 10
-6.7032
 20
-1.0402
 30
0.0
 10
-6.7032
 20
-1.0402
 30
0.0
 10
-6.7032
 20
-1.0402
 30
0.0
 10
-6.7032
 20
-1.0402
 30
0.0
 10
-6.6253
 20
-1.0222
 30
0.0
 10
-6.6253
 20
-1.0222
 30
0.0
 10
-6.6253
 20
-1.0222
 30
0.0
 10
-6.6253
 20
-1.0222
 30
0.0
 10
-6.5332
 20
-1.0108
 30
0.0
 10
-6.5332
 20
-1.0108
 30
0.0
 10
-6.5332
 20
-1.0108
 30
0.0
 10
-6.5332
 20
-1.0108
 30
0.0
 10
-6.4248
 20
-1.0066
 30
0.0
 10
-6.4248
 20
-1.0066
 30
0.0
 10
-6.4248
 20
-1.0066
 30
0.0
 10
-6.4248
 20
-1.0066
 30
0.0
 10
-3.9856
 20
-0.9961
 30
0.0
 10
-3.9856
 20
-0.9961
 30
0.0
 10
-3.9856
 20
-0.9961
 30
0.0
 10
-3.9856
 20
-0.9961
 30
0.0
 10
-3.6804
 20
-1.0108
 30
0.0
 10
-3.6804
 20
-1.0108
 30
0.0
 10
-3.6804
 20
-1.0108
 30
0.0
 10
-3.6804
 20
-1.0108
 30
0.0
 10
-3.4816
 20
-1.1578
 30
0.0
 10
-3.4816
 20
-1.1578
 30
0.0
 10
-3.4816
 20
-1.1578
 30
0.0
 10
-3.4816
 20
-1.1578
 30
0.0
 10
-3.3623
 20
-1.4227
 30
0.0
 10
-3.3623
 20
-1.4227
 30
0.0
  0
SPLINE
  5
95
330
1F
100
AcDbEntity
  8
VRSTVA_1
 62
   250
100
AcDbSpline
210
0.0
220
0.0
230
1.0
 70
    11
 71
     3
 72
    88
 73
    84
 74
     0
 42
0.0000000001
 43
0.0000000001
 40
0.0
 40
0.0
 40
0.0
 40
0.0
 40
0.0454545454545455
 40
0.0454545454545455
 40
0.0454545454545455
 40
0.0454545454545455
 40
0.0909090909090909
 40
0.0909090909090909
 40
0.0909090909090909
 40
0.0909090909090909
 40
0.1363636363636364
 40
0.1363636363636364
 40
0.1363636363636364
 40
0.1363636363636364
 40
0.1818181818181818
 40
0.1818181818181818
 40
0.1818181818181818
 40
0.1818181818181818
 40
0.2272727272727273
 40
0.2272727272727273
 40
0.2272727272727273
 40
0.2272727272727273
 40
0.2727272727272727
 40
0.2727272727272727
 40
0.2727272727272727
 40
0.2727272727272727
 40
0.3181818181818182
 40
0.3181818181818182
 40
0.3181818181818182
 40
0.3181818181818182
 40
0.3636363636363636
 40
0.3636363636363636
 40
0.3636363636363636
 40
0.3636363636363636
 40
0.4090909090909091
 40
0.4090909090909091
 40
0.4090909090909091
 40
0.4090909090909091
 40
0.4545454545454545
 40
0.4545454545454545
 40
0.4545454545454545
 40
0.4545454545454545
 40
0.5
 40
0.5
 40
0.5
 40
0.5
 40
0.5454545454545454
 40
0.5454545454545454
 40
0.5454545454545454
 40
0.5454545454545454
 40
0.5909090909090909
 40
0.5909090909090909
 40
0.5909090909090909
 40
0.5909090909090909
 40
0.6363636363636364
 40
0.6363636363636364
 40
0.6363636363636364
 40
0.6363636363636364
 40
0.6818181818181818
 40
0.6818181818181818
 40
0.6818181818181818
 40
0.6818181818181818
 40
0.7272727272727273
 40
0.7272727272727273
 40
0.7272727272727273
 40
0.7272727272727273
 40
0.7727272727272727
 40
0.7727272727272727
 40
0.7727272727272727
 40
0.7727272727272727
 40
0.8181818181818182
 40
0.8181818181818182
 40
0.8181818181818182
 40
0.8181818181818182
 40
0.8636363636363636
 40
0.8636363636363636
 40
0.8636363636363636
 40
0.8636363636363636
 40
0.9090909090909091
 40
0.9090909090909091
 40
0.9090909090909091
 40
0.9090909090909091
 40
1.0
 40
1.0
 40
1.0
 40
1.0
 10
-6.4062
 20
-9.8322
 30
0.0
 10
-6.4062
 20
-9.8322
 30
0.0
 10
-6.6477
 20
-9.8991
 30
0.0
 10
-6.6477
 20
-9.8991
 30
0.0
 10
-6.6477
 20
-9.8991
 30
0.0
 10
-6.6477
 20
-9.8991
 30
0.0
 10
-6.9134
 20
-10.0865
 30
0.0
 10
-6.9134
 20
-10.0865
 30
0.0
 10
-6.9134
 20
-10.0865
 30
0.0
 10
-6.9134
 20
-10.0865
 30
0.0
 10
-7.034
 20
-10.3007
 30
0.0
 10
-7.034
 20
-10.3007
 30
0.0
 10
-7.034
 20
-10.3007
 30
0.0
 10
-7.034
 20
-10.3007
 30
0.0
 10
-7.0796
 20
-10.5739
 30
0.0
 10
-7.0796
 20
-10.5739
 30
0.0
 10
-7.0796
 20
-10.5739
 30
0.0
 10
-7.0796
 20
-10.5739
 30
0.0
 10
-7.0629
 20
-10.7236
 30
0.0
 10
-7.0629
 20
-10.7236
 30
0.0
 10
-7.0629
 20
-10.7236
 30
0.0
 10
-7.0629
 20
-10.7236
 30
0.0
 10
-7.0119
 20
-10.8699
 30
0.0
 10
-7.0119
 20
-10.8699
 30
0.0
 10
-7.0119
 20
-10.8699
 30
0.0
 10
-7.0119
 20
-10.8699
 30
0.0
 10
-6.9302
 20
-11.0013
 30
0.0
 10
-6.9302
 20
-11.0013
 30
0.0
 10
-6.9302
 20
-11.0013
 30
0.0
 10
-6.9302
 20
-11.0013
 30
0.0
 10
-6.8236
 20
-11.1099
 30
0.0
 10
-6.8236
 20
-11.1099
 30
0.0
 10
-6.8236
 20
-11.1099
 30
0.0
 10
-6.8236
 20
-11.1099
 30
0.0
 10
-6.6943
 20
-11.1933
 30
0.0
 10
-6.6943
 20
-11.1933
 30
0.0
 10
-6.6943
 20
-11.1933
 30
0.0
 10
-6.6943
 20
-11.1933
 30
0.0
 10
-6.5484
 20
-11.2461
 30
0.0
 10
-6.5484
 20
-11.2461
 30
0.0
 10
-6.5484
 20
-11.2461
 30
0.0
 10
-6.5484
 20
-11.2461
 30
0.0
 10
-6.3978
 20
-11.2635
 30
0.0
 10
-6.3978
 20
-11.2635
 30
0.0
 10
-6.3978
 20
-11.2635
 30
0.0
 10
-6.3978
 20
-11.2635
 30
0.0
 10
-4.0161
 20
-11.2916
 30
0.0
 10
-4.0161
 20
-11.2916
 30
0.0
 10
-4.0161
 20
-11.2916
 30
0.0
 10
-4.0161
 20
-11.2916
 30
0.0
 10
-3.7625
 20
-11.1981
 30
0.0
 10
-3.7625
 20
-11.1981
 30
0.0
 10
-3.7625
 20
-11.1981
 30
0.0
 10
-3.7625
 20
-11.1981
 30
0.0
 10
-3.5331
 20
-11.0508
 30
0.0
 10
-3.5331
 20
-11.0508
 30
0.0
 10
-3.5331
 20
-11.0508
 30
0.0
 10
-3.5331
 20
-11.0508
 30
0.0
 10
-3.3399
 20
-10.7962
 30
0.0
 10
-3.3399
 20
-10.7962
 30
0.0
 10
-3.3399
 20
-10.7962
 30
0.0
 10
-3.3399
 20
-10.7962
 30
0.0
 10
-3.3159
 20
-10.4749
 30
0.0
 10
-3.3159
 20
-10.4749
 30
0.0
 10
-3.3159
 20
-10.4749
 30
0.0
 10
-3.3159
 20
-10.4749
 30
0.0
 10
-3.4004
 20
-10.1936
 30
0.0
 10
-3.4004
 20
-10.1936
 30
0.0
 10
-3.4004
 20
-10.1936
 30
0.0
 10
-3.4004
 20
-10.1936
 30
0.0
 10
-3.6057
 20
-9.9524
 30
0.0
 10
-3.6057
 20
-9.9524
 30
0.0
 10
-3.6057
 20
-9.9524
 30
0.0
 10
-3.6057
 20
-9.9524
 30
0.0
 10
-3.7503
 20
-9.8589
 30
0.0
 10
-3.7503
 20
-9.8589
 30
0.0
 10
-3.7503
 20
-9.8589
 30
0.0
 10
-3.7503
 20
-9.8589
 30
0.0
 10
-3.9678
 20
-9.8589
 30
0.0
 10
-3.9678
 20
-9.8589
 30
0.0
 10
-3.9678
 20
-9.8589
 30
0.0
 10
-3.9678
 20
-9.8589
 30
0.0
 10
-6.4062
 20
-9.8322
 30
0.0
 10
-6.4062
 20
-9.8322
 30
0.0
  0
SPLINE
  5
96
330
1F
100
AcDbEntity
  8
VRSTVA_1
 62
   250
100
AcDbSpline
210
0.0
220
0.0
230
1.0
 70
    11
 71
     3
 72
    84
 73
    80
 74
     0
 42
0.0000000001
 43
0.0000000001
 40
0.0
 40
0.0
 40
0.0
 40
0.0
 40
0.0476190476190476
 40
0.0476190476190476
 40
0.0476190476190476
 40
0.0476190476190476
 40
0.0952380952380952
 40
0.0952380952380952
 40
0.0952380952380952
 40
0.0952380952380952
 40
0.1428571428571428
 40
0.1428571428571428
 40
0.1428571428571428
 40
0.1428571428571428
 40
0.1904761904761905
 40
0.1904761904761905
 40
0.1904761904761905
 40
0.1904761904761905
 40
0.2380952380952381
 40
0.2380952380952381
 40
0.2380952380952381
 40
0.2380952380952381
 40
0.2857142857142857
 40
0.2857142857142857
 40
0.2857142857142857
 40
0.2857142857142857
 40
0.3333333333333333
 40
0.3333333333333333
 40
0.3333333333333333
 40
0.3333333333333333
 40
0.3809523809523809
 40
0.3809523809523809
 40
0.3809523809523809
 40
0.3809523809523809
 40
0.4285714285714285
 40
0.4285714285714285
 40
0.4285714285714285
 40
0.4285714285714285
 40
0.4761904761904762
 40
0.4761904761904762
 40
0.4761904761904762
 40
0.4761904761904762
 40
0.5238095238095238
 40
0.5238095238095238
 40
0.5238095238095238
 40
0.5238095238095238
 40
0.5714285714285714
 40
0.5714285714285714
 40
0.5714285714285714
 40
0.5714285714285714
 40
0.6190476190476191
 40
0.6190476190476191
 40
0.6190476190476191
 40
0.6190476190476191
 40
0.6666666666666666
 40
0.6666666666666666
 40
0.6666666666666666
 40
0.6666666666666666
 40
0.7142857142857143
 40
0.7142857142857143
 40
0.7142857142857143
 40
0.7142857142857143
 40
0.7619047619047619
 40
0.7619047619047619
 40
0.7619047619047619
 40
0.7619047619047619
 40
0.8095238095238095
 40
0.8095238095238095
 40
0.8095238095238095
 40
0.8095238095238095
 40
0.8571428571428571
 40
0.8571428571428571
 40
0.8571428571428571
 40
0.8571428571428571
 40
0.9047619047619048
 40
0.9047619047619048
 40
0.9047619047619048
 40
0.9047619047619048
 40
1.0
 40
1.0
 40
1.0
 40
1.0
 10
-7.0427
 20
-19.8229
 30
0.0
 10
-7.0427
 20
-19.8229
 30
0.0
 10
-7.0294
 20
-19.6613
 30
0.0
 10
-7.0294
 20
-19.6613
 30
0.0
 10
-7.0294
 20
-19.6613
 30
0.0
 10
-7.0294
 20
-19.6613
 30
0.0
 10
-6.8835
 20
-19.5878
 30
0.0
 10
-6.8835
 20
-19.5878
 30
0.0
 10
-6.8835
 20
-19.5878
 30
0.0
 10
-6.8835
 20
-19.5878
 30
0.0
 10
-6.5254
 20
-19.4993
 30
0.0
 10
-6.5254
 20
-19.4993
 30
0.0
 10
-6.5254
 20
-19.4993
 30
0.0
 10
-6.5254
 20
-19.4993
 30
0.0
 10
-6.1277
 20
-19.4846
 30
0.0
 10
-6.1277
 20
-19.4846
 30
0.0
 10
-6.1277
 20
-19.4846
 30
0.0
 10
-6.1277
 20
-19.4846
 30
0.0
 10
-3.7015
 20
-19.5287
 30
0.0
 10
-3.7015
 20
-19.5287
 30
0.0
 10
-3.7015
 20
-19.5287
 30
0.0
 10
-3.7015
 20
-19.5287
 30
0.0
 10
-3.5026
 20
-19.5731
 30
0.0
 10
-3.5026
 20
-19.5731
 30
0.0
 10
-3.5026
 20
-19.5731
 30
0.0
 10
-3.5026
 20
-19.5731
 30
0.0
 10
-3.3081
 20
-19.7516
 30
0.0
 10
-3.3081
 20
-19.7516
 30
0.0
 10
-3.3081
 20
-19.7516
 30
0.0
 10
-3.3081
 20
-19.7516
 30
0.0
 10
-3.3186
 20
-19.8001
 30
0.0
 10
-3.3186
 20
-19.8001
 30
0.0
 10
-3.3186
 20
-19.8001
 30
0.0
 10
-3.3186
 20
-19.8001
 30
0.0
 10
-3.3734
 20
-19.9387
 30
0.0
 10
-3.3734
 20
-19.9387
 30
0.0
 10
-3.3734
 20
-19.9387
 30
0.0
 10
-3.3734
 20
-19.9387
 30
0.0
 10
-3.4516
 20
-20.0491
 30
0.0
 10
-3.4516
 20
-20.0491
 30
0.0
 10
-3.4516
 20
-20.0491
 30
0.0
 10
-3.4516
 20
-20.0491
 30
0.0
 10
-3.5385
 20
-20.1265
 30
0.0
 10
-3.5385
 20
-20.1265
 30
0.0
 10
-3.5385
 20
-20.1265
 30
0.0
 10
-3.5385
 20
-20.1265
 30
0.0
 10
-3.6232
 20
-20.176
 30
0.0
 10
-3.6232
 20
-20.176
 30
0.0
 10
-3.6232
 20
-20.176
 30
0.0
 10
-3.6232
 20
-20.176
 30
0.0
 10
-3.7018
 20
-20.2054
 30
0.0
 10
-3.7018
 20
-20.2054
 30
0.0
 10
-3.7018
 20
-20.2054
 30
0.0
 10
-3.7018
 20
-20.2054
 30
0.0
 10
-3.7797
 20
-20.2234
 30
0.0
 10
-3.7797
 20
-20.2234
 30
0.0
 10
-3.7797
 20
-20.2234
 30
0.0
 10
-3.7797
 20
-20.2234
 30
0.0
 10
-3.8717
 20
-20.2348
 30
0.0
 10
-3.8717
 20
-20.2348
 30
0.0
 10
-3.8717
 20
-20.2348
 30
0.0
 10
-3.8717
 20
-20.2348
 30
0.0
 10
-3.9802
 20
-20.2389
 30
0.0
 10
-3.9802
 20
-20.2389
 30
0.0
 10
-3.9802
 20
-20.2389
 30
0.0
 10
-3.9802
 20
-20.2389
 30
0.0
 10
-6.4194
 20
-20.2494
 30
0.0
 10
-6.4194
 20
-20.2494
 30
0.0
 10
-6.4194
 20
-20.2494
 30
0.0
 10
-6.4194
 20
-20.2494
 30
0.0
 10
-6.7246
 20
-20.2348
 30
0.0
 10
-6.7246
 20
-20.2348
 30
0.0
 10
-6.7246
 20
-20.2348
 30
0.0
 10
-6.7246
 20
-20.2348
 30
0.0
 10
-6.9234
 20
-20.0878
 30
0.0
 10
-6.9234
 20
-20.0878
 30
0.0
 10
-6.9234
 20
-20.0878
 30
0.0
 10
-6.9234
 20
-20.0878
 30
0.0
 10
-7.0427
 20
-19.8229
 30
0.0
 10
-7.0427
 20
-19.8229
 30
0.0
  0
SPLINE
  5
97
330
1F
100
AcDbEntity
  8
VRSTVA_1
 62
   250
100
AcDbSpline
210
0.0
220
0.0
230
1.0
 70
     8
 71
     3
 72
    24
 73
    20
 74
     0
 42
0.0000000001
 43
0.0000000001
 40
0.0
 40
0.0
 40
0.0
 40
0.0
 40
0.1666666666666667
 40
0.1666666666666667
 40
0.1666666666666667
 40
0.1666666666666667
 40
0.3333333333333333
 40
0.3333333333333333
 40
0.3333333333333333
 40
0.3333333333333333
 40
0.5
 40
0.5
 40
0.5
 40
0.5
 40
0.6666666666666666
 40
0.6666666666666666
 40
0.6666666666666666
 40
0.6666666666666666
 40
1.0
 40
1.0
 40
1.0
 40
1.0
 10
-7.0486
 20
-19.7528
 30
0.0
 10
-7.4253
 20
-19.7528
 30
0.0
 10
-7.7304
 20
-19.4135
 30
0.0
 10
-7.7304
 20
-18.9948
 30
0.0
 10
-7.7304
 20
-18.9948
 30
0.0
 10
-7.7304
 20
-18.9948
 30
0.0
 10
-7.7242
 20
-2.2853
 30
0.0
 10
-7.7242
 20
-2.2853
 30
0.0
 10
-7.7242
 20
-2.2853
 30
0.0
 10
-7.7242
 20
-2.2853
 30
0.0
 10
-7.6266
 20
-1.9385
 30
0.0
 10
-7.6266
 20
-1.9385
 30
0.0
 10
-7.6266
 20
-1.9385
 30
0.0
 10
-7.6266
 20
-1.9385
 30
0.0
 10
-7.5289
 20
-1.7652
 30
0.0
 10
-7.5289
 20
-1.7652
 30
0.0
 10
-7.5289
 20
-1.7652
 30
0.0
 10
-7.5289
 20
-1.7652
 30
0.0
 10
-7.0794
 20
-1.5702
 30
0.0
 10
-7.0794
 20
-1.5702
 30
0.0
  0
SPLINE
  5
98
330
1F
100
AcDbEntity
  8
VRSTVA_1
 62
   250
100
AcDbSpline
210
0.0
220
0.0
230
1.0
 70
    11
 71
     3
 72
    84
 73
    80
 74
     0
 42
0.0000000001
 43
0.0000000001
 40
0.0
 40
0.0
 40
0.0
 40
0.0
 40
0.0476190476190476
 40
0.0476190476190476
 40
0.0476190476190476
 40
0.0476190476190476
 40
0.0952380952380952
 40
0.0952380952380952
 40
0.0952380952380952
 40
0.0952380952380952
 40
0.1428571428571428
 40
0.1428571428571428
 40
0.1428571428571428
 40
0.1428571428571428
 40
0.1904761904761905
 40
0.1904761904761905
 40
0.1904761904761905
 40
0.1904761904761905
 40
0.2380952380952381
 40
0.2380952380952381
 40
0.2380952380952381
 40
0.2380952380952381
 40
0.2857142857142857
 40
0.2857142857142857
 40
0.2857142857142857
 40
0.2857142857142857
 40
0.3333333333333333
 40
0.3333333333333333
 40
0.3333333333333333
 40
0.3333333333333333
 40
0.3809523809523809
 40
0.3809523809523809
 40
0.3809523809523809
 40
0.3809523809523809
 40
0.4285714285714285
 40
0.4285714285714285
 40
0.4285714285714285
 40
0.4285714285714285
 40
0.4761904761904762
 40
0.4761904761904762
 40
0.4761904761904762
 40
0.4761904761904762
 40
0.5238095238095238
 40
0.5238095238095238
 40
0.5238095238095238
 40
0.5238095238095238
 40
0.5714285714285714
 40
0.5714285714285714
 40
0.5714285714285714
 40
0.5714285714285714
 40
0.6190476190476191
 40
0.6190476190476191
 40
0.6190476190476191
 40
0.6190476190476191
 40
0.6666666666666666
 40
0.6666666666666666
 40
0.6666666666666666
 40
0.6666666666666666
 40
0.7142857142857143
 40
0.7142857142857143
 40
0.7142857142857143
 40
0.7142857142857143
 40
0.7619047619047619
 40
0.7619047619047619
 40
0.7619047619047619
 40
0.7619047619047619
 40
0.8095238095238095
 40
0.8095238095238095
 40
0.8095238095238095
 40
0.8095238095238095
 40
0.8571428571428571
 40
0.8571428571428571
 40
0.8571428571428571
 40
0.8571428571428571
 40
0.9047619047619048
 40
0.9047619047619048
 40
0.9047619047619048
 40
0.9047619047619048
 40
1.0
 40
1.0
 40
1.0
 40
1.0
 10
17.6889
 20
-11.1164
 30
0.0
 10
17.6889
 20
-11.1164
 30
0.0
 10
17.3473
 20
-10.8113
 30
0.0
 10
17.3473
 20
-10.8113
 30
0.0
 10
17.3473
 20
-10.8113
 30
0.0
 10
17.3473
 20
-10.8113
 30
0.0
 10
17.4997
 20
-10.6315
 30
0.0
 10
17.4997
 20
-10.6315
 30
0.0
 10
17.4997
 20
-10.6315
 30
0.0
 10
17.4997
 20
-10.6315
 30
0.0
 10
17.8594
 20
-10.9509
 30
0.0
 10
17.8594
 20
-10.9509
 30
0.0
 10
17.8594
 20
-10.9509
 30
0.0
 10
18.0144
 20
-10.8467
 30
0.0
 10
18.1502
 20
-10.7766
 30
0.0
 10
18.2661
 20
-10.7401
 30
0.0
 10
18.2661
 20
-10.7401
 30
0.0
 10
18.4187
 20
-10.6916
 30
0.0
 10
18.5898
 20
-10.6675
 30
0.0
 10
18.7783
 20
-10.6675
 30
0.0
 10
18.7783
 20
-10.6675
 30
0.0
 10
19.0512
 20
-10.6675
 30
0.0
 10
19.2943
 20
-10.7226
 30
0.0
 10
19.5069
 20
-10.833
 30
0.0
 10
19.5069
 20
-10.833
 30
0.0
 10
19.7202
 20
-10.9434
 30
0.0
 10
19.8815
 20
-11.0979
 30
0.0
 10
19.9906
 20
-11.2969
 30
0.0
 10
19.9906
 20
-11.2969
 30
0.0
 10
20.0991
 20
-11.4965
 30
0.0
 10
20.1536
 20
-11.708
 30
0.0
 10
20.1536
 20
-11.9318
 30
0.0
 10
20.1536
 20
-11.9318
 30
0.0
 10
20.1536
 20
-12.0993
 30
0.0
 10
20.1301
 20
-12.2505
 30
0.0
 10
20.083
 20
-12.3863
 30
0.0
 10
20.083
 20
-12.3863
 30
0.0
 10
20.0464
 20
-12.4904
 30
0.0
 10
19.9769
 20
-12.612
 30
0.0
 10
19.874
 20
-12.7516
 30
0.0
 10
19.874
 20
-12.7516
 30
0.0
 10
19.874
 20
-12.7516
 30
0.0
 10
20.2156
 20
-13.0566
 30
0.0
 10
20.2156
 20
-13.0566
 30
0.0
 10
20.2156
 20
-13.0566
 30
0.0
 10
20.2156
 20
-13.0566
 30
0.0
 10
20.0632
 20
-13.2364
 30
0.0
 10
20.0632
 20
-13.2364
 30
0.0
 10
20.0632
 20
-13.2364
 30
0.0
 10
20.0632
 20
-13.2364
 30
0.0
 10
19.7054
 20
-12.9165
 30
0.0
 10
19.7054
 20
-12.9165
 30
0.0
 10
19.7054
 20
-12.9165
 30
0.0
 10
19.5249
 20
-13.0355
 30
0.0
 10
19.3705
 20
-13.1149
 30
0.0
 10
19.2427
 20
-13.1546
 30
0.0
 10
19.2427
 20
-13.1546
 30
0.0
 10
19.1151
 20
-13.1943
 30
0.0
 10
18.9613
 20
-13.2147
 30
0.0
 10
18.7821
 20
-13.2147
 30
0.0
 10
18.7821
 20
-13.2147
 30
0.0
 10
18.5086
 20
-13.2147
 30
0.0
 10
18.2649
 20
-13.1602
 30
0.0
 10
18.0511
 20
-13.051
 30
0.0
 10
18.0511
 20
-13.051
 30
0.0
 10
17.8371
 20
-12.9419
 30
0.0
 10
17.6752
 20
-12.7893
 30
0.0
 10
17.5649
 20
-12.5922
 30
0.0
 10
17.5649
 20
-12.5922
 30
0.0
 10
17.4551
 20
-12.3957
 30
0.0
 10
17.4
 20
-12.1767
 30
0.0
 10
17.4
 20
-11.9355
 30
0.0
 10
17.4
 20
-11.9355
 30
0.0
 10
17.4
 20
-11.7731
 30
0.0
 10
17.421
 20
-11.631
 30
0.0
 10
17.4645
 20
-11.5096
 30
0.0
 10
17.4645
 20
-11.5096
 30
0.0
 10
17.5072
 20
-11.388
 30
0.0
 10
17.5823
 20
-11.2565
 30
0.0
 10
17.6889
 20
-11.1164
 30
0.0
  0
SPLINE
  5
99
330
1F
100
AcDbEntity
  8
VRSTVA_1
 62
   250
100
AcDbSpline
210
0.0
220
0.0
230
1.0
 70
    11
 71
     3
 72
    32
 73
    28
 74
     0
 42
0.0000000001
 43
0.0000000001
 40
0.0
 40
0.0
 40
0.0
 40
0.0
 40
0.125
 40
0.125
 40
0.125
 40
0.125
 40
0.25
 40
0.25
 40
0.25
 40
0.25
 40
0.375
 40
0.375
 40
0.375
 40
0.375
 40
0.5
 40
0.5
 40
0.5
 40
0.5
 40
0.625
 40
0.625
 40
0.625
 40
0.625
 40
0.75
 40
0.75
 40
0.75
 40
0.75
 40
1.0
 40
1.0
 40
1.0
 40
1.0
 10
17.9339
 20
-11.3341
 30
0.0
 10
17.8446
 20
-11.4482
 30
0.0
 10
17.7832
 20
-11.5479
 30
0.0
 10
17.7503
 20
-11.6329
 30
0.0
 10
17.7503
 20
-11.6329
 30
0.0
 10
17.718
 20
-11.7186
 30
0.0
 10
17.7014
 20
-11.8189
 30
0.0
 10
17.7014
 20
-11.9336
 30
0.0
 10
17.7014
 20
-11.9336
 30
0.0
 10
17.7014
 20
-12.199
 30
0.0
 10
17.7911
 20
-12.418
 30
0.0
 10
17.971
 20
-12.5916
 30
0.0
 10
17.971
 20
-12.5916
 30
0.0
 10
18.1508
 20
-12.7645
 30
0.0
 10
18.4193
 20
-12.8513
 30
0.0
 10
18.7771
 20
-12.8513
 30
0.0
 10
18.7771
 20
-12.8513
 30
0.0
 10
18.9172
 20
-12.8513
 30
0.0
 10
19.0419
 20
-12.8378
 30
0.0
 10
19.151
 20
-12.8111
 30
0.0
 10
19.151
 20
-12.8111
 30
0.0
 10
19.2323
 20
-12.7918
 30
0.0
 10
19.332
 20
-12.7516
 30
0.0
 10
19.4505
 20
-12.6896
 30
0.0
 10
19.4505
 20
-12.6896
 30
0.0
 10
19.4505
 20
-12.6896
 30
0.0
 10
17.9339
 20
-11.3341
 30
0.0
 10
17.9339
 20
-11.3341
 30
0.0
  0
SPLINE
  5
9A
330
1F
100
AcDbEntity
  8
VRSTVA_1
 62
   250
100
AcDbSpline
210
0.0
220
0.0
230
1.0
 70
    11
 71
     3
 72
    28
 73
    24
 74
     0
 42
0.0000000001
 43
0.0000000001
 40
0.0
 40
0.0
 40
0.0
 40
0.0
 40
0.1428571428571428
 40
0.1428571428571428
 40
0.1428571428571428
 40
0.1428571428571428
 40
0.2857142857142857
 40
0.2857142857142857
 40
0.2857142857142857
 40
0.2857142857142857
 40
0.4285714285714285
 40
0.4285714285714285
 40
0.4285714285714285
 40
0.4285714285714285
 40
0.5714285714285714
 40
0.5714285714285714
 40
0.5714285714285714
 40
0.5714285714285714
 40
0.7142857142857143
 40
0.7142857142857143
 40
0.7142857142857143
 40
0.7142857142857143
 40
1.0
 40
1.0
 40
1.0
 40
1.0
 10
18.121
 20
-11.1853
 30
0.0
 10
18.121
 20
-11.1853
 30
0.0
 10
19.6322
 20
-12.5351
 30
0.0
 10
19.6322
 20
-12.5351
 30
0.0
 10
19.6322
 20
-12.5351
 30
0.0
 10
19.7085
 20
-12.4421
 30
0.0
 10
19.7618
 20
-12.3559
 30
0.0
 10
19.7922
 20
-12.2772
 30
0.0
 10
19.7922
 20
-12.2772
 30
0.0
 10
19.8324
 20
-12.1742
 30
0.0
 10
19.8524
 20
-12.0627
 30
0.0
 10
19.8524
 20
-11.943
 30
0.0
 10
19.8524
 20
-11.943
 30
0.0
 10
19.8524
 20
-11.6788
 30
0.0
 10
19.7593
 20
-11.4611
 30
0.0
 10
19.5726
 20
-11.2888
 30
0.0
 10
19.5726
 20
-11.2888
 30
0.0
 10
19.386
 20
-11.117
 30
0.0
 10
19.1243
 20
-11.0309
 30
0.0
 10
18.7877
 20
-11.0309
 30
0.0
 10
18.7877
 20
-11.0309
 30
0.0
 10
18.5359
 20
-11.0309
 30
0.0
 10
18.3133
 20
-11.0823
 30
0.0
 10
18.121
 20
-11.1853
 30
0.0
  0
SPLINE
  5
9B
330
1F
100
AcDbEntity
  8
VRSTVA_1
 62
   250
100
AcDbSpline
210
0.0
220
0.0
230
1.0
 70
    11
 71
     3
 72
    48
 73
    44
 74
     0
 42
0.0000000001
 43
0.0000000001
 40
0.0
 40
0.0
 40
0.0
 40
0.0
 40
0.0833333333333333
 40
0.0833333333333333
 40
0.0833333333333333
 40
0.0833333333333333
 40
0.1666666666666667
 40
0.1666666666666667
 40
0.1666666666666667
 40
0.1666666666666667
 40
0.25
 40
0.25
 40
0.25
 40
0.25
 40
0.3333333333333333
 40
0.3333333333333333
 40
0.3333333333333333
 40
0.3333333333333333
 40
0.4166666666666667
 40
0.4166666666666667
 40
0.4166666666666667
 40
0.4166666666666667
 40
0.5
 40
0.5
 40
0.5
 40
0.5
 40
0.5833333333333334
 40
0.5833333333333334
 40
0.5833333333333334
 40
0.5833333333333334
 40
0.6666666666666666
 40
0.6666666666666666
 40
0.6666666666666666
 40
0.6666666666666666
 40
0.75
 40
0.75
 40
0.75
 40
0.75
 40
0.8333333333333334
 40
0.8333333333333334
 40
0.8333333333333334
 40
0.8333333333333334
 40
1.0
 40
1.0
 40
1.0
 40
1.0
 10
20.1084
 20
-9.291
 30
0.0
 10
20.1084
 20
-9.291
 30
0.0
 10
19.471
 20
-9.291
 30
0.0
 10
19.471
 20
-9.291
 30
0.0
 10
19.471
 20
-9.291
 30
0.0
 10
19.471
 20
-9.291
 30
0.0
 10
19.471
 20
-10.4462
 30
0.0
 10
19.471
 20
-10.4462
 30
0.0
 10
19.471
 20
-10.4462
 30
0.0
 10
19.471
 20
-10.4462
 30
0.0
 10
19.1709
 20
-10.4462
 30
0.0
 10
19.1709
 20
-10.4462
 30
0.0
 10
19.1709
 20
-10.4462
 30
0.0
 10
19.1709
 20
-10.4462
 30
0.0
 10
17.4452
 20
-9.2308
 30
0.0
 10
17.4452
 20
-9.2308
 30
0.0
 10
17.4452
 20
-9.2308
 30
0.0
 10
17.4452
 20
-9.2308
 30
0.0
 10
17.4452
 20
-8.9636
 30
0.0
 10
17.4452
 20
-8.9636
 30
0.0
 10
17.4452
 20
-8.9636
 30
0.0
 10
17.4452
 20
-8.9636
 30
0.0
 10
19.1709
 20
-8.9636
 30
0.0
 10
19.1709
 20
-8.9636
 30
0.0
 10
19.1709
 20
-8.9636
 30
0.0
 10
19.1709
 20
-8.9636
 30
0.0
 10
19.1709
 20
-8.6039
 30
0.0
 10
19.1709
 20
-8.6039
 30
0.0
 10
19.1709
 20
-8.6039
 30
0.0
 10
19.1709
 20
-8.6039
 30
0.0
 10
19.471
 20
-8.6039
 30
0.0
 10
19.471
 20
-8.6039
 30
0.0
 10
19.471
 20
-8.6039
 30
0.0
 10
19.471
 20
-8.6039
 30
0.0
 10
19.471
 20
-8.9636
 30
0.0
 10
19.471
 20
-8.9636
 30
0.0
 10
19.471
 20
-8.9636
 30
0.0
 10
19.471
 20
-8.9636
 30
0.0
 10
20.1084
 20
-8.9636
 30
0.0
 10
20.1084
 20
-8.9636
 30
0.0
 10
20.1084
 20
-8.9636
 30
0.0
 10
20.1084
 20
-8.9636
 30
0.0
 10
20.1084
 20
-9.291
 30
0.0
 10
20.1084
 20
-9.291
 30
0.0
  0
SPLINE
  5
9C
330
1F
100
AcDbEntity
  8
VRSTVA_1
 62
   250
100
AcDbSpline
210
0.0
220
0.0
230
1.0
 70
    11
 71
     3
 72
    16
 73
    12
 74
     0
 42
0.0000000001
 43
0.0000000001
 40
0.0
 40
0.0
 40
0.0
 40
0.0
 40
0.25
 40
0.25
 40
0.25
 40
0.25
 40
0.5
 40
0.5
 40
0.5
 40
0.5
 40
1.0
 40
1.0
 40
1.0
 40
1.0
 10
19.1709
 20
-9.291
 30
0.0
 10
19.1709
 20
-9.291
 30
0.0
 10
17.9704
 20
-9.291
 30
0.0
 10
17.9704
 20
-9.291
 30
0.0
 10
17.9704
 20
-9.291
 30
0.0
 10
17.9704
 20
-9.291
 30
0.0
 10
19.1709
 20
-10.1242
 30
0.0
 10
19.1709
 20
-10.1242
 30
0.0
 10
19.1709
 20
-10.1242
 30
0.0
 10
19.1709
 20
-10.1242
 30
0.0
 10
19.1709
 20
-9.291
 30
0.0
 10
19.1709
 20
-9.291
 30
0.0
  0
SPLINE
  5
9D
330
1F
100
AcDbEntity
  8
VRSTVA_1
 62
   250
100
AcDbSpline
210
0.0
220
0.0
230
1.0
 70
    11
 71
     3
 72
    52
 73
    48
 74
     0
 42
0.0000000001
 43
0.0000000001
 40
0.0
 40
0.0
 40
0.0
 40
0.0
 40
0.0769230769230769
 40
0.0769230769230769
 40
0.0769230769230769
 40
0.0769230769230769
 40
0.1538461538461539
 40
0.1538461538461539
 40
0.1538461538461539
 40
0.1538461538461539
 40
0.2307692307692308
 40
0.2307692307692308
 40
0.2307692307692308
 40
0.2307692307692308
 40
0.3076923076923077
 40
0.3076923076923077
 40
0.3076923076923077
 40
0.3076923076923077
 40
0.3846153846153846
 40
0.3846153846153846
 40
0.3846153846153846
 40
0.3846153846153846
 40
0.4615384615384616
 40
0.4615384615384616
 40
0.4615384615384616
 40
0.4615384615384616
 40
0.5384615384615384
 40
0.5384615384615384
 40
0.5384615384615384
 40
0.5384615384615384
 40
0.6153846153846154
 40
0.6153846153846154
 40
0.6153846153846154
 40
0.6153846153846154
 40
0.6923076923076923
 40
0.6923076923076923
 40
0.6923076923076923
 40
0.6923076923076923
 40
0.7692307692307693
 40
0.7692307692307693
 40
0.7692307692307693
 40
0.7692307692307693
 40
0.8461538461538461
 40
0.8461538461538461
 40
0.8461538461538461
 40
0.8461538461538461
 40
1.0
 40
1.0
 40
1.0
 40
1.0
 10
18.795
 20
-8.2696
 30
0.0
 10
18.4801
 20
-8.2696
 30
0.0
 10
18.2265
 20
-8.2374
 30
0.0
 10
18.0349
 20
-8.1724
 30
0.0
 10
18.0349
 20
-8.1724
 30
0.0
 10
17.8427
 20
-8.1079
 30
0.0
 10
17.6945
 20
-8.0111
 30
0.0
 10
17.5903
 20
-7.8833
 30
0.0
 10
17.5903
 20
-7.8833
 30
0.0
 10
17.4862
 20
-7.7557
 30
0.0
 10
17.4341
 20
-7.595
 30
0.0
 10
17.4341
 20
-7.4016
 30
0.0
 10
17.4341
 20
-7.4016
 30
0.0
 10
17.4341
 20
-7.2583
 30
0.0
 10
17.4632
 20
-7.1331
 30
0.0
 10
17.5209
 20
-7.0251
 30
0.0
 10
17.5209
 20
-7.0251
 30
0.0
 10
17.5779
 20
-6.9173
 30
0.0
 10
17.661
 20
-6.8286
 30
0.0
 10
17.7695
 20
-6.7579
 30
0.0
 10
17.7695
 20
-6.7579
 30
0.0
 10
17.8781
 20
-6.6879
 30
0.0
 10
18.0101
 20
-6.6327
 30
0.0
 10
18.1658
 20
-6.593
 30
0.0
 10
18.1658
 20
-6.593
 30
0.0
 10
18.3214
 20
-6.5526
 30
0.0
 10
18.5309
 20
-6.5328
 30
0.0
 10
18.795
 20
-6.5328
 30
0.0
 10
18.795
 20
-6.5328
 30
0.0
 10
19.1076
 20
-6.5328
 30
0.0
 10
19.3593
 20
-6.5651
 30
0.0
 10
19.5516
 20
-6.629
 30
0.0
 10
19.5516
 20
-6.629
 30
0.0
 10
19.7438
 20
-6.6935
 30
0.0
 10
19.892
 20
-6.7895
 30
0.0
 10
19.9968
 20
-6.9173
 30
0.0
 10
19.9968
 20
-6.9173
 30
0.0
 10
20.1016
 20
-7.0451
 30
0.0
 10
20.1536
 20
-7.2062
 30
0.0
 10
20.1536
 20
-7.4016
 30
0.0
 10
20.1536
 20
-7.4016
 30
0.0
 10
20.1536
 20
-7.6583
 30
0.0
 10
20.0619
 20
-7.8598
 30
0.0
 10
19.8778
 20
-8.0061
 30
0.0
 10
19.8778
 20
-8.0061
 30
0.0
 10
19.6563
 20
-8.1816
 30
0.0
 10
19.2949
 20
-8.2696
 30
0.0
 10
18.795
 20
-8.2696
 30
0.0
  0
SPLINE
  5
9E
330
1F
100
AcDbEntity
  8
VRSTVA_1
 62
   250
100
AcDbSpline
210
0.0
220
0.0
230
1.0
 70
    11
 71
     3
 72
    36
 73
    32
 74
     0
 42
0.0000000001
 43
0.0000000001
 40
0.0
 40
0.0
 40
0.0
 40
0.0
 40
0.1111111111111111
 40
0.1111111111111111
 40
0.1111111111111111
 40
0.1111111111111111
 40
0.2222222222222222
 40
0.2222222222222222
 40
0.2222222222222222
 40
0.2222222222222222
 40
0.3333333333333333
 40
0.3333333333333333
 40
0.3333333333333333
 40
0.3333333333333333
 40
0.4444444444444444
 40
0.4444444444444444
 40
0.4444444444444444
 40
0.4444444444444444
 40
0.5555555555555556
 40
0.5555555555555556
 40
0.5555555555555556
 40
0.5555555555555556
 40
0.6666666666666666
 40
0.6666666666666666
 40
0.6666666666666666
 40
0.6666666666666666
 40
0.7777777777777778
 40
0.7777777777777778
 40
0.7777777777777778
 40
0.7777777777777778
 40
1.0
 40
1.0
 40
1.0
 40
1.0
 10
18.795
 20
-7.9336
 30
0.0
 10
19.2323
 20
-7.9336
 30
0.0
 10
19.5231
 20
-7.8821
 30
0.0
 10
19.6682
 20
-7.7798
 30
0.0
 10
19.6682
 20
-7.7798
 30
0.0
 10
19.8126
 20
-7.6775
 30
0.0
 10
19.8852
 20
-7.5517
 30
0.0
 10
19.8852
 20
-7.4016
 30
0.0
 10
19.8852
 20
-7.4016
 30
0.0
 10
19.8852
 20
-7.2509
 30
0.0
 10
19.812
 20
-7.125
 30
0.0
 10
19.6669
 20
-7.0226
 30
0.0
 10
19.6669
 20
-7.0226
 30
0.0
 10
19.5218
 20
-6.9204
 30
0.0
 10
19.231
 20
-6.869
 30
0.0
 10
18.795
 20
-6.869
 30
0.0
 10
18.795
 20
-6.869
 30
0.0
 10
18.3567
 20
-6.869
 30
0.0
 10
18.0652
 20
-6.9204
 30
0.0
 10
17.9214
 20
-7.0226
 30
0.0
 10
17.9214
 20
-7.0226
 30
0.0
 10
17.7769
 20
-7.125
 30
0.0
 10
17.705
 20
-7.2522
 30
0.0
 10
17.705
 20
-7.4047
 30
0.0
 10
17.705
 20
-7.4047
 30
0.0
 10
17.705
 20
-7.5553
 30
0.0
 10
17.7689
 20
-7.675
 30
0.0
 10
17.896
 20
-7.7649
 30
0.0
 10
17.896
 20
-7.7649
 30
0.0
 10
18.0578
 20
-7.8772
 30
0.0
 10
18.3579
 20
-7.9336
 30
0.0
 10
18.795
 20
-7.9336
 30
0.0
  0
SPLINE
  5
9F
330
1F
100
AcDbEntity
  8
VRSTVA_1
 62
   250
100
AcDbSpline
210
0.0
220
0.0
230
1.0
 70
    11
 71
     3
 72
    20
 73
    16
 74
     0
 42
0.0000000001
 43
0.0000000001
 40
0.0
 40
0.0
 40
0.0
 40
0.0
 40
0.2
 40
0.2
 40
0.2
 40
0.2
 40
0.4
 40
0.4
 40
0.4
 40
0.4
 40
0.6
 40
0.6
 40
0.6
 40
0.6
 40
1.0
 40
1.0
 40
1.0
 40
1.0
 10
20.7892
 20
-20.3431
 30
0.0
 10
20.7892
 20
-20.3431
 30
0.0
 10
21.2544
 20
-17.0473
 30
0.0
 10
21.2544
 20
-17.0473
 30
0.0
 10
21.2544
 20
-17.0473
 30
0.0
 10
21.2544
 20
-17.0473
 30
0.0
 10
21.3577
 20
-17.0473
 30
0.0
 10
21.3577
 20
-17.0473
 30
0.0
 10
21.3577
 20
-17.0473
 30
0.0
 10
21.3577
 20
-17.0473
 30
0.0
 10
21.8537
 20
-20.3431
 30
0.0
 10
21.8537
 20
-20.3431
 30
0.0
 10
21.8537
 20
-20.3431
 30
0.0
 10
21.8537
 20
-20.3431
 30
0.0
 10
20.7892
 20
-20.3431
 30
0.0
 10
20.7892
 20
-20.3431
 30
0.0
  0
SPLINE
  5
A0
330
1F
100
AcDbEntity
  8
VRSTVA_1
 62
   250
100
AcDbSpline
210
0.0
220
0.0
230
1.0
 70
    11
 71
     3
 72
    20
 73
    16
 74
     0
 42
0.0000000001
 43
0.0000000001
 40
0.0
 40
0.0
 40
0.0
 40
0.0
 40
0.2
 40
0.2
 40
0.2
 40
0.2
 40
0.4
 40
0.4
 40
0.4
 40
0.4
 40
0.6
 40
0.6
 40
0.6
 40
0.6
 40
1.0
 40
1.0
 40
1.0
 40
1.0
 10
21.8215
 20
-0.6895
 30
0.0
 10
21.8215
 20
-0.6895
 30
0.0
 10
21.3564
 20
-3.9853
 30
0.0
 10
21.3564
 20
-3.9853
 30
0.0
 10
21.3564
 20
-3.9853
 30
0.0
 10
21.3564
 20
-3.9853
 30
0.0
 10
21.2531
 20
-3.9853
 30
0.0
 10
21.2531
 20
-3.9853
 30
0.0
 10
21.2531
 20
-3.9853
 30
0.0
 10
21.2531
 20
-3.9853
 30
0.0
 10
20.757
 20
-0.6895
 30
0.0
 10
20.757
 20
-0.6895
 30
0.0
 10
20.757
 20
-0.6895
 30
0.0
 10
20.757
 20
-0.6895
 30
0.0
 10
21.8215
 20
-0.6895
 30
0.0
 10
21.8215
 20
-0.6895
 30
0.0
  0
SPLINE
  5
A1
330
1F
100
AcDbEntity
  8
VRSTVA_1
 62
   250
100
AcDbSpline
210
0.0
220
0.0
230
1.0
 70
     8
 71
     3
 72
     8
 73
     4
 74
     0
 42
0.0000000001
 43
0.0000000001
 40
0.0
 40
0.0
 40
0.0
 40
0.0
 40
1.0
 40
1.0
 40
1.0
 40
1.0
 10
32.4355
 20
-17.3379
 30
0.0
 10
32.4355
 20
-19.7459
 30
0.0
 10
34.3875
 20
-21.6979
 30
0.0
 10
36.7957
 20
-21.6979
 30
0.0
  0
SPLINE
  5
A2
330
1F
100
AcDbEntity
  8
VRSTVA_1
 62
   250
100
AcDbSpline
210
0.0
220
0.0
230
1.0
 70
     8
 71
     3
 72
     8
 73
     4
 74
     0
 42
0.0000000001
 43
0.0000000001
 40
0.0
 40
0.0
 40
0.0
 40
0.0
 40
1.0
 40
1.0
 40
1.0
 40
1.0
 10
36.7957
 20
0.7248
 30
0.0
 10
34.3875
 20
0.7248
 30
0.0
 10
32.4355
 20
-1.2272
 30
0.0
 10
32.4355
 20
-3.6352
 30
0.0
  0
SPLINE
  5
A3
330
1F
100
AcDbEntity
  8
VRSTVA_1
 62
   250
100
AcDbSpline
210
0.0
220
0.0
230
1.0
 70
    27
 71
     3
 72
    12
 73
     8
 74
     0
 42
0.0000000001
 43
0.0000000001
 40
0.0
 40
0.0
 40
0.0
 40
0.0
 40
0.3333333333333333
 40
0.3333333333333333
 40
0.3333333333333333
 40
0.3333333333333333
 40
1.0
 40
1.0
 40
1.0
 40
1.0
 10
40.5332
 20
1.5035
 30
0.0
 10
40.5332
 20
1.5035
 30
0.0
 10
40.5332
 20
-22.4766
 30
0.0
 10
40.5332
 20
-22.4766
 30
0.0
 10
40.5332
 20
-22.4766
 30
0.0
 10
40.5332
 20
-22.4766
 30
0.0
 10
40.5332
 20
1.5035
 30
0.0
 10
40.5332
 20
1.5035
 30
0.0
  0
SPLINE
  5
A4
330
1F
100
AcDbEntity
  8
VRSTVA_1
 62
   250
100
AcDbSpline
210
0.0
220
0.0
230
1.0
 70
    11
 71
     3
 72
    28
 73
    24
 74
     0
 42
0.0000000001
 43
0.0000000001
 40
0.0
 40
0.0
 40
0.0
 40
0.0
 40
0.1428571428571428
 40
0.1428571428571428
 40
0.1428571428571428
 40
0.1428571428571428
 40
0.2857142857142857
 40
0.2857142857142857
 40
0.2857142857142857
 40
0.2857142857142857
 40
0.4285714285714285
 40
0.4285714285714285
 40
0.4285714285714285
 40
0.4285714285714285
 40
0.5714285714285714
 40
0.5714285714285714
 40
0.5714285714285714
 40
0.5714285714285714
 40
0.7142857142857143
 40
0.7142857142857143
 40
0.7142857142857143
 40
0.7142857142857143
 40
1.0
 40
1.0
 40
1.0
 40
1.0
 10
39.5987
 20
0.7248
 30
0.0
 10
39.5987
 20
0.7248
 30
0.0
 10
40.3775
 20
1.5035
 30
0.0
 10
40.3775
 20
1.5035
 30
0.0
 10
40.3775
 20
1.5035
 30
0.0
 10
40.3775
 20
1.5035
 30
0.0
 10
39.5987
 20
0.7248
 30
0.0
 10
39.5987
 20
0.7248
 30
0.0
 10
39.5987
 20
0.7248
 30
0.0
 10
39.5987
 20
0.7248
 30
0.0
 10
39.5987
 20
-21.6979
 30
0.0
 10
39.5987
 20
-21.6979
 30
0.0
 10
39.5987
 20
-21.6979
 30
0.0
 10
39.5987
 20
-21.6979
 30
0.0
 10
40.3775
 20
-22.4766
 30
0.0
 10
40.3775
 20
-22.4766
 30
0.0
 10
40.3775
 20
-22.4766
 30
0.0
 10
40.3775
 20
-22.4766
 30
0.0
 10
39.5987
 20
-21.6979
 30
0.0
 10
39.5987
 20
-21.6979
 30
0.0
 10
39.5987
 20
-21.6979
 30
0.0
 10
39.5987
 20
-21.6979
 30
0.0
 10
39.5987
 20
0.7248
 30
0.0
 10
39.5987
 20
0.7248
 30
0.0
  0
SPLINE
  5
A5
330
1F
100
AcDbEntity
  8
VRSTVA_1
 62
   250
100
AcDbSpline
210
0.0
220
0.0
230
1.0
 70
    27
 71
     3
 72
    20
 73
    16
 74
     0
 42
0.0000000001
 43
0.0000000001
 40
0.0
 40
0.0
 40
0.0
 40
0.0
 40
0.2
 40
0.2
 40
0.2
 40
0.2
 40
0.4
 40
0.4
 40
0.4
 40
0.4
 40
0.6
 40
0.6
 40
0.6
 40
0.6
 40
1.0
 40
1.0
 40
1.0
 40
1.0
 10
39.5987
 20
0.7248
 30
0.0
 10
39.5987
 20
0.7248
 30
0.0
 10
37.0437
 20
0.7248
 30
0.0
 10
37.0437
 20
0.7248
 30
0.0
 10
37.0437
 20
0.7248
 30
0.0
 10
37.0437
 20
0.7248
 30
0.0
 10
36.7957
 20
0.7248
 30
0.0
 10
36.7957
 20
0.7248
 30
0.0
 10
36.7957
 20
0.7248
 30
0.0
 10
36.7957
 20
0.7248
 30
0.0
 10
37.0437
 20
0.7248
 30
0.0
 10
37.0437
 20
0.7248
 30
0.0
 10
37.0437
 20
0.7248
 30
0.0
 10
37.0437
 20
0.7248
 30
0.0
 10
39.5987
 20
0.7248
 30
0.0
 10
39.5987
 20
0.7248
 30
0.0
  0
SPLINE
  5
A6
330
1F
100
AcDbEntity
  8
VRSTVA_1
 62
   250
100
AcDbSpline
210
0.0
220
0.0
230
1.0
 70
    27
 71
     3
 72
    12
 73
     8
 74
     0
 42
0.0000000001
 43
0.0000000001
 40
0.0
 40
0.0
 40
0.0
 40
0.0
 40
0.3333333333333333
 40
0.3333333333333333
 40
0.3333333333333333
 40
0.3333333333333333
 40
1.0
 40
1.0
 40
1.0
 40
1.0
 10
39.5987
 20
-21.6979
 30
0.0
 10
39.5987
 20
-21.6979
 30
0.0
 10
36.7957
 20
-21.6979
 30
0.0
 10
36.7957
 20
-21.6979
 30
0.0
 10
36.7957
 20
-21.6979
 30
0.0
 10
36.7957
 20
-21.6979
 30
0.0
 10
39.5987
 20
-21.6979
 30
0.0
 10
39.5987
 20
-21.6979
 30
0.0
  0
SPLINE
  5
A7
330
1F
100
AcDbEntity
  8
VRSTVA_1
 62
   250
100
AcDbSpline
210
0.0
220
0.0
230
1.0
 70
    27
 71
     3
 72
    12
 73
     8
 74
     0
 42
0.0000000001
 43
0.0000000001
 40
0.0
 40
0.0
 40
0.0
 40
0.0
 40
0.3333333333333333
 40
0.3333333333333333
 40
0.3333333333333333
 40
0.3333333333333333
 40
1.0
 40
1.0
 40
1.0
 40
1.0
 10
32.4355
 20
-3.6352
 30
0.0
 10
32.4355
 20
-3.6352
 30
0.0
 10
32.4355
 20
-17.3379
 30
0.0
 10
32.4355
 20
-17.3379
 30
0.0
 10
32.4355
 20
-17.3379
 30
0.0
 10
32.4355
 20
-17.3379
 30
0.0
 10
32.4355
 20
-3.6352
 30
0.0
 10
32.4355
 20
-3.6352
 30
0.0
  0
SPLINE
  5
A8
330
1F
100
AcDbEntity
  8
VRSTVA_1
 62
   250
100
AcDbSpline
210
0.0
220
0.0
230
1.0
 70
    24
 71
     3
 72
     8
 73
     4
 74
     0
 42
0.0000000001
 43
0.0000000001
 40
0.0
 40
0.0
 40
0.0
 40
0.0
 40
1.0
 40
1.0
 40
1.0
 40
1.0
 10
23.5108
 20
-16.8094
 30
0.0
 10
23.5108
 20
-16.8094
 30
0.0
 10
20.9883
 20
-16.8094
 30
0.0
 10
20.9883
 20
-16.8094
 30
0.0
  0
SPLINE
  5
A9
330
1F
100
AcDbEntity
  8
VRSTVA_1
 62
   250
100
AcDbSpline
210
0.0
220
0.0
230
1.0
 70
    24
 71
     3
 72
     8
 73
     4
 74
     0
 42
0.0000000001
 43
0.0000000001
 40
0.0
 40
0.0
 40
0.0
 40
0.0
 40
1.0
 40
1.0
 40
1.0
 40
1.0
 10
21.3034
 20
-21.9139
 30
0.0
 10
21.3034
 20
-21.9139
 30
0.0
 10
21.3034
 20
-0.0012
 30
0.0
 10
21.3034
 20
-0.0012
 30
0.0
  0
SPLINE
  5
AA
330
1F
100
AcDbEntity
  8
VRSTVA_1
 62
   250
100
AcDbSpline
210
0.0
220
0.0
230
1.0
 70
     8
 71
     3
 72
    16
 73
    12
 74
     0
 42
0.0000000001
 43
0.0000000001
 40
0.0
 40
0.0
 40
0.0
 40
0.0
 40
0.25
 40
0.25
 40
0.25
 40
0.25
 40
0.5
 40
0.5
 40
0.5
 40
0.5
 40
1.0
 40
1.0
 40
1.0
 40
1.0
 10
40.5771
 20
-4.2142
 30
0.0
 10
40.5771
 20
-4.2142
 30
0.0
 10
53.2116
 20
-4.2044
 30
0.0
 10
53.2116
 20
-4.2044
 30
0.0
 10
53.2116
 20
-4.2044
 30
0.0
 10
53.2116
 20
-4.2044
 30
0.0
 10
53.2116
 20
-16.8094
 30
0.0
 10
53.2116
 20
-16.8094
 30
0.0
 10
53.2116
 20
-16.8094
 30
0.0
 10
53.2116
 20
-16.8094
 30
0.0
 10
40.6355
 20
-16.829
 30
0.0
 10
40.6355
 20
-16.829
 30
0.0
  0
SPLINE
  5
AB
330
1F
100
AcDbEntity
  8
VRSTVA_1
 62
   250
100
AcDbSpline
210
0.0
220
0.0
230
1.0
 70
    27
 71
     3
 72
    12
 73
     8
 74
     0
 42
0.0000000001
 43
0.0000000001
 40
0.0
 40
0.0
 40
0.0
 40
0.0
 40
0.3333333333333333
 40
0.3333333333333333
 40
0.3333333333333333
 40
0.3333333333333333
 40
1.0
 40
1.0
 40
1.0
 40
1.0
 10
32.4136
 20
-16.8092
 30
0.0
 10
32.4136
 20
-16.8092
 30
0.0
 10
-2.5658
 20
-16.8092
 30
0.0
 10
-2.5658
 20
-16.8092
 30
0.0
 10
-2.5658
 20
-16.8092
 30
0.0
 10
-2.5658
 20
-16.8092
 30
0.0
 10
32.4136
 20
-16.8092
 30
0.0
 10
32.4136
 20
-16.8092
 30
0.0
  0
SPLINE
  5
AC
330
1F
100
AcDbEntity
  8
VRSTVA_1
 62
   250
100
AcDbSpline
210
0.0
220
0.0
230
1.0
 70
    27
 71
     3
 72
    12
 73
     8
 74
     0
 42
0.0000000001
 43
0.0000000001
 40
0.0
 40
0.0
 40
0.0
 40
0.0
 40
0.3333333333333333
 40
0.3333333333333333
 40
0.3333333333333333
 40
0.3333333333333333
 40
1.0
 40
1.0
 40
1.0
 40
1.0
 10
32.4136
 20
-4.204
 30
0.0
 10
32.4136
 20
-4.204
 30
0.0
 10
-2.5658
 20
-4.204
 30
0.0
 10
-2.5658
 20
-4.204
 30
0.0
 10
-2.5658
 20
-4.204
 30
0.0
 10
-2.5658
 20
-4.204
 30
0.0
 10
32.4136
 20
-4.204
 30
0.0
 10
32.4136
 20
-4.204
 30
0.0
  0
ENDSEC
  0
SECTION
  2
OBJECTS
  0
DICTIONARY
  5
C
330
0
100
AcDbDictionary
  3
ACAD_GROUP
350
D
  3
ACAD_LAYOUT
350
1A
  3
ACAD_MATERIAL
350
3B
  3
ACAD_MLEADERSTYLE
350
CF
  3
ACAD_MLINESTYLE
350
17
  3
ACAD_PLOTSETTINGS
350
19
  3
ACAD_VISUALSTYLE
350
2A
  3
ACDBHEADERROUNDTRIPXREC
350
AD
  3
ACDBVARIABLEDICTIONARY
350
CD
  0
DICTIONARY
  5
D
102
{ACAD_REACTORS
330
C
102
}
330
C
100
AcDbDictionary
  0
DICTIONARY
  5
1A
102
{ACAD_REACTORS
330
C
102
}
330
C
100
AcDbDictionary
  0
DICTIONARY
  5
3B
102
{ACAD_REACTORS
330
C
102
}
330
C
100
AcDbDictionary
  3
BYBLOCK
350
3D
  3
BYLAYER
350
3C
  3
GLOBAL
350
3E
  0
DICTIONARY
  5
CF
102
{ACAD_REACTORS
330
C
102
}
330
C
100
AcDbDictionary
  0
DICTIONARY
  5
17
102
{ACAD_REACTORS
330
C
102
}
330
C
100
AcDbDictionary
  3
STANDARD
350
18
  0
DICTIONARY
  5
19
102
{ACAD_REACTORS
330
C
102
}
330
C
100
AcDbDictionary
  0
DICTIONARY
  5
2A
102
{ACAD_REACTORS
330
C
102
}
330
C
100
AcDbDictionary
  3
2DWIREFRAME
350
2F
  3
3D_HIDDEN
350
31
  3
3DWIREFRAME
350
30
  3
BASIC
350
32
  3
BRIGHTEN
350
36
  3
COLORCHANGE
350
3A
  3
CONCEPTUAL
350
34
  3
DIM
350
35
  3
FACEPATTERN
350
39
  3
FLAT
350
2B
  3
FLATWITHEDGES
350
2C
  3
GOURAUD
350
2D
  3
GOURAUDWITHEDGES
350
2E
  3
LINEPATTERN
350
38
  3
REALISTIC
350
33
  3
THICKEN
350
37
  0
DICTIONARY
  5
AD
102
{ACAD_REACTORS
330
C
102
}
330
C
100
AcDbDictionary
  3
CEPSNTYPE
350
B6
  3
DIMSTYLEDATA
350
CC
  3
FINGERPRINTGUID
350
B7
  3
HYPERLINKBASE
350
B0
  3
INSUNITS
350
B5
  3
LAYOUTDICT
350
B2
  3
LWETCUNION
350
B4
  3
PLOTSETDICT
350
B3
  3
PSVPSCALE
350
B9
  3
PUCSBASE
350
BC
  3
PUCSORGBACK
350
C2
  3
PUCSORGBOTTOM
350
BE
  3
PUCSORGFRONT
350
C1
  3
PUCSORGLEFT
350
BF
  3
PUCSORGRIGHT
350
C0
  3
PUCSORGTOP
350
BD
  3
PUCSORTHOREF
350
BA
  3
PUCSORTHOVIEW
350
BB
  3
STYLESHEET
350
B1
  3
TSTACKALIGN
350
AE
  3
TSTACKSIZE
350
AF
  3
UCSBASE
350
C5
  3
UCSORGBACK
350
CB
  3
UCSORGBOTTOM
350
C7
  3
UCSORGFRONT
350
CA
  3
UCSORGLEFT
350
C8
  3
UCSORGRIGHT
350
C9
  3
UCSORGTOP
350
C6
  3
UCSORTHOREF
350
C3
  3
UCSORTHOVIEW
350
C4
  3
VERSIONGUID
350
B8
  0
DICTIONARY
  5
CD
102
{ACAD_REACTORS
330
C
102
}
330
C
100
AcDbDictionary
  3
DIMASSOC
350
D0
  3
HIDETEXT
350
D1
  0
MATERIAL
  5
3D
102
{ACAD_REACTORS
330
3B
102
}
102
{ACAD_XDICTIONARY
360
D4
102
}
330
3B
100
AcDbMaterial
  1
ByBlock
  0
MATERIAL
  5
3C
102
{ACAD_REACTORS
330
3B
102
}
102
{ACAD_XDICTIONARY
360
D2
102
}
330
3B
100
AcDbMaterial
  1
ByLayer
  0
MATERIAL
  5
3E
102
{ACAD_REACTORS
330
3B
102
}
102
{ACAD_XDICTIONARY
360
D6
102
}
330
3B
100
AcDbMaterial
  1
Global
  0
MLINESTYLE
  5
18
102
{ACAD_REACTORS
330
17
102
}
330
17
100
AcDbMlineStyle
  2
Standard
 70
     0
  3

 62
   256
 51
90.0
 52
90.0
 71
     2
 49
0.5
 62
   256
  6
BYLAYER
 49
-0.5
 62
   256
  6
BYLAYER
  0
ACAD_PROXY_OBJECT
  5
2F
102
{ACAD_REACTORS
330
2A
102
}
330
2A
100
AcDbProxyObject
 90
      499
 91
      501
 93
      436
310
42CC9915DA5C99599C985B595049028333333333333E3BF0000000000000FB0107901411070040501600405405064090741402480A0340
1001
ACAD
1000
AcDbSavedByObjectVersion
1070
     0
  0
ACAD_PROXY_OBJECT
  5
31
102
{ACAD_REACTORS
330
2A
102
}
330
2A
100
AcDbProxyObject
 90
      499
 91
      501
 93
      500
310
424CD108121A5919195B90640502408333333333333E3BF0000000000000FB01079024090700405020000000000001110200405405064090740C02480A0340
1001
ACAD
1000
AcDbSavedByObjectVersion
1070
     0
  0
ACAD_PROXY_OBJECT
  5
30
102
{ACAD_REACTORS
330
2A
102
}
330
2A
100
AcDbProxyObject
 90
      499
 91
      501
 93
      436
310
42CCD915DA5C99599C985B595059028333333333333E3BF0000000000000FB0107901411070040501600405405064090741402480A0340
1001
ACAD
1000
AcDbSavedByObjectVersion
1070
     0
  0
ACAD_PROXY_OBJECT
  5
32
102
{ACAD_REACTORS
330
2A
102
}
330
2A
100
AcDbProxyObject
 90
      499
 91
      501
 93
      388
310
4150985CDA58D07406404333333333333E3BF0000000000000FB0107A41107004050150841D405064090741402480A0350
1001
ACAD
1000
AcDbSavedByObjectVersion
1070
     0
  0
ACAD_PROXY_OBJECT
  5
36
102
{ACAD_REACTORS
330
2A
102
}
330
2A
100
AcDbProxyObject
 90
      499
 91
      501
 93
      428
310
42109C9A59DA1D195B90C409028333333333333E3BF0000000000000FB010790141107004050150841D405064090741402480A029950
1001
ACAD
1000
AcDbSavedByObjectVersion
1070
     0
  0
ACAD_PROXY_OBJECT
  5
3A
102
{ACAD_REACTORS
330
2A
102
}
330
2A
100
AcDbProxyObject
 90
      499
 91
      501
 93
      452
310
42D0DBDB1BDC90DA185B99D95104090240C333333333333E3BF0000000000000FB0108901411070040501508421405064090741402480A0350
1001
ACAD
1000
AcDbSavedByObjectVersion
1070
     0
  0
ACAD_PROXY_OBJECT
  5
34
102
{ACAD_REACTORS
330
2A
102
}
330
2A
100
AcDbProxyObject
 90
      499
 91
      501
 93
      500
310
4290DBDB98D95C1D1D585B10940D028333333333333E3BF0000000000000FB0107902409070040501000000000000111010841D405064090740C02480A0340
1001
ACAD
1000
AcDbSavedByObjectVersion
1070
     0
  0
ACAD_PROXY_OBJECT
  5
35
102
{ACAD_REACTORS
330
2A
102
}
330
2A
100
AcDbProxyObject
 90
      499
 91
      501
 93
      412
310
40D11A5B50B409028333333333333E3BF0000000000000FB010790141107004050150841D405064090741402480A02677FFFFFD0
1001
ACAD
1000
AcDbSavedByObjectVersion
1070
     0
  0
ACAD_PROXY_OBJECT
  5
39
102
{ACAD_REACTORS
330
2A
102
}
330
2A
100
AcDbProxyObject
 90
      499
 91
      501
 93
      444
310
42D19858D95C185D1D195C9B90F409028333333333333E3BF0000000000000FB010790141107004050150841D405064090741402480A0350
1001
ACAD
1000
AcDbSavedByObjectVersion
1070
     0
  0
ACAD_PROXY_OBJECT
  5
2B
102
{ACAD_REACTORS
330
2A
102
}
330
2A
100
AcDbProxyObject
 90
      499
 91
      501
 93
      388
310
41119B185D240901404333333333333E3BF0000000000000F9010740A41107004050150841D405064090741402480A1B50
1001
ACAD
1000
AcDbSavedByObjectVersion
1070
     0
  0
ACAD_PROXY_OBJECT
  5
2C
102
{ACAD_REACTORS
330
2A
102
}
330
2A
100
AcDbProxyObject
 90
      499
 91
      501
 93
      476
310
43519B185D15DA5D1A115919D95CD0140901404333333333333E3BF0000000000000F9010740901411070040501600405405064090741402480A1B50
1001
ACAD
1000
AcDbSavedByObjectVersion
1070
     0
  0
ACAD_PROXY_OBJECT
  5
2D
102
{ACAD_REACTORS
330
2A
102
}
330
2A
100
AcDbProxyObject
 90
      499
 91
      501
 93
      412
310
41D1DBDD5C985D5910240902404333333333333E3BF0000000000000F9010740A411070040501641D405064090741402480A1B50
1001
ACAD
1000
AcDbSavedByObjectVersion
1070
     0
  0
ACAD_PROXY_OBJECT
  5
2E
102
{ACAD_REACTORS
330
2A
102
}
330
2A
100
AcDbProxyObject
 90
      499
 91
      501
 93
      500
310
4411DBDD5C985D5915DA5D1A115919D95CD0340902404333333333333E3BF0000000000000F9010740901411070040501600405405064090741402480A1B50
1001
ACAD
1000
AcDbSavedByObjectVersion
1070
     0
  0
ACAD_PROXY_OBJECT
  5
38
102
{ACAD_REACTORS
330
2A
102
}
330
2A
100
AcDbProxyObject
 90
      499
 91
      501
 93
      444
310
42D31A5B995C185D1D195C9B90E409028333333333333E3BF0000000000000FB010790141107004050750841D405064090741402483A0350
1001
ACAD
1000
AcDbSavedByObjectVersion
1070
     0
  0
ACAD_PROXY_OBJECT
  5
33
102
{ACAD_REACTORS
330
2A
102
}
330
2A
100
AcDbProxyObject
 90
      499
 91
      501
 93
      420
310
425499585B1A5CDD1A58D08409028333333333333E3BF0000000000000FB01079019070040501508421405064090741402480A1B40
1001
ACAD
1000
AcDbSavedByObjectVersion
1070
     0
  0
ACAD_PROXY_OBJECT
  5
37
102
{ACAD_REACTORS
330
2A
102
}
330
2A
100
AcDbProxyObject
 90
      499
 91
      501
 93
      412
310
41D51A1A58DAD95B90D409028333333333333E3BF0000000000000FB010790141107004050150C41D405064090741402480A0350
1001
ACAD
1000
AcDbSavedByObjectVersion
1070
     0
  0
XRECORD
  5
B6
102
{ACAD_REACTORS
330
AD
102
}
330
AD
100
AcDbXrecord
 90
        0
  0
XRECORD
  5
CC
102
{ACAD_REACTORS
330
AD
102
}
330
AD
100
AcDbXrecord
1000
DSTYLE
1002
{
1070
   340
340
11
1002
}
  0
XRECORD
  5
B7
102
{ACAD_REACTORS
330
AD
102
}
330
AD
100
AcDbXrecord
  1
{A3BF34F9-5923-4AA7-A670-BE98320840D8}
  0
XRECORD
  5
B0
102
{ACAD_REACTORS
330
AD
102
}
330
AD
100
AcDbXrecord
  1

  0
XRECORD
  5
B5
102
{ACAD_REACTORS
330
AD
102
}
330
AD
100
AcDbXrecord
 90
        4
  0
XRECORD
  5
B2
102
{ACAD_REACTORS
330
AD
102
}
330
AD
100
AcDbXrecord
340
1A
  0
XRECORD
  5
B4
102
{ACAD_REACTORS
330
AD
102
}
330
AD
100
AcDbXrecord
 90
    10781
  0
XRECORD
  5
B3
102
{ACAD_REACTORS
330
AD
102
}
330
AD
100
AcDbXrecord
340
19
  0
XRECORD
  5
B9
102
{ACAD_REACTORS
330
AD
102
}
330
AD
100
AcDbXrecord
 40
0.0
  0
XRECORD
  5
BC
102
{ACAD_REACTORS
330
AD
102
}
330
AD
100
AcDbXrecord
340
0
  0
XRECORD
  5
C2
102
{ACAD_REACTORS
330
AD
102
}
330
AD
100
AcDbXrecord
 10
0.0
 20
0.0
 30
0.0
  0
XRECORD
  5
BE
102
{ACAD_REACTORS
330
AD
102
}
330
AD
100
AcDbXrecord
 10
0.0
 20
0.0
 30
0.0
  0
XRECORD
  5
C1
102
{ACAD_REACTORS
330
AD
102
}
330
AD
100
AcDbXrecord
 10
0.0
 20
0.0
 30
0.0
  0
XRECORD
  5
BF
102
{ACAD_REACTORS
330
AD
102
}
330
AD
100
AcDbXrecord
 10
0.0
 20
0.0
 30
0.0
  0
XRECORD
  5
C0
102
{ACAD_REACTORS
330
AD
102
}
330
AD
100
AcDbXrecord
 10
0.0
 20
0.0
 30
0.0
  0
XRECORD
  5
BD
102
{ACAD_REACTORS
330
AD
102
}
330
AD
100
AcDbXrecord
 10
0.0
 20
0.0
 30
0.0
  0
XRECORD
  5
BA
102
{ACAD_REACTORS
330
AD
102
}
330
AD
100
AcDbXrecord
340
0
  0
XRECORD
  5
BB
102
{ACAD_REACTORS
330
AD
102
}
330
AD
100
AcDbXrecord
 70
     0
  0
XRECORD
  5
B1
102
{ACAD_REACTORS
330
AD
102
}
330
AD
100
AcDbXrecord
  1

  0
XRECORD
  5
AE
102
{ACAD_REACTORS
330
AD
102
}
330
AD
100
AcDbXrecord
 90
        1
  0
XRECORD
  5
AF
102
{ACAD_REACTORS
330
AD
102
}
330
AD
100
AcDbXrecord
 90
       70
  0
XRECORD
  5
C5
102
{ACAD_REACTORS
330
AD
102
}
330
AD
100
AcDbXrecord
340
0
  0
XRECORD
  5
CB
102
{ACAD_REACTORS
330
AD
102
}
330
AD
100
AcDbXrecord
 10
0.0
 20
0.0
 30
0.0
  0
XRECORD
  5
C7
102
{ACAD_REACTORS
330
AD
102
}
330
AD
100
AcDbXrecord
 10
0.0
 20
0.0
 30
0.0
  0
XRECORD
  5
CA
102
{ACAD_REACTORS
330
AD
102
}
330
AD
100
AcDbXrecord
 10
0.0
 20
0.0
 30
0.0
  0
XRECORD
  5
C8
102
{ACAD_REACTORS
330
AD
102
}
330
AD
100
AcDbXrecord
 10
0.0
 20
0.0
 30
0.0
  0
XRECORD
  5
C9
102
{ACAD_REACTORS
330
AD
102
}
330
AD
100
AcDbXrecord
 10
0.0
 20
0.0
 30
0.0
  0
XRECORD
  5
C6
102
{ACAD_REACTORS
330
AD
102
}
330
AD
100
AcDbXrecord
 10
0.0
 20
0.0
 30
0.0
  0
XRECORD
  5
C3
102
{ACAD_REACTORS
330
AD
102
}
330
AD
100
AcDbXrecord
340
0
  0
XRECORD
  5
C4
102
{ACAD_REACTORS
330
AD
102
}
330
AD
100
AcDbXrecord
 70
     0
  0
XRECORD
  5
B8
102
{ACAD_REACTORS
330
AD
102
}
330
AD
100
AcDbXrecord
  1
{FAEB1C32-E019-11D5-929B-00C0DF256EC4}
  0
DICTIONARYVAR
  5
D0
102
{ACAD_REACTORS
330
CD
102
}
330
CD
100
DictionaryVariables
280
     0
  1
2
  0
DICTIONARYVAR
  5
D1
102
{ACAD_REACTORS
330
CD
102
}
330
CD
100
DictionaryVariables
280
     0
  1
1
  0
DICTIONARY
  5
D4
330
3D
100
AcDbDictionary
280
     1
  3
ACAD_XREC_ROUNDTRIP
360
D5
  0
DICTIONARY
  5
D2
330
3C
100
AcDbDictionary
280
     1
  3
ACAD_XREC_ROUNDTRIP
360
D3
  0
DICTIONARY
  5
D6
330
3E
100
AcDbDictionary
280
     1
  3
ACAD_XREC_ROUNDTRIP
360
D7
  0
XRECORD
  5
D5
102
{ACAD_REACTORS
330
D4
102
}
330
D4
100
AcDbXrecord
102
MATERIAL
148
0.0
149
0.0
149
0.0
 93
        0
 94
      127
282
     0
 72
     1
 77
     1
171
     1
175
     1
179
     1
273
     0
  0
XRECORD
  5
D3
102
{ACAD_REACTORS
330
D2
102
}
330
D2
100
AcDbXrecord
102
MATERIAL
148
0.0
149
0.0
149
0.0
 93
        0
 94
      127
282
     0
 72
     1
 77
     1
171
     1
175
     1
179
     1
273
     0
  0
XRECORD
  5
D7
102
{ACAD_REACTORS
330
D6
102
}
330
D6
100
AcDbXrecord
102
MATERIAL
148
0.0
149
0.0
149
0.0
 93
        0
 94
      127
282
     0
 72
     1
 77
     1
171
     1
175
     1
179
     1
273
     0
  0
ENDSEC
  0
EOF
