  0
SECTION
  2
HEADER
  9
$ACADVER
  1
AC1014
  9
$ACADMAINTVER
 70
     9
  9
$DWGCODEPAGE
  3
ANSI_1250
  9
$INSBASE
 10
0.0
 20
0.0
 30
0.0
  9
$EXTMIN
 10
-27.3403
 20
-28.9985
 30
0.0
  9
$EXTMAX
 10
27.2568
 20
29.0531
 30
0.0
  9
$LIMMIN
 10
0.0
 20
0.0
  9
$LIMMAX
 10
12.0
 20
9.0
  9
$ORTHOMODE
 70
     0
  9
$REGENMODE
 70
     1
  9
$FILLMODE
 70
     1
  9
$QTEXTMODE
 70
     0
  9
$MIRRTEXT
 70
     1
  9
$DRAGMODE
 70
     2
  9
$LTSCALE
 40
1.0
  9
$OSMODE
 70
    37
  9
$ATTMODE
 70
     1
  9
$TEXTSIZE
 40
0.2
  9
$TRACEWID
 40
0.05
  9
$TEXTSTYLE
  7
STANDARD
  9
$CLAYER
  8
0
  9
$CELTYPE
  6
BYLAYER
  9
$CECOLOR
 62
   256
  9
$CELTSCALE
 40
1.0
  9
$DELOBJ
 70
     1
  9
$DISPSILH
 70
     0
  9
$DIMSCALE
 40
1.0
  9
$DIMASZ
 40
0.18
  9
$DIMEXO
 40
0.0625
  9
$DIMDLI
 40
0.38
  9
$DIMRND
 40
0.0
  9
$DIMDLE
 40
0.0
  9
$DIMEXE
 40
0.18
  9
$DIMTP
 40
0.0
  9
$DIMTM
 40
0.0
  9
$DIMTXT
 40
0.18
  9
$DIMCEN
 40
0.09
  9
$DIMTSZ
 40
0.0
  9
$DIMTOL
 70
     0
  9
$DIMLIM
 70
     0
  9
$DIMTIH
 70
     1
  9
$DIMTOH
 70
     1
  9
$DIMSE1
 70
     0
  9
$DIMSE2
 70
     0
  9
$DIMTAD
 70
     0
  9
$DIMZIN
 70
     0
  9
$DIMBLK
  1

  9
$DIMASO
 70
     1
  9
$DIMSHO
 70
     1
  9
$DIMPOST
  1

  9
$DIMAPOST
  1

  9
$DIMALT
 70
     0
  9
$DIMALTD
 70
     2
  9
$DIMALTF
 40
25.4
  9
$DIMLFAC
 40
1.0
  9
$DIMTOFL
 70
     0
  9
$DIMTVP
 40
0.0
  9
$DIMTIX
 70
     0
  9
$DIMSOXD
 70
     0
  9
$DIMSAH
 70
     0
  9
$DIMBLK1
  1

  9
$DIMBLK2
  1

  9
$DIMSTYLE
  2
STANDARD
  9
$DIMCLRD
 70
     0
  9
$DIMCLRE
 70
     0
  9
$DIMCLRT
 70
     0
  9
$DIMTFAC
 40
1.0
  9
$DIMGAP
 40
0.09
  9
$DIMJUST
 70
     0
  9
$DIMSD1
 70
     0
  9
$DIMSD2
 70
     0
  9
$DIMTOLJ
 70
     1
  9
$DIMTZIN
 70
     0
  9
$DIMALTZ
 70
     0
  9
$DIMALTTZ
 70
     0
  9
$DIMFIT
 70
     3
  9
$DIMUPT
 70
     0
  9
$DIMUNIT
 70
     2
  9
$DIMDEC
 70
     4
  9
$DIMTDEC
 70
     4
  9
$DIMALTU
 70
     2
  9
$DIMALTTD
 70
     2
  9
$DIMTXSTY
  7
STANDARD
  9
$DIMAUNIT
 70
     0
  9
$LUNITS
 70
     2
  9
$LUPREC
 70
     4
  9
$SKETCHINC
 40
0.1
  9
$FILLETRAD
 40
0.5
  9
$AUNITS
 70
     0
  9
$AUPREC
 70
     0
  9
$MENU
  1
.
  9
$ELEVATION
 40
0.0
  9
$PELEVATION
 40
0.0
  9
$THICKNESS
 40
0.0
  9
$LIMCHECK
 70
     0
  9
$CHAMFERA
 40
0.5
  9
$CHAMFERB
 40
0.5
  9
$CHAMFERC
 40
1.0
  9
$CHAMFERD
 40
0.0
  9
$SKPOLY
 70
     0
  9
$TDCREATE
 40
2456247.404718704
  9
$TDUPDATE
 40
2456247.404718715
  9
$TDINDWG
 40
0.0000000116
  9
$TDUSRTIMER
 40
0.0000000116
  9
$USRTIMER
 70
     1
  9
$ANGBASE
 50
0.0
  9
$ANGDIR
 70
     0
  9
$PDMODE
 70
     0
  9
$PDSIZE
 40
0.0
  9
$PLINEWID
 40
0.0
  9
$COORDS
 70
     1
  9
$SPLFRAME
 70
     0
  9
$SPLINETYPE
 70
     6
  9
$SPLINESEGS
 70
     8
  9
$ATTDIA
 70
     0
  9
$ATTREQ
 70
     1
  9
$HANDLING
 70
     1
  9
$HANDSEED
  5
E0
  9
$SURFTAB1
 70
     6
  9
$SURFTAB2
 70
     6
  9
$SURFTYPE
 70
     6
  9
$SURFU
 70
     6
  9
$SURFV
 70
     6
  9
$UCSNAME
  2

  9
$UCSORG
 10
0.0
 20
0.0
 30
0.0
  9
$UCSXDIR
 10
1.0
 20
0.0
 30
0.0
  9
$UCSYDIR
 10
0.0
 20
1.0
 30
0.0
  9
$PUCSNAME
  2

  9
$PUCSORG
 10
0.0
 20
0.0
 30
0.0
  9
$PUCSXDIR
 10
1.0
 20
0.0
 30
0.0
  9
$PUCSYDIR
 10
0.0
 20
1.0
 30
0.0
  9
$USERI1
 70
     0
  9
$USERI2
 70
     0
  9
$USERI3
 70
     0
  9
$USERI4
 70
     0
  9
$USERI5
 70
     0
  9
$USERR1
 40
0.0
  9
$USERR2
 40
0.0
  9
$USERR3
 40
0.0
  9
$USERR4
 40
0.0
  9
$USERR5
 40
0.0
  9
$WORLDVIEW
 70
     1
  9
$SHADEDGE
 70
     3
  9
$SHADEDIF
 70
    70
  9
$TILEMODE
 70
     1
  9
$MAXACTVP
 70
    64
  9
$PINSBASE
 10
0.0
 20
0.0
 30
0.0
  9
$PLIMCHECK
 70
     0
  9
$PEXTMIN
 10
1.000000000000000E+20
 20
1.000000000000000E+20
 30
1.000000000000000E+20
  9
$PEXTMAX
 10
-1.000000000000000E+20
 20
-1.000000000000000E+20
 30
-1.000000000000000E+20
  9
$PLIMMIN
 10
0.0
 20
0.0
  9
$PLIMMAX
 10
12.0
 20
9.0
  9
$UNITMODE
 70
     0
  9
$VISRETAIN
 70
     1
  9
$PLINEGEN
 70
     0
  9
$PSLTSCALE
 70
     1
  9
$TREEDEPTH
 70
  3020
  9
$PICKSTYLE
 70
     1
  9
$CMLSTYLE
  2
STANDARD
  9
$CMLJUST
 70
     0
  9
$CMLSCALE
 40
1.0
  9
$PROXYGRAPHICS
 70
     1
  9
$MEASUREMENT
 70
     0
  0
ENDSEC
  0
SECTION
  2
CLASSES
  0
CLASS
  1
ACDBDICTIONARYWDFLT
  2
AcDbDictionaryWithDefault
  3
ObjectDBX Classes
 90
        0
280
     0
281
     0
  0
CLASS
  1
VISUALSTYLE
  2
AcDbVisualStyle
  3
ObjectDBX Classes
 90
     4095
280
     0
281
     0
  0
CLASS
  1
MATERIAL
  2
AcDbMaterial
  3
ObjectDBX Classes
 90
     1153
280
     0
281
     0
  0
CLASS
  1
DICTIONARYVAR
  2
AcDbDictionaryVar
  3
ObjectDBX Classes
 90
        0
280
     0
281
     0
  0
CLASS
  1
XRECORD
  2
AcDbXrecord
  3
AutoCAD 2000
 90
        0
280
     0
281
     0
  0
CLASS
  1
LWPOLYLINE
  2
AcDbPolyline
  3
AutoCAD 2000
 90
        0
280
     0
281
     1
  0
CLASS
  1
HATCH
  2
AcDbHatch
  3
AutoCAD 2000
 90
        0
280
     0
281
     1
  0
CLASS
  1
ACDBPLACEHOLDER
  2
AcDbPlaceHolder
  3
ObjectDBX Classes
 90
        0
280
     0
281
     0
  0
CLASS
  1
LAYOUT
  2
AcDbLayout
  3
ObjectDBX Classes
 90
        0
280
     0
281
     0
  0
ENDSEC
  0
SECTION
  2
TABLES
  0
TABLE
  2
VPORT
  5
8
330
0
100
AcDbSymbolTable
 70
     1
  0
VPORT
  5
29
330
8
100
AcDbSymbolTableRecord
100
AcDbViewportTableRecord
  2
*ACTIVE
 70
     0
 10
0.0
 20
0.0
 11
1.0
 21
1.0
 12
10.42990654205607
 22
4.5
 13
0.0
 23
0.0
 14
0.5
 24
0.5
 15
0.5
 25
0.5
 16
0.0
 26
0.0
 36
1.0
 17
0.0
 27
0.0
 37
0.0
 40
9.0
 41
1.972972972850329
 42
50.0
 43
0.0
 44
0.0
 50
0.0
 51
0.0
 71
     0
 72
   100
 73
     1
 74
     3
 75
     0
 76
     0
 77
     0
 78
     0
  0
ENDTAB
  0
TABLE
  2
LTYPE
  5
5
330
0
100
AcDbSymbolTable
 70
     5
  0
LTYPE
  5
14
330
5
100
AcDbSymbolTableRecord
100
AcDbLinetypeTableRecord
  2
BYBLOCK
 70
     0
  3

 72
    65
 73
     0
 40
0.0
  0
LTYPE
  5
15
330
5
100
AcDbSymbolTableRecord
100
AcDbLinetypeTableRecord
  2
BYLAYER
 70
     0
  3

 72
    65
 73
     0
 40
0.0
  0
LTYPE
  5
16
330
5
100
AcDbSymbolTableRecord
100
AcDbLinetypeTableRecord
  2
CONTINUOUS
 70
     0
  3
Solid line
 72
    65
 73
     0
 40
0.0
  0
LTYPE
  5
4B
330
5
100
AcDbSymbolTableRecord
100
AcDbLinetypeTableRecord
  2
NEW_LINE1
 70
     0
  3

 72
    65
 73
     4
 40
1.2
 49
0.5
 74
     4
 75
     0
340
0
 46
1.0
 50
0.0
 44
0.0
 45
0.0
 49
-0.3
 74
     4
 75
     0
340
0
 46
1.0
 50
0.0
 44
0.0
 45
0.0
 49
0.1
 74
     4
 75
     0
340
0
 46
1.0
 50
0.0
 44
0.0
 45
0.0
 49
-0.3
 74
     4
 75
     0
340
0
 46
1.0
 50
0.0
 44
0.0
 45
0.0
  0
LTYPE
  5
4D
330
5
100
AcDbSymbolTableRecord
100
AcDbLinetypeTableRecord
  2
NEW_LINE2
 70
     0
  3

 72
    65
 73
     4
 40
1.2
 49
0.5
 74
     4
 75
     0
340
0
 46
1.0
 50
0.0
 44
0.0
 45
0.0
 49
-0.3
 74
     4
 75
     0
340
0
 46
1.0
 50
0.0
 44
0.0
 45
0.0
 49
0.1
 74
     4
 75
     0
340
0
 46
1.0
 50
0.0
 44
0.0
 45
0.0
 49
-0.3
 74
     4
 75
     0
340
0
 46
1.0
 50
0.0
 44
0.0
 45
0.0
  0
LTYPE
  5
52
330
5
100
AcDbSymbolTableRecord
100
AcDbLinetypeTableRecord
  2
NEW_LINE3
 70
     0
  3

 72
    65
 73
     4
 40
1.2
 49
0.5
 74
     4
 75
     0
340
0
 46
1.0
 50
0.0
 44
0.0
 45
0.0
 49
-0.3
 74
     4
 75
     0
340
0
 46
1.0
 50
0.0
 44
0.0
 45
0.0
 49
0.1
 74
     4
 75
     0
340
0
 46
1.0
 50
0.0
 44
0.0
 45
0.0
 49
-0.3
 74
     4
 75
     0
340
0
 46
1.0
 50
0.0
 44
0.0
 45
0.0
  0
LTYPE
  5
A1
330
5
100
AcDbSymbolTableRecord
100
AcDbLinetypeTableRecord
  2
NEW_LINE4
 70
     0
  3

 72
    65
 73
     4
 40
1.2
 49
0.5
 74
     4
 75
     0
340
0
 46
1.0
 50
0.0
 44
0.0
 45
0.0
 49
-0.3
 74
     4
 75
     0
340
0
 46
1.0
 50
0.0
 44
0.0
 45
0.0
 49
0.1
 74
     4
 75
     0
340
0
 46
1.0
 50
0.0
 44
0.0
 45
0.0
 49
-0.3
 74
     4
 75
     0
340
0
 46
1.0
 50
0.0
 44
0.0
 45
0.0
  0
ENDTAB
  0
TABLE
  2
LAYER
  5
2
330
0
100
AcDbSymbolTable
 70
     2
  0
LAYER
  5
10
330
2
100
AcDbSymbolTableRecord
100
AcDbLayerTableRecord
  2
0
 70
     0
 62
     7
  6
CONTINUOUS
  0
LAYER
  5
40
330
2
100
AcDbSymbolTableRecord
100
AcDbLayerTableRecord
  2
DEFAULT_1
 70
     0
 62
     7
  6
CONTINUOUS
  0
ENDTAB
  0
TABLE
  2
STYLE
  5
3
330
0
100
AcDbSymbolTable
 70
     1
  0
STYLE
  5
11
330
3
100
AcDbSymbolTableRecord
100
AcDbTextStyleTableRecord
  2
STANDARD
 70
     0
 40
0.0
 41
1.0
 50
0.0
 71
     0
 42
0.2
  3
txt
  4

  0
ENDTAB
  0
TABLE
  2
VIEW
  5
6
330
0
100
AcDbSymbolTable
 70
     0
  0
ENDTAB
  0
TABLE
  2
UCS
  5
7
330
0
100
AcDbSymbolTable
 70
     0
  0
ENDTAB
  0
TABLE
  2
APPID
  5
9
330
0
100
AcDbSymbolTable
 70
     2
  0
APPID
  5
12
330
9
100
AcDbSymbolTableRecord
100
AcDbRegAppTableRecord
  2
ACAD
 70
     0
  0
APPID
  5
3F
330
9
100
AcDbSymbolTableRecord
100
AcDbRegAppTableRecord
  2
ODA
 70
     0
  0
ENDTAB
  0
TABLE
  2
DIMSTYLE
  5
A
330
0
100
AcDbSymbolTable
 70
     1
  0
DIMSTYLE
105
27
330
A
100
AcDbSymbolTableRecord
100
AcDbDimStyleTableRecord
  2
STANDARD
 70
     0
  3

  4

  5

  6

  7

 40
1.0
 41
0.18
 42
0.0625
 43
0.38
 44
0.18
 45
0.0
 46
0.0
 47
0.0
 48
0.0
140
0.18
141
0.09
142
0.0
143
25.4
144
1.0
145
0.0
146
1.0
147
0.09
 71
     0
 72
     0
 73
     1
 74
     1
 75
     0
 76
     0
 77
     0
 78
     0
170
     0
171
     2
172
     0
173
     0
174
     0
175
     0
176
     0
177
     0
178
     0
270
     2
271
     4
272
     4
273
     2
274
     2
340
11
275
     0
280
     0
281
     0
282
     0
283
     1
284
     0
285
     0
286
     0
287
     3
288
     0
  0
ENDTAB
  0
TABLE
  2
BLOCK_RECORD
  5
1
330
0
100
AcDbSymbolTable
 70
     1
  0
BLOCK_RECORD
  5
1F
330
1
100
AcDbSymbolTableRecord
100
AcDbBlockTableRecord
  2
*MODEL_SPACE
  0
BLOCK_RECORD
  5
1B
330
1
100
AcDbSymbolTableRecord
100
AcDbBlockTableRecord
  2
*PAPER_SPACE
  0
ENDTAB
  0
ENDSEC
  0
SECTION
  2
BLOCKS
  0
BLOCK
  5
20
330
1F
100
AcDbEntity
  8
0
100
AcDbBlockBegin
  2
*MODEL_SPACE
 70
     0
 10
0.0
 20
0.0
 30
0.0
  3
*MODEL_SPACE
  1

  0
ENDBLK
  5
21
330
1F
100
AcDbEntity
  8
0
100
AcDbBlockEnd
  0
BLOCK
  5
1C
330
1B
100
AcDbEntity
 67
     1
  8
0
100
AcDbBlockBegin
  2
*PAPER_SPACE
 70
     0
 10
0.0
 20
0.0
 30
0.0
  3
*PAPER_SPACE
  1

  0
ENDBLK
  5
1D
330
1B
100
AcDbEntity
 67
     1
  8
0
100
AcDbBlockEnd
  0
ENDSEC
  0
SECTION
  2
ENTITIES
  0
SPLINE
  5
41
330
1F
100
AcDbEntity
  8
DEFAULT_1
 62
   250
100
AcDbSpline
210
0.0
220
0.0
230
1.0
 70
    24
 71
     3
 72
     8
 73
     4
 74
     0
 42
0.0000000001
 43
0.0000000001
 40
0.0
 40
0.0
 40
0.0
 40
0.0
 40
1.0
 40
1.0
 40
1.0
 40
1.0
 10
-21.2945
 20
0.7601
 30
0.0
 10
-21.2945
 20
0.7601
 30
0.0
 10
-4.7601
 20
0.7601
 30
0.0
 10
-4.7601
 20
0.7601
 30
0.0
  0
SPLINE
  5
42
330
1F
100
AcDbEntity
  8
DEFAULT_1
 62
   250
100
AcDbSpline
210
0.0
220
0.0
230
1.0
 70
    24
 71
     3
 72
     8
 73
     4
 74
     0
 42
0.0000000001
 43
0.0000000001
 40
0.0
 40
0.0
 40
0.0
 40
0.0
 40
1.0
 40
1.0
 40
1.0
 40
1.0
 10
26.3109
 20
-4.1951
 30
0.0
 10
26.3109
 20
-4.1951
 30
0.0
 10
26.3109
 20
22.1043
 30
0.0
 10
26.3109
 20
22.1043
 30
0.0
  0
SPLINE
  5
43
330
1F
100
AcDbEntity
  8
DEFAULT_1
 62
   250
100
AcDbSpline
210
0.0
220
0.0
230
1.0
 70
    24
 71
     3
 72
     8
 73
     4
 74
     0
 42
0.0000000001
 43
0.0000000001
 40
0.0
 40
0.0
 40
0.0
 40
0.0
 40
1.0
 40
1.0
 40
1.0
 40
1.0
 10
26.133
 20
20.8919
 30
0.0
 10
26.133
 20
20.8919
 30
0.0
 10
-14.7312
 20
20.8919
 30
0.0
 10
-14.7312
 20
20.8919
 30
0.0
  0
SPLINE
  5
44
330
1F
100
AcDbEntity
  8
DEFAULT_1
 62
   250
100
AcDbSpline
210
0.0
220
0.0
230
1.0
 70
    24
 71
     3
 72
     8
 73
     4
 74
     0
 42
0.0000000001
 43
0.0000000001
 40
0.0
 40
0.0
 40
0.0
 40
0.0
 40
1.0
 40
1.0
 40
1.0
 40
1.0
 10
-18.5371
 20
16.7186
 30
0.0
 10
-18.5371
 20
16.7186
 30
0.0
 10
-18.5371
 20
26.4675
 30
0.0
 10
-18.5371
 20
26.4675
 30
0.0
  0
SPLINE
  5
45
330
1F
100
AcDbEntity
  8
DEFAULT_1
 62
   250
100
AcDbSpline
210
0.0
220
0.0
230
1.0
 70
    24
 71
     3
 72
     8
 73
     4
 74
     0
 42
0.0000000001
 43
0.0000000001
 40
0.0
 40
0.0
 40
0.0
 40
0.0
 40
1.0
 40
1.0
 40
1.0
 40
1.0
 10
-11.2711
 20
21.7238
 30
0.0
 10
-11.2711
 20
21.7238
 30
0.0
 10
-11.2711
 20
26.5237
 30
0.0
 10
-11.2711
 20
26.5237
 30
0.0
  0
SPLINE
  5
46
330
1F
100
AcDbEntity
  8
DEFAULT_1
 62
   250
100
AcDbSpline
210
0.0
220
0.0
230
1.0
 70
    24
 71
     3
 72
     8
 73
     4
 74
     0
 42
0.0000000001
 43
0.0000000001
 40
0.0
 40
0.0
 40
0.0
 40
0.0
 40
1.0
 40
1.0
 40
1.0
 40
1.0
 10
-5.82
 20
25.7389
 30
0.0
 10
-5.82
 20
25.7389
 30
0.0
 10
-24.464
 20
25.7389
 30
0.0
 10
-24.464
 20
25.7389
 30
0.0
  0
SPLINE
  5
47
330
1F
100
AcDbEntity
  8
DEFAULT_1
 62
   250
100
AcDbSpline
210
0.0
220
0.0
230
1.0
 70
    24
 71
     3
 72
     8
 73
     4
 74
     0
 42
0.0000000001
 43
0.0000000001
 40
0.0
 40
0.0
 40
0.0
 40
0.0
 40
1.0
 40
1.0
 40
1.0
 40
1.0
 10
-18.918
 20
-9.5354
 30
0.0
 10
-18.918
 20
-9.5354
 30
0.0
 10
-25.7777
 20
-9.5354
 30
0.0
 10
-25.7777
 20
-9.5354
 30
0.0
  0
SPLINE
  5
48
330
1F
100
AcDbEntity
  8
DEFAULT_1
 62
   250
100
AcDbSpline
210
0.0
220
0.0
230
1.0
 70
    24
 71
     3
 72
     8
 73
     4
 74
     0
 42
0.0000000001
 43
0.0000000001
 40
0.0
 40
0.0
 40
0.0
 40
0.0
 40
1.0
 40
1.0
 40
1.0
 40
1.0
 10
-20.0021
 20
16.3092
 30
0.0
 10
-20.0021
 20
16.3092
 30
0.0
 10
-25.4859
 20
16.3092
 30
0.0
 10
-25.4859
 20
16.3092
 30
0.0
  0
SPLINE
  5
49
330
1F
100
AcDbEntity
  8
DEFAULT_1
 62
   250
100
AcDbSpline
210
0.0
220
0.0
230
1.0
 70
    24
 71
     3
 72
     8
 73
     4
 74
     0
 42
0.0000000001
 43
0.0000000001
 40
0.0
 40
0.0
 40
0.0
 40
0.0
 40
1.0
 40
1.0
 40
1.0
 40
1.0
 10
-24.7186
 20
15.1369
 30
0.0
 10
-24.7186
 20
15.1369
 30
0.0
 10
-24.7186
 20
-8.8145
 30
0.0
 10
-24.7186
 20
-8.8145
 30
0.0
  0
SPLINE
  5
4A
330
1F
100
AcDbEntity
  8
DEFAULT_1
  6
NEW_LINE1
 62
   250
100
AcDbSpline
210
0.0
220
0.0
230
1.0
 70
    24
 71
     3
 72
     8
 73
     4
 74
     0
 42
0.0000000001
 43
0.0000000001
 40
0.0
 40
0.0
 40
0.0
 40
0.0
 40
1.0
 40
1.0
 40
1.0
 40
1.0
 10
-14.8544
 20
21.6124
 30
0.0
 10
-14.8544
 20
21.6124
 30
0.0
 10
-14.8544
 20
-10.8699
 30
0.0
 10
-14.8544
 20
-10.8699
 30
0.0
  0
SPLINE
  5
4C
330
1F
100
AcDbEntity
  8
DEFAULT_1
  6
NEW_LINE2
 62
   250
100
AcDbSpline
210
0.0
220
0.0
230
1.0
 70
    24
 71
     3
 72
     8
 73
     4
 74
     0
 42
0.0000000001
 43
0.0000000001
 40
0.0
 40
0.0
 40
0.0
 40
0.0
 40
1.0
 40
1.0
 40
1.0
 40
1.0
 10
-15.9071
 20
-9.5354
 30
0.0
 10
-15.9071
 20
-9.5354
 30
0.0
 10
27.3402
 20
-9.5354
 30
0.0
 10
27.3402
 20
-9.5354
 30
0.0
  0
SPLINE
  5
4E
330
1F
100
AcDbEntity
  8
DEFAULT_1
 62
   250
100
AcDbSpline
210
0.0
220
0.0
230
1.0
 70
    24
 71
     3
 72
     8
 73
     4
 74
     0
 42
0.0000000001
 43
0.0000000001
 40
0.0
 40
0.0
 40
0.0
 40
0.0
 40
1.0
 40
1.0
 40
1.0
 40
1.0
 10
7.9603
 20
-12.9844
 30
0.0
 10
7.9603
 20
-12.9844
 30
0.0
 10
8.4592
 20
-12.9844
 30
0.0
 10
8.4592
 20
-12.9844
 30
0.0
  0
SPLINE
  5
4F
330
1F
100
AcDbEntity
  8
DEFAULT_1
 62
   250
100
AcDbSpline
210
0.0
220
0.0
230
1.0
 70
    24
 71
     3
 72
     8
 73
     4
 74
     0
 42
0.0000000001
 43
0.0000000001
 40
0.0
 40
0.0
 40
0.0
 40
0.0
 40
1.0
 40
1.0
 40
1.0
 40
1.0
 10
7.6045
 20
-6.1467
 30
0.0
 10
7.6045
 20
-6.1467
 30
0.0
 10
8.1033
 20
-6.1467
 30
0.0
 10
8.1033
 20
-6.1467
 30
0.0
  0
SPLINE
  5
50
330
1F
100
AcDbEntity
  8
DEFAULT_1
 62
   250
100
AcDbSpline
210
0.0
220
0.0
230
1.0
 70
    24
 71
     3
 72
     8
 73
     4
 74
     0
 42
0.0000000001
 43
0.0000000001
 40
0.0
 40
0.0
 40
0.0
 40
0.0
 40
1.0
 40
1.0
 40
1.0
 40
1.0
 10
8.0319
 20
2.2775
 30
0.0
 10
8.0319
 20
2.2775
 30
0.0
 10
8.0319
 20
-16.8671
 30
0.0
 10
8.0319
 20
-16.8671
 30
0.0
  0
SPLINE
  5
51
330
1F
100
AcDbEntity
  8
DEFAULT_1
  6
NEW_LINE3
 62
   250
100
AcDbSpline
210
0.0
220
0.0
230
1.0
 70
    24
 71
     3
 72
     8
 73
     4
 74
     0
 42
0.0000000001
 43
0.0000000001
 40
0.0
 40
0.0
 40
0.0
 40
0.0
 40
1.0
 40
1.0
 40
1.0
 40
1.0
 10
-13.277
 20
-9.1034
 30
0.0
 10
-13.277
 20
-9.1034
 30
0.0
 10
-13.277
 20
-29.0531
 30
0.0
 10
-13.277
 20
-29.0531
 30
0.0
  0
SPLINE
  5
53
330
1F
100
AcDbEntity
  8
DEFAULT_1
 62
   250
100
AcDbSpline
210
0.0
220
0.0
230
1.0
 70
    11
 71
     3
 72
    84
 73
    80
 74
     0
 42
0.0000000001
 43
0.0000000001
 40
0.0
 40
0.0
 40
0.0
 40
0.0
 40
0.0476190476190476
 40
0.0476190476190476
 40
0.0476190476190476
 40
0.0476190476190476
 40
0.0952380952380952
 40
0.0952380952380952
 40
0.0952380952380952
 40
0.0952380952380952
 40
0.1428571428571428
 40
0.1428571428571428
 40
0.1428571428571428
 40
0.1428571428571428
 40
0.1904761904761905
 40
0.1904761904761905
 40
0.1904761904761905
 40
0.1904761904761905
 40
0.2380952380952381
 40
0.2380952380952381
 40
0.2380952380952381
 40
0.2380952380952381
 40
0.2857142857142857
 40
0.2857142857142857
 40
0.2857142857142857
 40
0.2857142857142857
 40
0.3333333333333333
 40
0.3333333333333333
 40
0.3333333333333333
 40
0.3333333333333333
 40
0.3809523809523809
 40
0.3809523809523809
 40
0.3809523809523809
 40
0.3809523809523809
 40
0.4285714285714285
 40
0.4285714285714285
 40
0.4285714285714285
 40
0.4285714285714285
 40
0.4761904761904762
 40
0.4761904761904762
 40
0.4761904761904762
 40
0.4761904761904762
 40
0.5238095238095238
 40
0.5238095238095238
 40
0.5238095238095238
 40
0.5238095238095238
 40
0.5714285714285714
 40
0.5714285714285714
 40
0.5714285714285714
 40
0.5714285714285714
 40
0.6190476190476191
 40
0.6190476190476191
 40
0.6190476190476191
 40
0.6190476190476191
 40
0.6666666666666666
 40
0.6666666666666666
 40
0.6666666666666666
 40
0.6666666666666666
 40
0.7142857142857143
 40
0.7142857142857143
 40
0.7142857142857143
 40
0.7142857142857143
 40
0.7619047619047619
 40
0.7619047619047619
 40
0.7619047619047619
 40
0.7619047619047619
 40
0.8095238095238095
 40
0.8095238095238095
 40
0.8095238095238095
 40
0.8095238095238095
 40
0.8571428571428571
 40
0.8571428571428571
 40
0.8571428571428571
 40
0.8571428571428571
 40
0.9047619047619048
 40
0.9047619047619048
 40
0.9047619047619048
 40
0.9047619047619048
 40
1.0
 40
1.0
 40
1.0
 40
1.0
 10
-9.0484
 20
3.5362
 30
0.0
 10
-9.0484
 20
3.5362
 30
0.0
 10
-8.817
 20
3.7953
 30
0.0
 10
-8.817
 20
3.7953
 30
0.0
 10
-8.817
 20
3.7953
 30
0.0
 10
-8.817
 20
3.7953
 30
0.0
 10
-8.6806
 20
3.6796
 30
0.0
 10
-8.6806
 20
3.6796
 30
0.0
 10
-8.6806
 20
3.6796
 30
0.0
 10
-8.6806
 20
3.6796
 30
0.0
 10
-8.9228
 20
3.4068
 30
0.0
 10
-8.9228
 20
3.4068
 30
0.0
 10
-8.9228
 20
3.4068
 30
0.0
 10
-8.8438
 20
3.2892
 30
0.0
 10
-8.7907
 20
3.1862
 30
0.0
 10
-8.7629
 20
3.0983
 30
0.0
 10
-8.7629
 20
3.0983
 30
0.0
 10
-8.7262
 20
2.9825
 30
0.0
 10
-8.7079
 20
2.8527
 30
0.0
 10
-8.7079
 20
2.7097
 30
0.0
 10
-8.7079
 20
2.7097
 30
0.0
 10
-8.7079
 20
2.5028
 30
0.0
 10
-8.7497
 20
2.3184
 30
0.0
 10
-8.8335
 20
2.1571
 30
0.0
 10
-8.8335
 20
2.1571
 30
0.0
 10
-8.9172
 20
1.9952
 30
0.0
 10
-9.0343
 20
1.873
 30
0.0
 10
-9.1853
 20
1.7902
 30
0.0
 10
-9.1853
 20
1.7902
 30
0.0
 10
-9.3368
 20
1.7079
 30
0.0
 10
-9.4971
 20
1.6665
 30
0.0
 10
-9.6669
 20
1.6665
 30
0.0
 10
-9.6669
 20
1.6665
 30
0.0
 10
-9.7939
 20
1.6665
 30
0.0
 10
-9.9087
 20
1.6843
 30
0.0
 10
-10.0117
 20
1.7201
 30
0.0
 10
-10.0117
 20
1.7201
 30
0.0
 10
-10.0907
 20
1.7478
 30
0.0
 10
-10.1829
 20
1.8005
 30
0.0
 10
-10.2888
 20
1.8786
 30
0.0
 10
-10.2888
 20
1.8786
 30
0.0
 10
-10.2888
 20
1.8786
 30
0.0
 10
-10.5202
 20
1.6194
 30
0.0
 10
-10.5202
 20
1.6194
 30
0.0
 10
-10.5202
 20
1.6194
 30
0.0
 10
-10.5202
 20
1.6194
 30
0.0
 10
-10.6566
 20
1.7351
 30
0.0
 10
-10.6566
 20
1.7351
 30
0.0
 10
-10.6566
 20
1.7351
 30
0.0
 10
-10.6566
 20
1.7351
 30
0.0
 10
-10.4139
 20
2.0065
 30
0.0
 10
-10.4139
 20
2.0065
 30
0.0
 10
-10.4139
 20
2.0065
 30
0.0
 10
-10.5042
 20
2.1434
 30
0.0
 10
-10.5644
 20
2.2605
 30
0.0
 10
-10.5945
 20
2.3574
 30
0.0
 10
-10.5945
 20
2.3574
 30
0.0
 10
-10.6246
 20
2.4543
 30
0.0
 10
-10.6401
 20
2.571
 30
0.0
 10
-10.6401
 20
2.7069
 30
0.0
 10
-10.6401
 20
2.7069
 30
0.0
 10
-10.6401
 20
2.9143
 30
0.0
 10
-10.5987
 20
3.0992
 30
0.0
 10
-10.516
 20
3.2615
 30
0.0
 10
-10.516
 20
3.2615
 30
0.0
 10
-10.4332
 20
3.4238
 30
0.0
 10
-10.3175
 20
3.5465
 30
0.0
 10
-10.1679
 20
3.6302
 30
0.0
 10
-10.1679
 20
3.6302
 30
0.0
 10
-10.0188
 20
3.7135
 30
0.0
 10
-9.8527
 20
3.7554
 30
0.0
 10
-9.6698
 20
3.7554
 30
0.0
 10
-9.6698
 20
3.7554
 30
0.0
 10
-9.5465
 20
3.7554
 30
0.0
 10
-9.4388
 20
3.7394
 30
0.0
 10
-9.3466
 20
3.7064
 30
0.0
 10
-9.3466
 20
3.7064
 30
0.0
 10
-9.2544
 20
3.674
 30
0.0
 10
-9.1547
 20
3.6171
 30
0.0
 10
-9.0484
 20
3.5362
 30
0.0
  0
SPLINE
  5
54
330
1F
100
AcDbEntity
  8
DEFAULT_1
 62
   250
100
AcDbSpline
210
0.0
220
0.0
230
1.0
 70
    11
 71
     3
 72
    32
 73
    28
 74
     0
 42
0.0000000001
 43
0.0000000001
 40
0.0
 40
0.0
 40
0.0
 40
0.0
 40
0.125
 40
0.125
 40
0.125
 40
0.125
 40
0.25
 40
0.25
 40
0.25
 40
0.25
 40
0.375
 40
0.375
 40
0.375
 40
0.375
 40
0.5
 40
0.5
 40
0.5
 40
0.5
 40
0.625
 40
0.625
 40
0.625
 40
0.625
 40
0.75
 40
0.75
 40
0.75
 40
0.75
 40
1.0
 40
1.0
 40
1.0
 40
1.0
 10
-9.2135
 20
3.3504
 30
0.0
 10
-9.3001
 20
3.4181
 30
0.0
 10
-9.3758
 20
3.4647
 30
0.0
 10
-9.4402
 20
3.4896
 30
0.0
 10
-9.4402
 20
3.4896
 30
0.0
 10
-9.5051
 20
3.5141
 30
0.0
 10
-9.5813
 20
3.5268
 30
0.0
 10
-9.6684
 20
3.5268
 30
0.0
 10
-9.6684
 20
3.5268
 30
0.0
 10
-9.8697
 20
3.5268
 30
0.0
 10
-10.0357
 20
3.4586
 30
0.0
 10
-10.1674
 20
3.3222
 30
0.0
 10
-10.1674
 20
3.3222
 30
0.0
 10
-10.2987
 20
3.1857
 30
0.0
 10
-10.3645
 20
2.9821
 30
0.0
 10
-10.3645
 20
2.7107
 30
0.0
 10
-10.3645
 20
2.7107
 30
0.0
 10
-10.3645
 20
2.6044
 30
0.0
 10
-10.3542
 20
2.5098
 30
0.0
 10
-10.3339
 20
2.427
 30
0.0
 10
-10.3339
 20
2.427
 30
0.0
 10
-10.3193
 20
2.3654
 30
0.0
 10
-10.2888
 20
2.2897
 30
0.0
 10
-10.2417
 20
2.1999
 30
0.0
 10
-10.2417
 20
2.1999
 30
0.0
 10
-10.2417
 20
2.1999
 30
0.0
 10
-9.2135
 20
3.3504
 30
0.0
 10
-9.2135
 20
3.3504
 30
0.0
  0
SPLINE
  5
55
330
1F
100
AcDbEntity
  8
DEFAULT_1
 62
   250
100
AcDbSpline
210
0.0
220
0.0
230
1.0
 70
    11
 71
     3
 72
    28
 73
    24
 74
     0
 42
0.0000000001
 43
0.0000000001
 40
0.0
 40
0.0
 40
0.0
 40
0.0
 40
0.1428571428571428
 40
0.1428571428571428
 40
0.1428571428571428
 40
0.1428571428571428
 40
0.2857142857142857
 40
0.2857142857142857
 40
0.2857142857142857
 40
0.2857142857142857
 40
0.4285714285714285
 40
0.4285714285714285
 40
0.4285714285714285
 40
0.4285714285714285
 40
0.5714285714285714
 40
0.5714285714285714
 40
0.5714285714285714
 40
0.5714285714285714
 40
0.7142857142857143
 40
0.7142857142857143
 40
0.7142857142857143
 40
0.7142857142857143
 40
1.0
 40
1.0
 40
1.0
 40
1.0
 10
-9.1006
 20
3.2083
 30
0.0
 10
-9.1006
 20
3.2083
 30
0.0
 10
-10.1246
 20
2.062
 30
0.0
 10
-10.1246
 20
2.062
 30
0.0
 10
-10.1246
 20
2.062
 30
0.0
 10
-10.0541
 20
2.0042
 30
0.0
 10
-9.9887
 20
1.9637
 30
0.0
 10
-9.9289
 20
1.9407
 30
0.0
 10
-9.9289
 20
1.9407
 30
0.0
 10
-9.8509
 20
1.9101
 30
0.0
 10
-9.7662
 20
1.8951
 30
0.0
 10
-9.6754
 20
1.8951
 30
0.0
 10
-9.6754
 20
1.8951
 30
0.0
 10
-9.475
 20
1.8951
 30
0.0
 10
-9.3099
 20
1.9656
 30
0.0
 10
-9.1792
 20
2.1072
 30
0.0
 10
-9.1792
 20
2.1072
 30
0.0
 10
-9.0489
 20
2.2488
 30
0.0
 10
-8.9835
 20
2.4473
 30
0.0
 10
-8.9835
 20
2.7027
 30
0.0
 10
-8.9835
 20
2.7027
 30
0.0
 10
-8.9835
 20
2.8936
 30
0.0
 10
-9.0225
 20
3.0625
 30
0.0
 10
-9.1006
 20
3.2083
 30
0.0
  0
SPLINE
  5
56
330
1F
100
AcDbEntity
  8
DEFAULT_1
 62
   250
100
AcDbSpline
210
0.0
220
0.0
230
1.0
 70
    11
 71
     3
 72
   124
 73
   120
 74
     0
 42
0.0000000001
 43
0.0000000001
 40
0.0
 40
0.0
 40
0.0
 40
0.0
 40
0.032258064516129
 40
0.032258064516129
 40
0.032258064516129
 40
0.032258064516129
 40
0.0645161290322581
 40
0.0645161290322581
 40
0.0645161290322581
 40
0.0645161290322581
 40
0.0967741935483871
 40
0.0967741935483871
 40
0.0967741935483871
 40
0.0967741935483871
 40
0.1290322580645161
 40
0.1290322580645161
 40
0.1290322580645161
 40
0.1290322580645161
 40
0.1612903225806452
 40
0.1612903225806452
 40
0.1612903225806452
 40
0.1612903225806452
 40
0.1935483870967742
 40
0.1935483870967742
 40
0.1935483870967742
 40
0.1935483870967742
 40
0.2258064516129032
 40
0.2258064516129032
 40
0.2258064516129032
 40
0.2258064516129032
 40
0.2580645161290323
 40
0.2580645161290323
 40
0.2580645161290323
 40
0.2580645161290323
 40
0.2903225806451613
 40
0.2903225806451613
 40
0.2903225806451613
 40
0.2903225806451613
 40
0.3225806451612903
 40
0.3225806451612903
 40
0.3225806451612903
 40
0.3225806451612903
 40
0.3548387096774194
 40
0.3548387096774194
 40
0.3548387096774194
 40
0.3548387096774194
 40
0.3870967741935484
 40
0.3870967741935484
 40
0.3870967741935484
 40
0.3870967741935484
 40
0.4193548387096774
 40
0.4193548387096774
 40
0.4193548387096774
 40
0.4193548387096774
 40
0.4516129032258064
 40
0.4516129032258064
 40
0.4516129032258064
 40
0.4516129032258064
 40
0.4838709677419355
 40
0.4838709677419355
 40
0.4838709677419355
 40
0.4838709677419355
 40
0.5161290322580645
 40
0.5161290322580645
 40
0.5161290322580645
 40
0.5161290322580645
 40
0.5483870967741935
 40
0.5483870967741935
 40
0.5483870967741935
 40
0.5483870967741935
 40
0.5806451612903226
 40
0.5806451612903226
 40
0.5806451612903226
 40
0.5806451612903226
 40
0.6129032258064516
 40
0.6129032258064516
 40
0.6129032258064516
 40
0.6129032258064516
 40
0.6451612903225806
 40
0.6451612903225806
 40
0.6451612903225806
 40
0.6451612903225806
 40
0.6774193548387096
 40
0.6774193548387096
 40
0.6774193548387096
 40
0.6774193548387096
 40
0.7096774193548387
 40
0.7096774193548387
 40
0.7096774193548387
 40
0.7096774193548387
 40
0.7419354838709677
 40
0.7419354838709677
 40
0.7419354838709677
 40
0.7419354838709677
 40
0.7741935483870968
 40
0.7741935483870968
 40
0.7741935483870968
 40
0.7741935483870968
 40
0.8064516129032258
 40
0.8064516129032258
 40
0.8064516129032258
 40
0.8064516129032258
 40
0.8387096774193549
 40
0.8387096774193549
 40
0.8387096774193549
 40
0.8387096774193549
 40
0.8709677419354839
 40
0.8709677419354839
 40
0.8709677419354839
 40
0.8709677419354839
 40
0.9032258064516129
 40
0.9032258064516129
 40
0.9032258064516129
 40
0.9032258064516129
 40
0.9354838709677419
 40
0.9354838709677419
 40
0.9354838709677419
 40
0.9354838709677419
 40
1.0
 40
1.0
 40
1.0
 40
1.0
 10
-8.4572
 20
2.2342
 30
0.0
 10
-8.4572
 20
2.2342
 30
0.0
 10
-8.2093
 20
2.2671
 30
0.0
 10
-8.2093
 20
2.2671
 30
0.0
 10
-8.2093
 20
2.2671
 30
0.0
 10
-8.1806
 20
2.1265
 30
0.0
 10
-8.1321
 20
2.0254
 30
0.0
 10
-8.0639
 20
1.9633
 30
0.0
 10
-8.0639
 20
1.9633
 30
0.0
 10
-7.9953
 20
1.9012
 30
0.0
 10
-7.912
 20
1.8701
 30
0.0
 10
-7.8137
 20
1.8701
 30
0.0
 10
-7.8137
 20
1.8701
 30
0.0
 10
-7.6971
 20
1.8701
 30
0.0
 10
-7.5983
 20
1.9106
 30
0.0
 10
-7.5178
 20
1.9915
 30
0.0
 10
-7.5178
 20
1.9915
 30
0.0
 10
-7.4379
 20
2.0724
 30
0.0
 10
-7.3974
 20
2.1726
 30
0.0
 10
-7.3974
 20
2.2921
 30
0.0
 10
-7.3974
 20
2.2921
 30
0.0
 10
-7.3974
 20
2.4059
 30
0.0
 10
-7.4346
 20
2.5
 30
0.0
 10
-7.5089
 20
2.5738
 30
0.0
 10
-7.5089
 20
2.5738
 30
0.0
 10
-7.5837
 20
2.6476
 30
0.0
 10
-7.6782
 20
2.6848
 30
0.0
 10
-7.793
 20
2.6848
 30
0.0
 10
-7.793
 20
2.6848
 30
0.0
 10
-7.84
 20
2.6848
 30
0.0
 10
-7.8984
 20
2.6754
 30
0.0
 10
-7.968
 20
2.6571
 30
0.0
 10
-7.968
 20
2.6571
 30
0.0
 10
-7.968
 20
2.6571
 30
0.0
 10
-7.9402
 20
2.8748
 30
0.0
 10
-7.9402
 20
2.8748
 30
0.0
 10
-7.9402
 20
2.8748
 30
0.0
 10
-7.9238
 20
2.873
 30
0.0
 10
-7.9106
 20
2.872
 30
0.0
 10
-7.9003
 20
2.872
 30
0.0
 10
-7.9003
 20
2.872
 30
0.0
 10
-7.7949
 20
2.872
 30
0.0
 10
-7.6999
 20
2.8998
 30
0.0
 10
-7.6152
 20
2.9548
 30
0.0
 10
-7.6152
 20
2.9548
 30
0.0
 10
-7.5305
 20
3.0098
 30
0.0
 10
-7.4882
 20
3.095
 30
0.0
 10
-7.4882
 20
3.2097
 30
0.0
 10
-7.4882
 20
3.2097
 30
0.0
 10
-7.4882
 20
3.3005
 30
0.0
 10
-7.5193
 20
3.3762
 30
0.0
 10
-7.5809
 20
3.4355
 30
0.0
 10
-7.5809
 20
3.4355
 30
0.0
 10
-7.6425
 20
3.4952
 30
0.0
 10
-7.722
 20
3.5254
 30
0.0
 10
-7.8194
 20
3.5254
 30
0.0
 10
-7.8194
 20
3.5254
 30
0.0
 10
-7.9158
 20
3.5254
 30
0.0
 10
-7.9962
 20
3.4948
 30
0.0
 10
-8.0602
 20
3.4346
 30
0.0
 10
-8.0602
 20
3.4346
 30
0.0
 10
-8.1246
 20
3.3739
 30
0.0
 10
-8.166
 20
3.2826
 30
0.0
 10
-8.1844
 20
3.1613
 30
0.0
 10
-8.1844
 20
3.1613
 30
0.0
 10
-8.1844
 20
3.1613
 30
0.0
 10
-8.4322
 20
3.2055
 30
0.0
 10
-8.4322
 20
3.2055
 30
0.0
 10
-8.4322
 20
3.2055
 30
0.0
 10
-8.4021
 20
3.372
 30
0.0
 10
-8.333
 20
3.5009
 30
0.0
 10
-8.2257
 20
3.5921
 30
0.0
 10
-8.2257
 20
3.5921
 30
0.0
 10
-8.118
 20
3.6834
 30
0.0
 10
-7.9844
 20
3.7295
 30
0.0
 10
-7.8245
 20
3.7295
 30
0.0
 10
-7.8245
 20
3.7295
 30
0.0
 10
-7.7145
 20
3.7295
 30
0.0
 10
-7.6129
 20
3.7055
 30
0.0
 10
-7.5202
 20
3.6585
 30
0.0
 10
-7.5202
 20
3.6585
 30
0.0
 10
-7.4275
 20
3.611
 30
0.0
 10
-7.3565
 20
3.5465
 30
0.0
 10
-7.3071
 20
3.4647
 30
0.0
 10
-7.3071
 20
3.4647
 30
0.0
 10
-7.2582
 20
3.3828
 30
0.0
 10
-7.2333
 20
3.2963
 30
0.0
 10
-7.2333
 20
3.2041
 30
0.0
 10
-7.2333
 20
3.2041
 30
0.0
 10
-7.2333
 20
3.1171
 30
0.0
 10
-7.2568
 20
3.0376
 30
0.0
 10
-7.3038
 20
2.9656
 30
0.0
 10
-7.3038
 20
2.9656
 30
0.0
 10
-7.3509
 20
2.8941
 30
0.0
 10
-7.42
 20
2.8372
 30
0.0
 10
-7.5117
 20
2.7949
 30
0.0
 10
-7.5117
 20
2.7949
 30
0.0
 10
-7.3923
 20
2.7676
 30
0.0
 10
-7.2996
 20
2.7102
 30
0.0
 10
-7.2333
 20
2.6232
 30
0.0
 10
-7.2333
 20
2.6232
 30
0.0
 10
-7.1674
 20
2.5366
 30
0.0
 10
-7.1345
 20
2.428
 30
0.0
 10
-7.1345
 20
2.2977
 30
0.0
 10
-7.1345
 20
2.2977
 30
0.0
 10
-7.1345
 20
2.1213
 30
0.0
 10
-7.1985
 20
1.9717
 30
0.0
 10
-7.3273
 20
1.849
 30
0.0
 10
-7.3273
 20
1.849
 30
0.0
 10
-7.4558
 20
1.7262
 30
0.0
 10
-7.6185
 20
1.6651
 30
0.0
 10
-7.8151
 20
1.6651
 30
0.0
 10
-7.8151
 20
1.6651
 30
0.0
 10
-7.9924
 20
1.6651
 30
0.0
 10
-8.1397
 20
1.7177
 30
0.0
 10
-8.2568
 20
1.8236
 30
0.0
 10
-8.2568
 20
1.8236
 30
0.0
 10
-8.3739
 20
1.9289
 30
0.0
 10
-8.4407
 20
2.0658
 30
0.0
 10
-8.4572
 20
2.2342
 30
0.0
  0
SPLINE
  5
57
330
1F
100
AcDbEntity
  8
DEFAULT_1
 62
   250
100
AcDbSpline
210
0.0
220
0.0
230
1.0
 70
    11
 71
     3
 72
    92
 73
    88
 74
     0
 42
0.0000000001
 43
0.0000000001
 40
0.0
 40
0.0
 40
0.0
 40
0.0
 40
0.0434782608695652
 40
0.0434782608695652
 40
0.0434782608695652
 40
0.0434782608695652
 40
0.0869565217391304
 40
0.0869565217391304
 40
0.0869565217391304
 40
0.0869565217391304
 40
0.1304347826086956
 40
0.1304347826086956
 40
0.1304347826086956
 40
0.1304347826086956
 40
0.1739130434782609
 40
0.1739130434782609
 40
0.1739130434782609
 40
0.1739130434782609
 40
0.2173913043478261
 40
0.2173913043478261
 40
0.2173913043478261
 40
0.2173913043478261
 40
0.2608695652173913
 40
0.2608695652173913
 40
0.2608695652173913
 40
0.2608695652173913
 40
0.3043478260869565
 40
0.3043478260869565
 40
0.3043478260869565
 40
0.3043478260869565
 40
0.3478260869565217
 40
0.3478260869565217
 40
0.3478260869565217
 40
0.3478260869565217
 40
0.391304347826087
 40
0.391304347826087
 40
0.391304347826087
 40
0.391304347826087
 40
0.4347826086956522
 40
0.4347826086956522
 40
0.4347826086956522
 40
0.4347826086956522
 40
0.4782608695652174
 40
0.4782608695652174
 40
0.4782608695652174
 40
0.4782608695652174
 40
0.5217391304347826
 40
0.5217391304347826
 40
0.5217391304347826
 40
0.5217391304347826
 40
0.5652173913043478
 40
0.5652173913043478
 40
0.5652173913043478
 40
0.5652173913043478
 40
0.6086956521739131
 40
0.6086956521739131
 40
0.6086956521739131
 40
0.6086956521739131
 40
0.6521739130434783
 40
0.6521739130434783
 40
0.6521739130434783
 40
0.6521739130434783
 40
0.6956521739130435
 40
0.6956521739130435
 40
0.6956521739130435
 40
0.6956521739130435
 40
0.7391304347826086
 40
0.7391304347826086
 40
0.7391304347826086
 40
0.7391304347826086
 40
0.782608695652174
 40
0.782608695652174
 40
0.782608695652174
 40
0.782608695652174
 40
0.8260869565217391
 40
0.8260869565217391
 40
0.8260869565217391
 40
0.8260869565217391
 40
0.8695652173913043
 40
0.8695652173913043
 40
0.8695652173913043
 40
0.8695652173913043
 40
0.9130434782608695
 40
0.9130434782608695
 40
0.9130434782608695
 40
0.9130434782608695
 40
1.0
 40
1.0
 40
1.0
 40
1.0
 10
-5.5851
 20
1.9393
 30
0.0
 10
-5.5851
 20
1.9393
 30
0.0
 10
-5.5851
 20
1.7008
 30
0.0
 10
-5.5851
 20
1.7008
 30
0.0
 10
-5.5851
 20
1.7008
 30
0.0
 10
-5.5851
 20
1.7008
 30
0.0
 10
-6.9205
 20
1.7008
 30
0.0
 10
-6.9205
 20
1.7008
 30
0.0
 10
-6.9205
 20
1.7008
 30
0.0
 10
-6.9224
 20
1.7605
 30
0.0
 10
-6.913
 20
1.8179
 30
0.0
 10
-6.8918
 20
1.873
 30
0.0
 10
-6.8918
 20
1.873
 30
0.0
 10
-6.8579
 20
1.9642
 30
0.0
 10
-6.8034
 20
2.0536
 30
0.0
 10
-6.7286
 20
2.142
 30
0.0
 10
-6.7286
 20
2.142
 30
0.0
 10
-6.6533
 20
2.23
 30
0.0
 10
-6.5451
 20
2.332
 30
0.0
 10
-6.404
 20
2.4477
 30
0.0
 10
-6.404
 20
2.4477
 30
0.0
 10
-6.1844
 20
2.6279
 30
0.0
 10
-6.0357
 20
2.7704
 30
0.0
 10
-5.9586
 20
2.8758
 30
0.0
 10
-5.9586
 20
2.8758
 30
0.0
 10
-5.8815
 20
2.9807
 30
0.0
 10
-5.8429
 20
3.0804
 30
0.0
 10
-5.8429
 20
3.174
 30
0.0
 10
-5.8429
 20
3.174
 30
0.0
 10
-5.8429
 20
3.2723
 30
0.0
 10
-5.8782
 20
3.3551
 30
0.0
 10
-5.9482
 20
3.4228
 30
0.0
 10
-5.9482
 20
3.4228
 30
0.0
 10
-6.0188
 20
3.4901
 30
0.0
 10
-6.1105
 20
3.5239
 30
0.0
 10
-6.2234
 20
3.5239
 30
0.0
 10
-6.2234
 20
3.5239
 30
0.0
 10
-6.3429
 20
3.5239
 30
0.0
 10
-6.4384
 20
3.4882
 30
0.0
 10
-6.5099
 20
3.4162
 30
0.0
 10
-6.5099
 20
3.4162
 30
0.0
 10
-6.5818
 20
3.3447
 30
0.0
 10
-6.618
 20
3.2455
 30
0.0
 10
-6.619
 20
3.119
 30
0.0
 10
-6.619
 20
3.119
 30
0.0
 10
-6.619
 20
3.119
 30
0.0
 10
-6.8739
 20
3.1448
 30
0.0
 10
-6.8739
 20
3.1448
 30
0.0
 10
-6.8739
 20
3.1448
 30
0.0
 10
-6.8565
 20
3.3353
 30
0.0
 10
-6.7907
 20
3.4802
 30
0.0
 10
-6.6768
 20
3.5799
 30
0.0
 10
-6.6768
 20
3.5799
 30
0.0
 10
-6.563
 20
3.6796
 30
0.0
 10
-6.4097
 20
3.7295
 30
0.0
 10
-6.2178
 20
3.7295
 30
0.0
 10
-6.2178
 20
3.7295
 30
0.0
 10
-6.024
 20
3.7295
 30
0.0
 10
-5.8706
 20
3.6754
 30
0.0
 10
-5.7577
 20
3.5682
 30
0.0
 10
-5.7577
 20
3.5682
 30
0.0
 10
-5.6444
 20
3.4604
 30
0.0
 10
-5.5879
 20
3.3273
 30
0.0
 10
-5.5879
 20
3.1683
 30
0.0
 10
-5.5879
 20
3.1683
 30
0.0
 10
-5.5879
 20
3.0874
 30
0.0
 10
-5.6044
 20
3.0079
 30
0.0
 10
-5.6378
 20
2.9299
 30
0.0
 10
-5.6378
 20
2.9299
 30
0.0
 10
-5.6707
 20
2.8518
 30
0.0
 10
-5.7258
 20
2.7695
 30
0.0
 10
-5.8024
 20
2.6834
 30
0.0
 10
-5.8024
 20
2.6834
 30
0.0
 10
-5.8791
 20
2.5968
 30
0.0
 10
-6.0066
 20
2.4783
 30
0.0
 10
-6.1848
 20
2.3278
 30
0.0
 10
-6.1848
 20
2.3278
 30
0.0
 10
-6.3335
 20
2.2027
 30
0.0
 10
-6.429
 20
2.118
 30
0.0
 10
-6.4713
 20
2.0733
 30
0.0
 10
-6.4713
 20
2.0733
 30
0.0
 10
-6.5136
 20
2.0291
 30
0.0
 10
-6.5484
 20
1.9844
 30
0.0
 10
-6.5762
 20
1.9393
 30
0.0
 10
-6.5762
 20
1.9393
 30
0.0
 10
-6.5762
 20
1.9393
 30
0.0
 10
-5.5851
 20
1.9393
 30
0.0
 10
-5.5851
 20
1.9393
 30
0.0
  0
SPLINE
  5
58
330
1F
100
AcDbEntity
  8
DEFAULT_1
 62
   250
100
AcDbSpline
210
0.0
220
0.0
230
1.0
 70
    11
 71
     3
 72
   116
 73
   112
 74
     0
 42
0.0000000001
 43
0.0000000001
 40
0.0
 40
0.0
 40
0.0
 40
0.0
 40
0.0344827586206897
 40
0.0344827586206897
 40
0.0344827586206897
 40
0.0344827586206897
 40
0.0689655172413793
 40
0.0689655172413793
 40
0.0689655172413793
 40
0.0689655172413793
 40
0.103448275862069
 40
0.103448275862069
 40
0.103448275862069
 40
0.103448275862069
 40
0.1379310344827586
 40
0.1379310344827586
 40
0.1379310344827586
 40
0.1379310344827586
 40
0.1724137931034483
 40
0.1724137931034483
 40
0.1724137931034483
 40
0.1724137931034483
 40
0.2068965517241379
 40
0.2068965517241379
 40
0.2068965517241379
 40
0.2068965517241379
 40
0.2413793103448276
 40
0.2413793103448276
 40
0.2413793103448276
 40
0.2413793103448276
 40
0.2758620689655172
 40
0.2758620689655172
 40
0.2758620689655172
 40
0.2758620689655172
 40
0.3103448275862069
 40
0.3103448275862069
 40
0.3103448275862069
 40
0.3103448275862069
 40
0.3448275862068966
 40
0.3448275862068966
 40
0.3448275862068966
 40
0.3448275862068966
 40
0.3793103448275862
 40
0.3793103448275862
 40
0.3793103448275862
 40
0.3793103448275862
 40
0.4137931034482759
 40
0.4137931034482759
 40
0.4137931034482759
 40
0.4137931034482759
 40
0.4482758620689655
 40
0.4482758620689655
 40
0.4482758620689655
 40
0.4482758620689655
 40
0.4827586206896552
 40
0.4827586206896552
 40
0.4827586206896552
 40
0.4827586206896552
 40
0.5172413793103449
 40
0.5172413793103449
 40
0.5172413793103449
 40
0.5172413793103449
 40
0.5517241379310345
 40
0.5517241379310345
 40
0.5517241379310345
 40
0.5517241379310345
 40
0.5862068965517241
 40
0.5862068965517241
 40
0.5862068965517241
 40
0.5862068965517241
 40
0.6206896551724138
 40
0.6206896551724138
 40
0.6206896551724138
 40
0.6206896551724138
 40
0.6551724137931034
 40
0.6551724137931034
 40
0.6551724137931034
 40
0.6551724137931034
 40
0.6896551724137931
 40
0.6896551724137931
 40
0.6896551724137931
 40
0.6896551724137931
 40
0.7241379310344828
 40
0.7241379310344828
 40
0.7241379310344828
 40
0.7241379310344828
 40
0.7586206896551724
 40
0.7586206896551724
 40
0.7586206896551724
 40
0.7586206896551724
 40
0.7931034482758621
 40
0.7931034482758621
 40
0.7931034482758621
 40
0.7931034482758621
 40
0.8275862068965517
 40
0.8275862068965517
 40
0.8275862068965517
 40
0.8275862068965517
 40
0.8620689655172413
 40
0.8620689655172413
 40
0.8620689655172413
 40
0.8620689655172413
 40
0.896551724137931
 40
0.896551724137931
 40
0.896551724137931
 40
0.896551724137931
 40
0.9310344827586207
 40
0.9310344827586207
 40
0.9310344827586207
 40
0.9310344827586207
 40
1.0
 40
1.0
 40
1.0
 40
1.0
 10
0.1515
 20
21.6196
 30
0.0
 10
0.1515
 20
21.6196
 30
0.0
 10
0.1515
 20
23.0829
 30
0.0
 10
0.1515
 20
23.0829
 30
0.0
 10
0.1515
 20
23.0829
 30
0.0
 10
0.1515
 20
23.0829
 30
0.0
 10
0.373
 20
23.0829
 30
0.0
 10
0.373
 20
23.0829
 30
0.0
 10
0.373
 20
23.0829
 30
0.0
 10
0.373
 20
23.0829
 30
0.0
 10
0.373
 20
22.8778
 30
0.0
 10
0.373
 20
22.8778
 30
0.0
 10
0.373
 20
22.8778
 30
0.0
 10
0.4191
 20
22.9493
 30
0.0
 10
0.4803
 20
23.0072
 30
0.0
 10
0.5565
 20
23.0505
 30
0.0
 10
0.5565
 20
23.0505
 30
0.0
 10
0.6327
 20
23.0942
 30
0.0
 10
0.7197
 20
23.1163
 30
0.0
 10
0.817
 20
23.1163
 30
0.0
 10
0.817
 20
23.1163
 30
0.0
 10
0.9252
 20
23.1163
 30
0.0
 10
1.0141
 20
23.0937
 30
0.0
 10
1.0833
 20
23.0486
 30
0.0
 10
1.0833
 20
23.0486
 30
0.0
 10
1.1529
 20
23.0034
 30
0.0
 10
1.2018
 20
22.9409
 30
0.0
 10
1.23
 20
22.86
 30
0.0
 10
1.23
 20
22.86
 30
0.0
 10
1.3462
 20
23.0307
 30
0.0
 10
1.4967
 20
23.1163
 30
0.0
 10
1.682
 20
23.1163
 30
0.0
 10
1.682
 20
23.1163
 30
0.0
 10
1.8274
 20
23.1163
 30
0.0
 10
1.9389
 20
23.0759
 30
0.0
 10
2.0169
 20
22.9954
 30
0.0
 10
2.0169
 20
22.9954
 30
0.0
 10
2.095
 20
22.915
 30
0.0
 10
2.1341
 20
22.7913
 30
0.0
 10
2.1341
 20
22.6243
 30
0.0
 10
2.1341
 20
22.6243
 30
0.0
 10
2.1341
 20
22.6243
 30
0.0
 10
2.1341
 20
21.6196
 30
0.0
 10
2.1341
 20
21.6196
 30
0.0
 10
2.1341
 20
21.6196
 30
0.0
 10
2.1341
 20
21.6196
 30
0.0
 10
1.8876
 20
21.6196
 30
0.0
 10
1.8876
 20
21.6196
 30
0.0
 10
1.8876
 20
21.6196
 30
0.0
 10
1.8876
 20
21.6196
 30
0.0
 10
1.8876
 20
22.5415
 30
0.0
 10
1.8876
 20
22.5415
 30
0.0
 10
1.8876
 20
22.5415
 30
0.0
 10
1.8876
 20
22.6408
 30
0.0
 10
1.8796
 20
22.7123
 30
0.0
 10
1.8636
 20
22.756
 30
0.0
 10
1.8636
 20
22.756
 30
0.0
 10
1.8471
 20
22.7993
 30
0.0
 10
1.818
 20
22.8346
 30
0.0
 10
1.7761
 20
22.8614
 30
0.0
 10
1.7761
 20
22.8614
 30
0.0
 10
1.7338
 20
22.8877
 30
0.0
 10
1.6839
 20
22.9013
 30
0.0
 10
1.627
 20
22.9013
 30
0.0
 10
1.627
 20
22.9013
 30
0.0
 10
1.524
 20
22.9013
 30
0.0
 10
1.4389
 20
22.867
 30
0.0
 10
1.3707
 20
22.7983
 30
0.0
 10
1.3707
 20
22.7983
 30
0.0
 10
1.3029
 20
22.7301
 30
0.0
 10
1.2686
 20
22.6205
 30
0.0
 10
1.2686
 20
22.47
 30
0.0
 10
1.2686
 20
22.47
 30
0.0
 10
1.2686
 20
22.47
 30
0.0
 10
1.2686
 20
21.6196
 30
0.0
 10
1.2686
 20
21.6196
 30
0.0
 10
1.2686
 20
21.6196
 30
0.0
 10
1.2686
 20
21.6196
 30
0.0
 10
1.0207
 20
21.6196
 30
0.0
 10
1.0207
 20
21.6196
 30
0.0
 10
1.0207
 20
21.6196
 30
0.0
 10
1.0207
 20
21.6196
 30
0.0
 10
1.0207
 20
22.5702
 30
0.0
 10
1.0207
 20
22.5702
 30
0.0
 10
1.0207
 20
22.5702
 30
0.0
 10
1.0207
 20
22.6807
 30
0.0
 10
1.0005
 20
22.7635
 30
0.0
 10
0.96
 20
22.8186
 30
0.0
 10
0.96
 20
22.8186
 30
0.0
 10
0.9196
 20
22.8736
 30
0.0
 10
0.8537
 20
22.9013
 30
0.0
 10
0.7615
 20
22.9013
 30
0.0
 10
0.7615
 20
22.9013
 30
0.0
 10
0.6919
 20
22.9013
 30
0.0
 10
0.6275
 20
22.883
 30
0.0
 10
0.5682
 20
22.8458
 30
0.0
 10
0.5682
 20
22.8458
 30
0.0
 10
0.5089
 20
22.8092
 30
0.0
 10
0.4657
 20
22.7555
 30
0.0
 10
0.4393
 20
22.685
 30
0.0
 10
0.4393
 20
22.685
 30
0.0
 10
0.4125
 20
22.614
 30
0.0
 10
0.3993
 20
22.5119
 30
0.0
 10
0.3993
 20
22.3788
 30
0.0
 10
0.3993
 20
22.3788
 30
0.0
 10
0.3993
 20
22.3788
 30
0.0
 10
0.3993
 20
21.6196
 30
0.0
 10
0.3993
 20
21.6196
 30
0.0
 10
0.3993
 20
21.6196
 30
0.0
 10
0.3993
 20
21.6196
 30
0.0
 10
0.1515
 20
21.6196
 30
0.0
 10
0.1515
 20
21.6196
 30
0.0
  0
SPLINE
  5
59
330
1F
100
AcDbEntity
  8
DEFAULT_1
 62
   250
100
AcDbSpline
210
0.0
220
0.0
230
1.0
 70
    11
 71
     3
 72
   112
 73
   108
 74
     0
 42
0.0000000001
 43
0.0000000001
 40
0.0
 40
0.0
 40
0.0
 40
0.0
 40
0.0357142857142857
 40
0.0357142857142857
 40
0.0357142857142857
 40
0.0357142857142857
 40
0.0714285714285714
 40
0.0714285714285714
 40
0.0714285714285714
 40
0.0714285714285714
 40
0.1071428571428571
 40
0.1071428571428571
 40
0.1071428571428571
 40
0.1071428571428571
 40
0.1428571428571428
 40
0.1428571428571428
 40
0.1428571428571428
 40
0.1428571428571428
 40
0.1785714285714286
 40
0.1785714285714286
 40
0.1785714285714286
 40
0.1785714285714286
 40
0.2142857142857143
 40
0.2142857142857143
 40
0.2142857142857143
 40
0.2142857142857143
 40
0.25
 40
0.25
 40
0.25
 40
0.25
 40
0.2857142857142857
 40
0.2857142857142857
 40
0.2857142857142857
 40
0.2857142857142857
 40
0.3214285714285715
 40
0.3214285714285715
 40
0.3214285714285715
 40
0.3214285714285715
 40
0.3571428571428572
 40
0.3571428571428572
 40
0.3571428571428572
 40
0.3571428571428572
 40
0.3928571428571428
 40
0.3928571428571428
 40
0.3928571428571428
 40
0.3928571428571428
 40
0.4285714285714285
 40
0.4285714285714285
 40
0.4285714285714285
 40
0.4285714285714285
 40
0.4642857142857143
 40
0.4642857142857143
 40
0.4642857142857143
 40
0.4642857142857143
 40
0.5
 40
0.5
 40
0.5
 40
0.5
 40
0.5357142857142857
 40
0.5357142857142857
 40
0.5357142857142857
 40
0.5357142857142857
 40
0.5714285714285714
 40
0.5714285714285714
 40
0.5714285714285714
 40
0.5714285714285714
 40
0.6071428571428571
 40
0.6071428571428571
 40
0.6071428571428571
 40
0.6071428571428571
 40
0.6428571428571429
 40
0.6428571428571429
 40
0.6428571428571429
 40
0.6428571428571429
 40
0.6785714285714286
 40
0.6785714285714286
 40
0.6785714285714286
 40
0.6785714285714286
 40
0.7142857142857143
 40
0.7142857142857143
 40
0.7142857142857143
 40
0.7142857142857143
 40
0.75
 40
0.75
 40
0.75
 40
0.75
 40
0.7857142857142857
 40
0.7857142857142857
 40
0.7857142857142857
 40
0.7857142857142857
 40
0.8214285714285714
 40
0.8214285714285714
 40
0.8214285714285714
 40
0.8214285714285714
 40
0.8571428571428571
 40
0.8571428571428571
 40
0.8571428571428571
 40
0.8571428571428571
 40
0.8928571428571429
 40
0.8928571428571429
 40
0.8928571428571429
 40
0.8928571428571429
 40
0.9285714285714286
 40
0.9285714285714286
 40
0.9285714285714286
 40
0.9285714285714286
 40
1.0
 40
1.0
 40
1.0
 40
1.0
 10
3.4572
 20
21.8002
 30
0.0
 10
3.365
 20
21.7221
 30
0.0
 10
3.2766
 20
21.6671
 30
0.0
 10
3.1919
 20
21.6347
 30
0.0
 10
3.1919
 20
21.6347
 30
0.0
 10
3.1068
 20
21.6027
 30
0.0
 10
3.0155
 20
21.5867
 30
0.0
 10
2.9182
 20
21.5867
 30
0.0
 10
2.9182
 20
21.5867
 30
0.0
 10
2.7573
 20
21.5867
 30
0.0
 10
2.6341
 20
21.6257
 30
0.0
 10
2.5475
 20
21.7043
 30
0.0
 10
2.5475
 20
21.7043
 30
0.0
 10
2.4614
 20
21.7828
 30
0.0
 10
2.4182
 20
21.8835
 30
0.0
 10
2.4182
 20
22.0053
 30
0.0
 10
2.4182
 20
22.0053
 30
0.0
 10
2.4182
 20
22.0773
 30
0.0
 10
2.4342
 20
22.1426
 30
0.0
 10
2.4671
 20
22.2019
 30
0.0
 10
2.4671
 20
22.2019
 30
0.0
 10
2.4995
 20
22.2612
 30
0.0
 10
2.5423
 20
22.3087
 30
0.0
 10
2.595
 20
22.3444
 30
0.0
 10
2.595
 20
22.3444
 30
0.0
 10
2.6482
 20
22.3802
 30
0.0
 10
2.7074
 20
22.4075
 30
0.0
 10
2.7738
 20
22.4258
 30
0.0
 10
2.7738
 20
22.4258
 30
0.0
 10
2.8222
 20
22.4385
 30
0.0
 10
2.8956
 20
22.4512
 30
0.0
 10
2.9939
 20
22.463
 30
0.0
 10
2.9939
 20
22.463
 30
0.0
 10
3.1943
 20
22.487
 30
0.0
 10
3.342
 20
22.5152
 30
0.0
 10
3.4365
 20
22.5486
 30
0.0
 10
3.4365
 20
22.5486
 30
0.0
 10
3.4375
 20
22.5824
 30
0.0
 10
3.4379
 20
22.6041
 30
0.0
 10
3.4379
 20
22.613
 30
0.0
 10
3.4379
 20
22.613
 30
0.0
 10
3.4379
 20
22.7141
 30
0.0
 10
3.4144
 20
22.7856
 30
0.0
 10
3.3674
 20
22.8266
 30
0.0
 10
3.3674
 20
22.8266
 30
0.0
 10
3.3043
 20
22.883
 30
0.0
 10
3.2098
 20
22.9108
 30
0.0
 10
3.0851
 20
22.9108
 30
0.0
 10
3.0851
 20
22.9108
 30
0.0
 10
2.9685
 20
22.9108
 30
0.0
 10
2.8824
 20
22.8905
 30
0.0
 10
2.8264
 20
22.8496
 30
0.0
 10
2.8264
 20
22.8496
 30
0.0
 10
2.7709
 20
22.8087
 30
0.0
 10
2.73
 20
22.7363
 30
0.0
 10
2.7032
 20
22.6323
 30
0.0
 10
2.7032
 20
22.6323
 30
0.0
 10
2.7032
 20
22.6323
 30
0.0
 10
2.461
 20
22.6657
 30
0.0
 10
2.461
 20
22.6657
 30
0.0
 10
2.461
 20
22.6657
 30
0.0
 10
2.4831
 20
22.7692
 30
0.0
 10
2.5193
 20
22.8534
 30
0.0
 10
2.5696
 20
22.9169
 30
0.0
 10
2.5696
 20
22.9169
 30
0.0
 10
2.62
 20
22.9808
 30
0.0
 10
2.6933
 20
23.0302
 30
0.0
 10
2.7888
 20
23.0646
 30
0.0
 10
2.7888
 20
23.0646
 30
0.0
 10
2.8843
 20
23.0989
 30
0.0
 10
2.9948
 20
23.1163
 30
0.0
 10
3.1209
 20
23.1163
 30
0.0
 10
3.1209
 20
23.1163
 30
0.0
 10
3.246
 20
23.1163
 30
0.0
 10
3.3471
 20
23.1013
 30
0.0
 10
3.4252
 20
23.0721
 30
0.0
 10
3.4252
 20
23.0721
 30
0.0
 10
3.5033
 20
23.0425
 30
0.0
 10
3.5607
 20
23.0058
 30
0.0
 10
3.5978
 20
22.9611
 30
0.0
 10
3.5978
 20
22.9611
 30
0.0
 10
3.6345
 20
22.9164
 30
0.0
 10
3.6599
 20
22.8604
 30
0.0
 10
3.675
 20
22.7922
 30
0.0
 10
3.675
 20
22.7922
 30
0.0
 10
3.683
 20
22.7499
 30
0.0
 10
3.6872
 20
22.6737
 30
0.0
 10
3.6872
 20
22.5636
 30
0.0
 10
3.6872
 20
22.5636
 30
0.0
 10
3.6872
 20
22.5636
 30
0.0
 10
3.6872
 20
22.233
 30
0.0
 10
3.6872
 20
22.233
 30
0.0
 10
3.6872
 20
22.233
 30
0.0
 10
3.6872
 20
22.002
 30
0.0
 10
3.6924
 20
21.8562
 30
0.0
 10
3.7032
 20
21.7955
 30
0.0
 10
3.7032
 20
21.7955
 30
0.0
 10
3.7136
 20
21.7344
 30
0.0
 10
3.7347
 20
21.6756
 30
0.0
 10
3.7658
 20
21.6196
 30
0.0
 10
3.7658
 20
21.6196
 30
0.0
 10
3.7658
 20
21.6196
 30
0.0
 10
3.5066
 20
21.6196
 30
0.0
 10
3.5066
 20
21.6196
 30
0.0
 10
3.5066
 20
21.6196
 30
0.0
 10
3.4812
 20
21.6709
 30
0.0
 10
3.4643
 20
21.7311
 30
0.0
 10
3.4572
 20
21.8002
 30
0.0
  0
SPLINE
  5
5A
330
1F
100
AcDbEntity
  8
DEFAULT_1
 62
   250
100
AcDbSpline
210
0.0
220
0.0
230
1.0
 70
    11
 71
     3
 72
    44
 73
    40
 74
     0
 42
0.0000000001
 43
0.0000000001
 40
0.0
 40
0.0
 40
0.0
 40
0.0
 40
0.0909090909090909
 40
0.0909090909090909
 40
0.0909090909090909
 40
0.0909090909090909
 40
0.1818181818181818
 40
0.1818181818181818
 40
0.1818181818181818
 40
0.1818181818181818
 40
0.2727272727272727
 40
0.2727272727272727
 40
0.2727272727272727
 40
0.2727272727272727
 40
0.3636363636363636
 40
0.3636363636363636
 40
0.3636363636363636
 40
0.3636363636363636
 40
0.4545454545454545
 40
0.4545454545454545
 40
0.4545454545454545
 40
0.4545454545454545
 40
0.5454545454545454
 40
0.5454545454545454
 40
0.5454545454545454
 40
0.5454545454545454
 40
0.6363636363636364
 40
0.6363636363636364
 40
0.6363636363636364
 40
0.6363636363636364
 40
0.7272727272727273
 40
0.7272727272727273
 40
0.7272727272727273
 40
0.7272727272727273
 40
0.8181818181818182
 40
0.8181818181818182
 40
0.8181818181818182
 40
0.8181818181818182
 40
1.0
 40
1.0
 40
1.0
 40
1.0
 10
3.4365
 20
22.3543
 30
0.0
 10
3.3462
 20
22.3172
 30
0.0
 10
3.2112
 20
22.2861
 30
0.0
 10
3.0315
 20
22.2602
 30
0.0
 10
3.0315
 20
22.2602
 30
0.0
 10
2.9295
 20
22.2457
 30
0.0
 10
2.857
 20
22.2292
 30
0.0
 10
2.8152
 20
22.2109
 30
0.0
 10
2.8152
 20
22.2109
 30
0.0
 10
2.7728
 20
22.1925
 30
0.0
 10
2.7399
 20
22.1657
 30
0.0
 10
2.7173
 20
22.1299
 30
0.0
 10
2.7173
 20
22.1299
 30
0.0
 10
2.6943
 20
22.0947
 30
0.0
 10
2.6825
 20
22.0556
 30
0.0
 10
2.6825
 20
22.0124
 30
0.0
 10
2.6825
 20
22.0124
 30
0.0
 10
2.6825
 20
21.946
 30
0.0
 10
2.7079
 20
21.891
 30
0.0
 10
2.7578
 20
21.8468
 30
0.0
 10
2.7578
 20
21.8468
 30
0.0
 10
2.8076
 20
21.803
 30
0.0
 10
2.881
 20
21.7809
 30
0.0
 10
2.9774
 20
21.7809
 30
0.0
 10
2.9774
 20
21.7809
 30
0.0
 10
3.0729
 20
21.7809
 30
0.0
 10
3.1581
 20
21.8016
 30
0.0
 10
3.2324
 20
21.8435
 30
0.0
 10
3.2324
 20
21.8435
 30
0.0
 10
3.3067
 20
21.8854
 30
0.0
 10
3.3617
 20
21.9427
 30
0.0
 10
3.3965
 20
22.0152
 30
0.0
 10
3.3965
 20
22.0152
 30
0.0
 10
3.4233
 20
22.0712
 30
0.0
 10
3.4365
 20
22.1539
 30
0.0
 10
3.4365
 20
22.2631
 30
0.0
 10
3.4365
 20
22.2631
 30
0.0
 10
3.4365
 20
22.2631
 30
0.0
 10
3.4365
 20
22.3543
 30
0.0
 10
3.4365
 20
22.3543
 30
0.0
  0
SPLINE
  5
5B
330
1F
100
AcDbEntity
  8
DEFAULT_1
 62
   250
100
AcDbSpline
210
0.0
220
0.0
230
1.0
 70
    11
 71
     3
 72
    64
 73
    60
 74
     0
 42
0.0000000001
 43
0.0000000001
 40
0.0
 40
0.0
 40
0.0
 40
0.0
 40
0.0625
 40
0.0625
 40
0.0625
 40
0.0625
 40
0.125
 40
0.125
 40
0.125
 40
0.125
 40
0.1875
 40
0.1875
 40
0.1875
 40
0.1875
 40
0.25
 40
0.25
 40
0.25
 40
0.25
 40
0.3125
 40
0.3125
 40
0.3125
 40
0.3125
 40
0.375
 40
0.375
 40
0.375
 40
0.375
 40
0.4375
 40
0.4375
 40
0.4375
 40
0.4375
 40
0.5
 40
0.5
 40
0.5
 40
0.5
 40
0.5625
 40
0.5625
 40
0.5625
 40
0.5625
 40
0.625
 40
0.625
 40
0.625
 40
0.625
 40
0.6875
 40
0.6875
 40
0.6875
 40
0.6875
 40
0.75
 40
0.75
 40
0.75
 40
0.75
 40
0.8125
 40
0.8125
 40
0.8125
 40
0.8125
 40
0.875
 40
0.875
 40
0.875
 40
0.875
 40
1.0
 40
1.0
 40
1.0
 40
1.0
 10
3.9064
 20
21.6196
 30
0.0
 10
3.9064
 20
21.6196
 30
0.0
 10
4.4412
 20
22.3802
 30
0.0
 10
4.4412
 20
22.3802
 30
0.0
 10
4.4412
 20
22.3802
 30
0.0
 10
4.4412
 20
22.3802
 30
0.0
 10
3.9464
 20
23.0829
 30
0.0
 10
3.9464
 20
23.0829
 30
0.0
 10
3.9464
 20
23.0829
 30
0.0
 10
3.9464
 20
23.0829
 30
0.0
 10
4.2563
 20
23.0829
 30
0.0
 10
4.2563
 20
23.0829
 30
0.0
 10
4.2563
 20
23.0829
 30
0.0
 10
4.2563
 20
23.0829
 30
0.0
 10
4.4812
 20
22.74
 30
0.0
 10
4.4812
 20
22.74
 30
0.0
 10
4.4812
 20
22.74
 30
0.0
 10
4.523
 20
22.6746
 30
0.0
 10
4.5574
 20
22.6201
 30
0.0
 10
4.5828
 20
22.5759
 30
0.0
 10
4.5828
 20
22.5759
 30
0.0
 10
4.6232
 20
22.6365
 30
0.0
 10
4.6604
 20
22.6902
 30
0.0
 10
4.6947
 20
22.7372
 30
0.0
 10
4.6947
 20
22.7372
 30
0.0
 10
4.6947
 20
22.7372
 30
0.0
 10
4.9412
 20
23.0829
 30
0.0
 10
4.9412
 20
23.0829
 30
0.0
 10
4.9412
 20
23.0829
 30
0.0
 10
4.9412
 20
23.0829
 30
0.0
 10
5.2375
 20
23.0829
 30
0.0
 10
5.2375
 20
23.0829
 30
0.0
 10
5.2375
 20
23.0829
 30
0.0
 10
5.2375
 20
23.0829
 30
0.0
 10
4.7319
 20
22.3938
 30
0.0
 10
4.7319
 20
22.3938
 30
0.0
 10
4.7319
 20
22.3938
 30
0.0
 10
4.7319
 20
22.3938
 30
0.0
 10
5.2761
 20
21.6196
 30
0.0
 10
5.2761
 20
21.6196
 30
0.0
 10
5.2761
 20
21.6196
 30
0.0
 10
5.2761
 20
21.6196
 30
0.0
 10
4.9718
 20
21.6196
 30
0.0
 10
4.9718
 20
21.6196
 30
0.0
 10
4.9718
 20
21.6196
 30
0.0
 10
4.9718
 20
21.6196
 30
0.0
 10
4.6712
 20
22.0744
 30
0.0
 10
4.6712
 20
22.0744
 30
0.0
 10
4.6712
 20
22.0744
 30
0.0
 10
4.6712
 20
22.0744
 30
0.0
 10
4.5913
 20
22.1972
 30
0.0
 10
4.5913
 20
22.1972
 30
0.0
 10
4.5913
 20
22.1972
 30
0.0
 10
4.5913
 20
22.1972
 30
0.0
 10
4.207
 20
21.6196
 30
0.0
 10
4.207
 20
21.6196
 30
0.0
 10
4.207
 20
21.6196
 30
0.0
 10
4.207
 20
21.6196
 30
0.0
 10
3.9064
 20
21.6196
 30
0.0
 10
3.9064
 20
21.6196
 30
0.0
  0
SPLINE
  5
5C
330
1F
100
AcDbEntity
  8
DEFAULT_1
 62
   250
100
AcDbSpline
210
0.0
220
0.0
230
1.0
 70
    11
 71
     3
 72
    92
 73
    88
 74
     0
 42
0.0000000001
 43
0.0000000001
 40
0.0
 40
0.0
 40
0.0
 40
0.0
 40
0.0434782608695652
 40
0.0434782608695652
 40
0.0434782608695652
 40
0.0434782608695652
 40
0.0869565217391304
 40
0.0869565217391304
 40
0.0869565217391304
 40
0.0869565217391304
 40
0.1304347826086956
 40
0.1304347826086956
 40
0.1304347826086956
 40
0.1304347826086956
 40
0.1739130434782609
 40
0.1739130434782609
 40
0.1739130434782609
 40
0.1739130434782609
 40
0.2173913043478261
 40
0.2173913043478261
 40
0.2173913043478261
 40
0.2173913043478261
 40
0.2608695652173913
 40
0.2608695652173913
 40
0.2608695652173913
 40
0.2608695652173913
 40
0.3043478260869565
 40
0.3043478260869565
 40
0.3043478260869565
 40
0.3043478260869565
 40
0.3478260869565217
 40
0.3478260869565217
 40
0.3478260869565217
 40
0.3478260869565217
 40
0.391304347826087
 40
0.391304347826087
 40
0.391304347826087
 40
0.391304347826087
 40
0.4347826086956522
 40
0.4347826086956522
 40
0.4347826086956522
 40
0.4347826086956522
 40
0.4782608695652174
 40
0.4782608695652174
 40
0.4782608695652174
 40
0.4782608695652174
 40
0.5217391304347826
 40
0.5217391304347826
 40
0.5217391304347826
 40
0.5217391304347826
 40
0.5652173913043478
 40
0.5652173913043478
 40
0.5652173913043478
 40
0.5652173913043478
 40
0.6086956521739131
 40
0.6086956521739131
 40
0.6086956521739131
 40
0.6086956521739131
 40
0.6521739130434783
 40
0.6521739130434783
 40
0.6521739130434783
 40
0.6521739130434783
 40
0.6956521739130435
 40
0.6956521739130435
 40
0.6956521739130435
 40
0.6956521739130435
 40
0.7391304347826086
 40
0.7391304347826086
 40
0.7391304347826086
 40
0.7391304347826086
 40
0.782608695652174
 40
0.782608695652174
 40
0.782608695652174
 40
0.782608695652174
 40
0.8260869565217391
 40
0.8260869565217391
 40
0.8260869565217391
 40
0.8260869565217391
 40
0.8695652173913043
 40
0.8695652173913043
 40
0.8695652173913043
 40
0.8695652173913043
 40
0.9130434782608695
 40
0.9130434782608695
 40
0.9130434782608695
 40
0.9130434782608695
 40
1.0
 40
1.0
 40
1.0
 40
1.0
 10
7.5019
 20
21.8581
 30
0.0
 10
7.5019
 20
21.8581
 30
0.0
 10
7.5019
 20
21.6196
 30
0.0
 10
7.5019
 20
21.6196
 30
0.0
 10
7.5019
 20
21.6196
 30
0.0
 10
7.5019
 20
21.6196
 30
0.0
 10
6.1665
 20
21.6196
 30
0.0
 10
6.1665
 20
21.6196
 30
0.0
 10
6.1665
 20
21.6196
 30
0.0
 10
6.1646
 20
21.6793
 30
0.0
 10
6.174
 20
21.7367
 30
0.0
 10
6.1952
 20
21.7918
 30
0.0
 10
6.1952
 20
21.7918
 30
0.0
 10
6.2291
 20
21.883
 30
0.0
 10
6.2836
 20
21.9724
 30
0.0
 10
6.3584
 20
22.0608
 30
0.0
 10
6.3584
 20
22.0608
 30
0.0
 10
6.4337
 20
22.1488
 30
0.0
 10
6.5419
 20
22.2508
 30
0.0
 10
6.683
 20
22.3665
 30
0.0
 10
6.683
 20
22.3665
 30
0.0
 10
6.9026
 20
22.5467
 30
0.0
 10
7.0513
 20
22.6892
 30
0.0
 10
7.1284
 20
22.7946
 30
0.0
 10
7.1284
 20
22.7946
 30
0.0
 10
7.2055
 20
22.8995
 30
0.0
 10
7.2441
 20
22.9992
 30
0.0
 10
7.2441
 20
23.0928
 30
0.0
 10
7.2441
 20
23.0928
 30
0.0
 10
7.2441
 20
23.1911
 30
0.0
 10
7.2088
 20
23.2739
 30
0.0
 10
7.1388
 20
23.3416
 30
0.0
 10
7.1388
 20
23.3416
 30
0.0
 10
7.0682
 20
23.4089
 30
0.0
 10
6.9765
 20
23.4427
 30
0.0
 10
6.8636
 20
23.4427
 30
0.0
 10
6.8636
 20
23.4427
 30
0.0
 10
6.7441
 20
23.4427
 30
0.0
 10
6.6486
 20
23.407
 30
0.0
 10
6.5771
 20
23.335
 30
0.0
 10
6.5771
 20
23.335
 30
0.0
 10
6.5052
 20
23.2635
 30
0.0
 10
6.469
 20
23.1643
 30
0.0
 10
6.468
 20
23.0378
 30
0.0
 10
6.468
 20
23.0378
 30
0.0
 10
6.468
 20
23.0378
 30
0.0
 10
6.2131
 20
23.0636
 30
0.0
 10
6.2131
 20
23.0636
 30
0.0
 10
6.2131
 20
23.0636
 30
0.0
 10
6.2305
 20
23.2541
 30
0.0
 10
6.2963
 20
23.399
 30
0.0
 10
6.4102
 20
23.4987
 30
0.0
 10
6.4102
 20
23.4987
 30
0.0
 10
6.524
 20
23.5984
 30
0.0
 10
6.6773
 20
23.6483
 30
0.0
 10
6.8692
 20
23.6483
 30
0.0
 10
6.8692
 20
23.6483
 30
0.0
 10
7.063
 20
23.6483
 30
0.0
 10
7.2164
 20
23.5942
 30
0.0
 10
7.3293
 20
23.487
 30
0.0
 10
7.3293
 20
23.487
 30
0.0
 10
7.4426
 20
23.3792
 30
0.0
 10
7.4991
 20
23.2461
 30
0.0
 10
7.4991
 20
23.0871
 30
0.0
 10
7.4991
 20
23.0871
 30
0.0
 10
7.4991
 20
23.0062
 30
0.0
 10
7.4826
 20
22.9267
 30
0.0
 10
7.4492
 20
22.8487
 30
0.0
 10
7.4492
 20
22.8487
 30
0.0
 10
7.4163
 20
22.7706
 30
0.0
 10
7.3612
 20
22.6883
 30
0.0
 10
7.2846
 20
22.6022
 30
0.0
 10
7.2846
 20
22.6022
 30
0.0
 10
7.2079
 20
22.5156
 30
0.0
 10
7.0804
 20
22.3971
 30
0.0
 10
6.9022
 20
22.2466
 30
0.0
 10
6.9022
 20
22.2466
 30
0.0
 10
6.7535
 20
22.1215
 30
0.0
 10
6.658
 20
22.0368
 30
0.0
 10
6.6157
 20
21.9921
 30
0.0
 10
6.6157
 20
21.9921
 30
0.0
 10
6.5734
 20
21.9479
 30
0.0
 10
6.5386
 20
21.9032
 30
0.0
 10
6.5108
 20
21.8581
 30
0.0
 10
6.5108
 20
21.8581
 30
0.0
 10
6.5108
 20
21.8581
 30
0.0
 10
7.5019
 20
21.8581
 30
0.0
 10
7.5019
 20
21.8581
 30
0.0
  0
SPLINE
  5
5D
330
1F
100
AcDbEntity
  8
DEFAULT_1
 62
   250
100
AcDbSpline
210
0.0
220
0.0
230
1.0
 70
    11
 71
     3
 72
    92
 73
    88
 74
     0
 42
0.0000000001
 43
0.0000000001
 40
0.0
 40
0.0
 40
0.0
 40
0.0
 40
0.0434782608695652
 40
0.0434782608695652
 40
0.0434782608695652
 40
0.0434782608695652
 40
0.0869565217391304
 40
0.0869565217391304
 40
0.0869565217391304
 40
0.0869565217391304
 40
0.1304347826086956
 40
0.1304347826086956
 40
0.1304347826086956
 40
0.1304347826086956
 40
0.1739130434782609
 40
0.1739130434782609
 40
0.1739130434782609
 40
0.1739130434782609
 40
0.2173913043478261
 40
0.2173913043478261
 40
0.2173913043478261
 40
0.2173913043478261
 40
0.2608695652173913
 40
0.2608695652173913
 40
0.2608695652173913
 40
0.2608695652173913
 40
0.3043478260869565
 40
0.3043478260869565
 40
0.3043478260869565
 40
0.3043478260869565
 40
0.3478260869565217
 40
0.3478260869565217
 40
0.3478260869565217
 40
0.3478260869565217
 40
0.391304347826087
 40
0.391304347826087
 40
0.391304347826087
 40
0.391304347826087
 40
0.4347826086956522
 40
0.4347826086956522
 40
0.4347826086956522
 40
0.4347826086956522
 40
0.4782608695652174
 40
0.4782608695652174
 40
0.4782608695652174
 40
0.4782608695652174
 40
0.5217391304347826
 40
0.5217391304347826
 40
0.5217391304347826
 40
0.5217391304347826
 40
0.5652173913043478
 40
0.5652173913043478
 40
0.5652173913043478
 40
0.5652173913043478
 40
0.6086956521739131
 40
0.6086956521739131
 40
0.6086956521739131
 40
0.6086956521739131
 40
0.6521739130434783
 40
0.6521739130434783
 40
0.6521739130434783
 40
0.6521739130434783
 40
0.6956521739130435
 40
0.6956521739130435
 40
0.6956521739130435
 40
0.6956521739130435
 40
0.7391304347826086
 40
0.7391304347826086
 40
0.7391304347826086
 40
0.7391304347826086
 40
0.782608695652174
 40
0.782608695652174
 40
0.782608695652174
 40
0.782608695652174
 40
0.8260869565217391
 40
0.8260869565217391
 40
0.8260869565217391
 40
0.8260869565217391
 40
0.8695652173913043
 40
0.8695652173913043
 40
0.8695652173913043
 40
0.8695652173913043
 40
0.9130434782608695
 40
0.9130434782608695
 40
0.9130434782608695
 40
0.9130434782608695
 40
1.0
 40
1.0
 40
1.0
 40
1.0
 10
7.7676
 20
22.1488
 30
0.0
 10
7.7676
 20
22.1488
 30
0.0
 10
8.0282
 20
22.1709
 30
0.0
 10
8.0282
 20
22.1709
 30
0.0
 10
8.0282
 20
22.1709
 30
0.0
 10
8.0475
 20
22.0439
 30
0.0
 10
8.0922
 20
21.9489
 30
0.0
 10
8.1623
 20
21.8849
 30
0.0
 10
8.1623
 20
21.8849
 30
0.0
 10
8.2328
 20
21.8209
 30
0.0
 10
8.3175
 20
21.7889
 30
0.0
 10
8.4167
 20
21.7889
 30
0.0
 10
8.4167
 20
21.7889
 30
0.0
 10
8.5362
 20
21.7889
 30
0.0
 10
8.6373
 20
21.8341
 30
0.0
 10
8.7196
 20
21.9239
 30
0.0
 10
8.7196
 20
21.9239
 30
0.0
 10
8.8024
 20
22.0142
 30
0.0
 10
8.8438
 20
22.1337
 30
0.0
 10
8.8438
 20
22.2823
 30
0.0
 10
8.8438
 20
22.2823
 30
0.0
 10
8.8438
 20
22.4239
 30
0.0
 10
8.8043
 20
22.5354
 30
0.0
 10
8.7248
 20
22.6172
 30
0.0
 10
8.7248
 20
22.6172
 30
0.0
 10
8.6453
 20
22.6991
 30
0.0
 10
8.5414
 20
22.74
 30
0.0
 10
8.4125
 20
22.74
 30
0.0
 10
8.4125
 20
22.74
 30
0.0
 10
8.3325
 20
22.74
 30
0.0
 10
8.2606
 20
22.7217
 30
0.0
 10
8.1961
 20
22.6855
 30
0.0
 10
8.1961
 20
22.6855
 30
0.0
 10
8.1317
 20
22.6492
 30
0.0
 10
8.0814
 20
22.6022
 30
0.0
 10
8.0447
 20
22.5443
 30
0.0
 10
8.0447
 20
22.5443
 30
0.0
 10
8.0447
 20
22.5443
 30
0.0
 10
7.8118
 20
22.5744
 30
0.0
 10
7.8118
 20
22.5744
 30
0.0
 10
7.8118
 20
22.5744
 30
0.0
 10
7.8118
 20
22.5744
 30
0.0
 10
8.0075
 20
23.6121
 30
0.0
 10
8.0075
 20
23.6121
 30
0.0
 10
8.0075
 20
23.6121
 30
0.0
 10
8.0075
 20
23.6121
 30
0.0
 10
9.0122
 20
23.6121
 30
0.0
 10
9.0122
 20
23.6121
 30
0.0
 10
9.0122
 20
23.6121
 30
0.0
 10
9.0122
 20
23.6121
 30
0.0
 10
9.0122
 20
23.375
 30
0.0
 10
9.0122
 20
23.375
 30
0.0
 10
9.0122
 20
23.375
 30
0.0
 10
9.0122
 20
23.375
 30
0.0
 10
8.206
 20
23.375
 30
0.0
 10
8.206
 20
23.375
 30
0.0
 10
8.206
 20
23.375
 30
0.0
 10
8.206
 20
23.375
 30
0.0
 10
8.0969
 20
22.8322
 30
0.0
 10
8.0969
 20
22.8322
 30
0.0
 10
8.0969
 20
22.8322
 30
0.0
 10
8.2182
 20
22.9169
 30
0.0
 10
8.3457
 20
22.9592
 30
0.0
 10
8.4788
 20
22.9592
 30
0.0
 10
8.4788
 20
22.9592
 30
0.0
 10
8.6552
 20
22.9592
 30
0.0
 10
8.8038
 20
22.8981
 30
0.0
 10
8.9252
 20
22.7758
 30
0.0
 10
8.9252
 20
22.7758
 30
0.0
 10
9.0465
 20
22.6535
 30
0.0
 10
9.1072
 20
22.4964
 30
0.0
 10
9.1072
 20
22.3045
 30
0.0
 10
9.1072
 20
22.3045
 30
0.0
 10
9.1072
 20
22.1215
 30
0.0
 10
9.0536
 20
21.9634
 30
0.0
 10
8.9473
 20
21.8303
 30
0.0
 10
8.9473
 20
21.8303
 30
0.0
 10
8.8175
 20
21.6671
 30
0.0
 10
8.6406
 20
21.5853
 30
0.0
 10
8.4167
 20
21.5853
 30
0.0
 10
8.4167
 20
21.5853
 30
0.0
 10
8.2328
 20
21.5853
 30
0.0
 10
8.0828
 20
21.6365
 30
0.0
 10
7.9666
 20
21.7395
 30
0.0
 10
7.9666
 20
21.7395
 30
0.0
 10
7.8504
 20
21.8426
 30
0.0
 10
7.7841
 20
21.979
 30
0.0
 10
7.7676
 20
22.1488
 30
0.0
  0
SPLINE
  5
5E
330
1F
100
AcDbEntity
  8
DEFAULT_1
 62
   250
100
AcDbSpline
210
0.0
220
0.0
230
1.0
 70
    11
 71
     3
 72
    52
 73
    48
 74
     0
 42
0.0000000001
 43
0.0000000001
 40
0.0
 40
0.0
 40
0.0
 40
0.0
 40
0.0769230769230769
 40
0.0769230769230769
 40
0.0769230769230769
 40
0.0769230769230769
 40
0.1538461538461539
 40
0.1538461538461539
 40
0.1538461538461539
 40
0.1538461538461539
 40
0.2307692307692308
 40
0.2307692307692308
 40
0.2307692307692308
 40
0.2307692307692308
 40
0.3076923076923077
 40
0.3076923076923077
 40
0.3076923076923077
 40
0.3076923076923077
 40
0.3846153846153846
 40
0.3846153846153846
 40
0.3846153846153846
 40
0.3846153846153846
 40
0.4615384615384616
 40
0.4615384615384616
 40
0.4615384615384616
 40
0.4615384615384616
 40
0.5384615384615384
 40
0.5384615384615384
 40
0.5384615384615384
 40
0.5384615384615384
 40
0.6153846153846154
 40
0.6153846153846154
 40
0.6153846153846154
 40
0.6153846153846154
 40
0.6923076923076923
 40
0.6923076923076923
 40
0.6923076923076923
 40
0.6923076923076923
 40
0.7692307692307693
 40
0.7692307692307693
 40
0.7692307692307693
 40
0.7692307692307693
 40
0.8461538461538461
 40
0.8461538461538461
 40
0.8461538461538461
 40
0.8461538461538461
 40
1.0
 40
1.0
 40
1.0
 40
1.0
 10
9.3372
 20
22.6158
 30
0.0
 10
9.3372
 20
22.8548
 30
0.0
 10
9.3617
 20
23.0472
 30
0.0
 10
9.4111
 20
23.1925
 30
0.0
 10
9.4111
 20
23.1925
 30
0.0
 10
9.46
 20
23.3383
 30
0.0
 10
9.5334
 20
23.4507
 30
0.0
 10
9.6303
 20
23.5298
 30
0.0
 10
9.6303
 20
23.5298
 30
0.0
 10
9.7272
 20
23.6088
 30
0.0
 10
9.849
 20
23.6483
 30
0.0
 10
9.9957
 20
23.6483
 30
0.0
 10
9.9957
 20
23.6483
 30
0.0
 10
10.1044
 20
23.6483
 30
0.0
 10
10.1994
 20
23.6262
 30
0.0
 10
10.2812
 20
23.5824
 30
0.0
 10
10.2812
 20
23.5824
 30
0.0
 10
10.3631
 20
23.5392
 30
0.0
 10
10.4304
 20
23.4761
 30
0.0
 10
10.484
 20
23.3938
 30
0.0
 10
10.484
 20
23.3938
 30
0.0
 10
10.5371
 20
23.3115
 30
0.0
 10
10.579
 20
23.2113
 30
0.0
 10
10.6091
 20
23.0933
 30
0.0
 10
10.6091
 20
23.0933
 30
0.0
 10
10.6397
 20
22.9752
 30
0.0
 10
10.6547
 20
22.8162
 30
0.0
 10
10.6547
 20
22.6158
 30
0.0
 10
10.6547
 20
22.6158
 30
0.0
 10
10.6547
 20
22.3788
 30
0.0
 10
10.6303
 20
22.1878
 30
0.0
 10
10.5818
 20
22.042
 30
0.0
 10
10.5818
 20
22.042
 30
0.0
 10
10.5329
 20
21.8962
 30
0.0
 10
10.46
 20
21.7838
 30
0.0
 10
10.3631
 20
21.7043
 30
0.0
 10
10.3631
 20
21.7043
 30
0.0
 10
10.2662
 20
21.6248
 30
0.0
 10
10.1439
 20
21.5853
 30
0.0
 10
9.9957
 20
21.5853
 30
0.0
 10
9.9957
 20
21.5853
 30
0.0
 10
9.801
 20
21.5853
 30
0.0
 10
9.6481
 20
21.6549
 30
0.0
 10
9.5371
 20
21.7946
 30
0.0
 10
9.5371
 20
21.7946
 30
0.0
 10
9.404
 20
21.9625
 30
0.0
 10
9.3372
 20
22.2367
 30
0.0
 10
9.3372
 20
22.6158
 30
0.0
  0
SPLINE
  5
5F
330
1F
100
AcDbEntity
  8
DEFAULT_1
 62
   250
100
AcDbSpline
210
0.0
220
0.0
230
1.0
 70
    11
 71
     3
 72
    36
 73
    32
 74
     0
 42
0.0000000001
 43
0.0000000001
 40
0.0
 40
0.0
 40
0.0
 40
0.0
 40
0.1111111111111111
 40
0.1111111111111111
 40
0.1111111111111111
 40
0.1111111111111111
 40
0.2222222222222222
 40
0.2222222222222222
 40
0.2222222222222222
 40
0.2222222222222222
 40
0.3333333333333333
 40
0.3333333333333333
 40
0.3333333333333333
 40
0.3333333333333333
 40
0.4444444444444444
 40
0.4444444444444444
 40
0.4444444444444444
 40
0.4444444444444444
 40
0.5555555555555556
 40
0.5555555555555556
 40
0.5555555555555556
 40
0.5555555555555556
 40
0.6666666666666666
 40
0.6666666666666666
 40
0.6666666666666666
 40
0.6666666666666666
 40
0.7777777777777778
 40
0.7777777777777778
 40
0.7777777777777778
 40
0.7777777777777778
 40
1.0
 40
1.0
 40
1.0
 40
1.0
 10
9.5922
 20
22.6158
 30
0.0
 10
9.5922
 20
22.2842
 30
0.0
 10
9.6312
 20
22.0636
 30
0.0
 10
9.7088
 20
21.9536
 30
0.0
 10
9.7088
 20
21.9536
 30
0.0
 10
9.7864
 20
21.844
 30
0.0
 10
9.8819
 20
21.7889
 30
0.0
 10
9.9957
 20
21.7889
 30
0.0
 10
9.9957
 20
21.7889
 30
0.0
 10
10.11
 20
21.7889
 30
0.0
 10
10.2055
 20
21.8444
 30
0.0
 10
10.2831
 20
21.9545
 30
0.0
 10
10.2831
 20
21.9545
 30
0.0
 10
10.3607
 20
22.0646
 30
0.0
 10
10.3998
 20
22.2852
 30
0.0
 10
10.3998
 20
22.6158
 30
0.0
 10
10.3998
 20
22.6158
 30
0.0
 10
10.3998
 20
22.9484
 30
0.0
 10
10.3607
 20
23.1695
 30
0.0
 10
10.2831
 20
23.2786
 30
0.0
 10
10.2831
 20
23.2786
 30
0.0
 10
10.2055
 20
23.3882
 30
0.0
 10
10.1091
 20
23.4427
 30
0.0
 10
9.9934
 20
23.4427
 30
0.0
 10
9.9934
 20
23.4427
 30
0.0
 10
9.8791
 20
23.4427
 30
0.0
 10
9.7883
 20
23.3943
 30
0.0
 10
9.7201
 20
23.2979
 30
0.0
 10
9.7201
 20
23.2979
 30
0.0
 10
9.635
 20
23.1751
 30
0.0
 10
9.5922
 20
22.9474
 30
0.0
 10
9.5922
 20
22.6158
 30
0.0
  0
SPLINE
  5
60
330
1F
100
AcDbEntity
  8
DEFAULT_1
 62
   250
100
AcDbSpline
210
0.0
220
0.0
230
1.0
 70
    11
 71
     3
 72
   120
 73
   116
 74
     0
 42
0.0000000001
 43
0.0000000001
 40
0.0
 40
0.0
 40
0.0
 40
0.0
 40
0.0333333333333333
 40
0.0333333333333333
 40
0.0333333333333333
 40
0.0333333333333333
 40
0.0666666666666667
 40
0.0666666666666667
 40
0.0666666666666667
 40
0.0666666666666667
 40
0.1
 40
0.1
 40
0.1
 40
0.1
 40
0.1333333333333333
 40
0.1333333333333333
 40
0.1333333333333333
 40
0.1333333333333333
 40
0.1666666666666667
 40
0.1666666666666667
 40
0.1666666666666667
 40
0.1666666666666667
 40
0.2
 40
0.2
 40
0.2
 40
0.2
 40
0.2333333333333333
 40
0.2333333333333333
 40
0.2333333333333333
 40
0.2333333333333333
 40
0.2666666666666667
 40
0.2666666666666667
 40
0.2666666666666667
 40
0.2666666666666667
 40
0.3
 40
0.3
 40
0.3
 40
0.3
 40
0.3333333333333333
 40
0.3333333333333333
 40
0.3333333333333333
 40
0.3333333333333333
 40
0.3666666666666666
 40
0.3666666666666666
 40
0.3666666666666666
 40
0.3666666666666666
 40
0.4
 40
0.4
 40
0.4
 40
0.4
 40
0.4333333333333333
 40
0.4333333333333333
 40
0.4333333333333333
 40
0.4333333333333333
 40
0.4666666666666667
 40
0.4666666666666667
 40
0.4666666666666667
 40
0.4666666666666667
 40
0.5
 40
0.5
 40
0.5
 40
0.5
 40
0.5333333333333333
 40
0.5333333333333333
 40
0.5333333333333333
 40
0.5333333333333333
 40
0.5666666666666667
 40
0.5666666666666667
 40
0.5666666666666667
 40
0.5666666666666667
 40
0.6
 40
0.6
 40
0.6
 40
0.6
 40
0.6333333333333333
 40
0.6333333333333333
 40
0.6333333333333333
 40
0.6333333333333333
 40
0.6666666666666666
 40
0.6666666666666666
 40
0.6666666666666666
 40
0.6666666666666666
 40
0.7
 40
0.7
 40
0.7
 40
0.7
 40
0.7333333333333333
 40
0.7333333333333333
 40
0.7333333333333333
 40
0.7333333333333333
 40
0.7666666666666667
 40
0.7666666666666667
 40
0.7666666666666667
 40
0.7666666666666667
 40
0.8
 40
0.8
 40
0.8
 40
0.8
 40
0.8333333333333334
 40
0.8333333333333334
 40
0.8333333333333334
 40
0.8333333333333334
 40
0.8666666666666667
 40
0.8666666666666667
 40
0.8666666666666667
 40
0.8666666666666667
 40
0.9
 40
0.9
 40
0.9
 40
0.9
 40
0.9333333333333333
 40
0.9333333333333333
 40
0.9333333333333333
 40
0.9333333333333333
 40
1.0
 40
1.0
 40
1.0
 40
1.0
 10
-17.4931
 20
27.7911
 30
0.0
 10
-17.4931
 20
27.7911
 30
0.0
 10
-17.4931
 20
28.0277
 30
0.0
 10
-17.4931
 20
28.0277
 30
0.0
 10
-17.4931
 20
28.0277
 30
0.0
 10
-17.4931
 20
28.0277
 30
0.0
 10
-16.6375
 20
28.0291
 30
0.0
 10
-16.6375
 20
28.0291
 30
0.0
 10
-16.6375
 20
28.0291
 30
0.0
 10
-16.6375
 20
28.0291
 30
0.0
 10
-16.6375
 20
27.2798
 30
0.0
 10
-16.6375
 20
27.2798
 30
0.0
 10
-16.6375
 20
27.2798
 30
0.0
 10
-16.7687
 20
27.1749
 30
0.0
 10
-16.9042
 20
27.0963
 30
0.0
 10
-17.0439
 20
27.0432
 30
0.0
 10
-17.0439
 20
27.0432
 30
0.0
 10
-17.1836
 20
26.9905
 30
0.0
 10
-17.327
 20
26.9642
 30
0.0
 10
-17.4738
 20
26.9642
 30
0.0
 10
-17.4738
 20
26.9642
 30
0.0
 10
-17.6723
 20
26.9642
 30
0.0
 10
-17.8529
 20
27.0065
 30
0.0
 10
-18.0147
 20
27.0916
 30
0.0
 10
-18.0147
 20
27.0916
 30
0.0
 10
-18.177
 20
27.1763
 30
0.0
 10
-18.2993
 20
27.2995
 30
0.0
 10
-18.3821
 20
27.4599
 30
0.0
 10
-18.3821
 20
27.4599
 30
0.0
 10
-18.4649
 20
27.6208
 30
0.0
 10
-18.5063
 20
27.8005
 30
0.0
 10
-18.5063
 20
27.999
 30
0.0
 10
-18.5063
 20
27.999
 30
0.0
 10
-18.5063
 20
28.1956
 30
0.0
 10
-18.4649
 20
28.379
 30
0.0
 10
-18.3825
 20
28.5493
 30
0.0
 10
-18.3825
 20
28.5493
 30
0.0
 10
-18.3007
 20
28.72
 30
0.0
 10
-18.1822
 20
28.8466
 30
0.0
 10
-18.0279
 20
28.9294
 30
0.0
 10
-18.0279
 20
28.9294
 30
0.0
 10
-17.8736
 20
29.0117
 30
0.0
 10
-17.6958
 20
29.0531
 30
0.0
 10
-17.4945
 20
29.0531
 30
0.0
 10
-17.4945
 20
29.0531
 30
0.0
 10
-17.3487
 20
29.0531
 30
0.0
 10
-17.2165
 20
29.0295
 30
0.0
 10
-17.0984
 20
28.982
 30
0.0
 10
-17.0984
 20
28.982
 30
0.0
 10
-16.9804
 20
28.935
 30
0.0
 10
-16.8877
 20
28.8691
 30
0.0
 10
-16.8209
 20
28.7845
 30
0.0
 10
-16.8209
 20
28.7845
 30
0.0
 10
-16.7537
 20
28.6998
 30
0.0
 10
-16.7029
 20
28.5898
 30
0.0
 10
-16.6676
 20
28.4538
 30
0.0
 10
-16.6676
 20
28.4538
 30
0.0
 10
-16.6676
 20
28.4538
 30
0.0
 10
-16.9089
 20
28.3875
 30
0.0
 10
-16.9089
 20
28.3875
 30
0.0
 10
-16.9089
 20
28.3875
 30
0.0
 10
-16.9395
 20
28.4905
 30
0.0
 10
-16.9771
 20
28.5714
 30
0.0
 10
-17.0218
 20
28.6302
 30
0.0
 10
-17.0218
 20
28.6302
 30
0.0
 10
-17.0669
 20
28.689
 30
0.0
 10
-17.1314
 20
28.736
 30
0.0
 10
-17.2151
 20
28.7713
 30
0.0
 10
-17.2151
 20
28.7713
 30
0.0
 10
-17.2984
 20
28.8066
 30
0.0
 10
-17.3915
 20
28.8245
 30
0.0
 10
-17.4931
 20
28.8245
 30
0.0
 10
-17.4931
 20
28.8245
 30
0.0
 10
-17.6154
 20
28.8245
 30
0.0
 10
-17.7212
 20
28.8056
 30
0.0
 10
-17.8101
 20
28.7685
 30
0.0
 10
-17.8101
 20
28.7685
 30
0.0
 10
-17.8995
 20
28.7313
 30
0.0
 10
-17.971
 20
28.6824
 30
0.0
 10
-18.026
 20
28.6217
 30
0.0
 10
-18.026
 20
28.6217
 30
0.0
 10
-18.0806
 20
28.5611
 30
0.0
 10
-18.1229
 20
28.4947
 30
0.0
 10
-18.1535
 20
28.4218
 30
0.0
 10
-18.1535
 20
28.4218
 30
0.0
 10
-18.2047
 20
28.2972
 30
0.0
 10
-18.2306
 20
28.1617
 30
0.0
 10
-18.2306
 20
28.0154
 30
0.0
 10
-18.2306
 20
28.0154
 30
0.0
 10
-18.2306
 20
27.8353
 30
0.0
 10
-18.1996
 20
27.6848
 30
0.0
 10
-18.1375
 20
27.5634
 30
0.0
 10
-18.1375
 20
27.5634
 30
0.0
 10
-18.0754
 20
27.4421
 30
0.0
 10
-17.9851
 20
27.3522
 30
0.0
 10
-17.8666
 20
27.2934
 30
0.0
 10
-17.8666
 20
27.2934
 30
0.0
 10
-17.748
 20
27.2346
 30
0.0
 10
-17.6224
 20
27.205
 30
0.0
 10
-17.4893
 20
27.205
 30
0.0
 10
-17.4893
 20
27.205
 30
0.0
 10
-17.3731
 20
27.205
 30
0.0
 10
-17.2603
 20
27.2276
 30
0.0
 10
-17.1502
 20
27.2723
 30
0.0
 10
-17.1502
 20
27.2723
 30
0.0
 10
-17.0396
 20
27.3165
 30
0.0
 10
-16.9564
 20
27.364
 30
0.0
 10
-16.8995
 20
27.4148
 30
0.0
 10
-16.8995
 20
27.4148
 30
0.0
 10
-16.8995
 20
27.4148
 30
0.0
 10
-16.8995
 20
27.7911
 30
0.0
 10
-16.8995
 20
27.7911
 30
0.0
 10
-16.8995
 20
27.7911
 30
0.0
 10
-16.8995
 20
27.7911
 30
0.0
 10
-17.4931
 20
27.7911
 30
0.0
 10
-17.4931
 20
27.7911
 30
0.0
  0
SPLINE
  5
61
330
1F
100
AcDbEntity
  8
DEFAULT_1
 62
   250
100
AcDbSpline
210
0.0
220
0.0
230
1.0
 70
    11
 71
     3
 72
    92
 73
    88
 74
     0
 42
0.0000000001
 43
0.0000000001
 40
0.0
 40
0.0
 40
0.0
 40
0.0
 40
0.0434782608695652
 40
0.0434782608695652
 40
0.0434782608695652
 40
0.0434782608695652
 40
0.0869565217391304
 40
0.0869565217391304
 40
0.0869565217391304
 40
0.0869565217391304
 40
0.1304347826086956
 40
0.1304347826086956
 40
0.1304347826086956
 40
0.1304347826086956
 40
0.1739130434782609
 40
0.1739130434782609
 40
0.1739130434782609
 40
0.1739130434782609
 40
0.2173913043478261
 40
0.2173913043478261
 40
0.2173913043478261
 40
0.2173913043478261
 40
0.2608695652173913
 40
0.2608695652173913
 40
0.2608695652173913
 40
0.2608695652173913
 40
0.3043478260869565
 40
0.3043478260869565
 40
0.3043478260869565
 40
0.3043478260869565
 40
0.3478260869565217
 40
0.3478260869565217
 40
0.3478260869565217
 40
0.3478260869565217
 40
0.391304347826087
 40
0.391304347826087
 40
0.391304347826087
 40
0.391304347826087
 40
0.4347826086956522
 40
0.4347826086956522
 40
0.4347826086956522
 40
0.4347826086956522
 40
0.4782608695652174
 40
0.4782608695652174
 40
0.4782608695652174
 40
0.4782608695652174
 40
0.5217391304347826
 40
0.5217391304347826
 40
0.5217391304347826
 40
0.5217391304347826
 40
0.5652173913043478
 40
0.5652173913043478
 40
0.5652173913043478
 40
0.5652173913043478
 40
0.6086956521739131
 40
0.6086956521739131
 40
0.6086956521739131
 40
0.6086956521739131
 40
0.6521739130434783
 40
0.6521739130434783
 40
0.6521739130434783
 40
0.6521739130434783
 40
0.6956521739130435
 40
0.6956521739130435
 40
0.6956521739130435
 40
0.6956521739130435
 40
0.7391304347826086
 40
0.7391304347826086
 40
0.7391304347826086
 40
0.7391304347826086
 40
0.782608695652174
 40
0.782608695652174
 40
0.782608695652174
 40
0.782608695652174
 40
0.8260869565217391
 40
0.8260869565217391
 40
0.8260869565217391
 40
0.8260869565217391
 40
0.8695652173913043
 40
0.8695652173913043
 40
0.8695652173913043
 40
0.8695652173913043
 40
0.9130434782608695
 40
0.9130434782608695
 40
0.9130434782608695
 40
0.9130434782608695
 40
1.0
 40
1.0
 40
1.0
 40
1.0
 10
-15.5599
 20
27.5277
 30
0.0
 10
-15.5599
 20
27.5277
 30
0.0
 10
-15.2993
 20
27.5498
 30
0.0
 10
-15.2993
 20
27.5498
 30
0.0
 10
-15.2993
 20
27.5498
 30
0.0
 10
-15.28
 20
27.4228
 30
0.0
 10
-15.2353
 20
27.3278
 30
0.0
 10
-15.1652
 20
27.2638
 30
0.0
 10
-15.1652
 20
27.2638
 30
0.0
 10
-15.0947
 20
27.1998
 30
0.0
 10
-15.01
 20
27.1678
 30
0.0
 10
-14.9108
 20
27.1678
 30
0.0
 10
-14.9108
 20
27.1678
 30
0.0
 10
-14.7913
 20
27.1678
 30
0.0
 10
-14.6902
 20
27.213
 30
0.0
 10
-14.6079
 20
27.3028
 30
0.0
 10
-14.6079
 20
27.3028
 30
0.0
 10
-14.5251
 20
27.3931
 30
0.0
 10
-14.4837
 20
27.5126
 30
0.0
 10
-14.4837
 20
27.6612
 30
0.0
 10
-14.4837
 20
27.6612
 30
0.0
 10
-14.4837
 20
27.8028
 30
0.0
 10
-14.5232
 20
27.9143
 30
0.0
 10
-14.6027
 20
27.9961
 30
0.0
 10
-14.6027
 20
27.9961
 30
0.0
 10
-14.6822
 20
28.078
 30
0.0
 10
-14.7861
 20
28.1189
 30
0.0
 10
-14.915
 20
28.1189
 30
0.0
 10
-14.915
 20
28.1189
 30
0.0
 10
-14.995
 20
28.1189
 30
0.0
 10
-15.0669
 20
28.1006
 30
0.0
 10
-15.1314
 20
28.0644
 30
0.0
 10
-15.1314
 20
28.0644
 30
0.0
 10
-15.1958
 20
28.0281
 30
0.0
 10
-15.2461
 20
27.9811
 30
0.0
 10
-15.2828
 20
27.9232
 30
0.0
 10
-15.2828
 20
27.9232
 30
0.0
 10
-15.2828
 20
27.9232
 30
0.0
 10
-15.5157
 20
27.9533
 30
0.0
 10
-15.5157
 20
27.9533
 30
0.0
 10
-15.5157
 20
27.9533
 30
0.0
 10
-15.5157
 20
27.9533
 30
0.0
 10
-15.32
 20
28.991
 30
0.0
 10
-15.32
 20
28.991
 30
0.0
 10
-15.32
 20
28.991
 30
0.0
 10
-15.32
 20
28.991
 30
0.0
 10
-14.3153
 20
28.991
 30
0.0
 10
-14.3153
 20
28.991
 30
0.0
 10
-14.3153
 20
28.991
 30
0.0
 10
-14.3153
 20
28.991
 30
0.0
 10
-14.3153
 20
28.7539
 30
0.0
 10
-14.3153
 20
28.7539
 30
0.0
 10
-14.3153
 20
28.7539
 30
0.0
 10
-14.3153
 20
28.7539
 30
0.0
 10
-15.1215
 20
28.7539
 30
0.0
 10
-15.1215
 20
28.7539
 30
0.0
 10
-15.1215
 20
28.7539
 30
0.0
 10
-15.1215
 20
28.7539
 30
0.0
 10
-15.2306
 20
28.2111
 30
0.0
 10
-15.2306
 20
28.2111
 30
0.0
 10
-15.2306
 20
28.2111
 30
0.0
 10
-15.1093
 20
28.2958
 30
0.0
 10
-14.9818
 20
28.3381
 30
0.0
 10
-14.8487
 20
28.3381
 30
0.0
 10
-14.8487
 20
28.3381
 30
0.0
 10
-14.6723
 20
28.3381
 30
0.0
 10
-14.5237
 20
28.277
 30
0.0
 10
-14.4023
 20
28.1547
 30
0.0
 10
-14.4023
 20
28.1547
 30
0.0
 10
-14.281
 20
28.0324
 30
0.0
 10
-14.2203
 20
27.8753
 30
0.0
 10
-14.2203
 20
27.6834
 30
0.0
 10
-14.2203
 20
27.6834
 30
0.0
 10
-14.2203
 20
27.5004
 30
0.0
 10
-14.2739
 20
27.3423
 30
0.0
 10
-14.3802
 20
27.2092
 30
0.0
 10
-14.3802
 20
27.2092
 30
0.0
 10
-14.51
 20
27.046
 30
0.0
 10
-14.6869
 20
26.9642
 30
0.0
 10
-14.9108
 20
26.9642
 30
0.0
 10
-14.9108
 20
26.9642
 30
0.0
 10
-15.0947
 20
26.9642
 30
0.0
 10
-15.2447
 20
27.0154
 30
0.0
 10
-15.3609
 20
27.1184
 30
0.0
 10
-15.3609
 20
27.1184
 30
0.0
 10
-15.4771
 20
27.2215
 30
0.0
 10
-15.5434
 20
27.3579
 30
0.0
 10
-15.5599
 20
27.5277
 30
0.0
  0
SPLINE
  5
62
330
1F
100
AcDbEntity
  8
DEFAULT_1
 62
   250
100
AcDbSpline
210
0.0
220
0.0
230
1.0
 70
    11
 71
     3
 72
    20
 73
    16
 74
     0
 42
0.0000000001
 43
0.0000000001
 40
0.0
 40
0.0
 40
0.0
 40
0.0
 40
0.2
 40
0.2
 40
0.2
 40
0.2
 40
0.4
 40
0.4
 40
0.4
 40
0.4
 40
0.6
 40
0.6
 40
0.6
 40
0.6
 40
1.0
 40
1.0
 40
1.0
 40
1.0
 10
-14.1074
 20
26.9642
 30
0.0
 10
-14.1074
 20
26.9642
 30
0.0
 10
-13.5218
 20
29.0531
 30
0.0
 10
-13.5218
 20
29.0531
 30
0.0
 10
-13.5218
 20
29.0531
 30
0.0
 10
-13.5218
 20
29.0531
 30
0.0
 10
-13.3233
 20
29.0531
 30
0.0
 10
-13.3233
 20
29.0531
 30
0.0
 10
-13.3233
 20
29.0531
 30
0.0
 10
-13.3233
 20
29.0531
 30
0.0
 10
-13.9075
 20
26.9642
 30
0.0
 10
-13.9075
 20
26.9642
 30
0.0
 10
-13.9075
 20
26.9642
 30
0.0
 10
-13.9075
 20
26.9642
 30
0.0
 10
-14.1074
 20
26.9642
 30
0.0
 10
-14.1074
 20
26.9642
 30
0.0
  0
SPLINE
  5
63
330
1F
100
AcDbEntity
  8
DEFAULT_1
 62
   250
100
AcDbSpline
210
0.0
220
0.0
230
1.0
 70
    11
 71
     3
 72
    48
 73
    44
 74
     0
 42
0.0000000001
 43
0.0000000001
 40
0.0
 40
0.0
 40
0.0
 40
0.0
 40
0.0833333333333333
 40
0.0833333333333333
 40
0.0833333333333333
 40
0.0833333333333333
 40
0.1666666666666667
 40
0.1666666666666667
 40
0.1666666666666667
 40
0.1666666666666667
 40
0.25
 40
0.25
 40
0.25
 40
0.25
 40
0.3333333333333333
 40
0.3333333333333333
 40
0.3333333333333333
 40
0.3333333333333333
 40
0.4166666666666667
 40
0.4166666666666667
 40
0.4166666666666667
 40
0.4166666666666667
 40
0.5
 40
0.5
 40
0.5
 40
0.5
 40
0.5833333333333334
 40
0.5833333333333334
 40
0.5833333333333334
 40
0.5833333333333334
 40
0.6666666666666666
 40
0.6666666666666666
 40
0.6666666666666666
 40
0.6666666666666666
 40
0.75
 40
0.75
 40
0.75
 40
0.75
 40
0.8333333333333334
 40
0.8333333333333334
 40
0.8333333333333334
 40
0.8333333333333334
 40
1.0
 40
1.0
 40
1.0
 40
1.0
 10
-12.4113
 20
26.9985
 30
0.0
 10
-12.4113
 20
26.9985
 30
0.0
 10
-12.4113
 20
27.482
 30
0.0
 10
-12.4113
 20
27.482
 30
0.0
 10
-12.4113
 20
27.482
 30
0.0
 10
-12.4113
 20
27.482
 30
0.0
 10
-13.2876
 20
27.482
 30
0.0
 10
-13.2876
 20
27.482
 30
0.0
 10
-13.2876
 20
27.482
 30
0.0
 10
-13.2876
 20
27.482
 30
0.0
 10
-13.2876
 20
27.7097
 30
0.0
 10
-13.2876
 20
27.7097
 30
0.0
 10
-13.2876
 20
27.7097
 30
0.0
 10
-13.2876
 20
27.7097
 30
0.0
 10
-12.3656
 20
29.0187
 30
0.0
 10
-12.3656
 20
29.0187
 30
0.0
 10
-12.3656
 20
29.0187
 30
0.0
 10
-12.3656
 20
29.0187
 30
0.0
 10
-12.1629
 20
29.0187
 30
0.0
 10
-12.1629
 20
29.0187
 30
0.0
 10
-12.1629
 20
29.0187
 30
0.0
 10
-12.1629
 20
29.0187
 30
0.0
 10
-12.1629
 20
27.7097
 30
0.0
 10
-12.1629
 20
27.7097
 30
0.0
 10
-12.1629
 20
27.7097
 30
0.0
 10
-12.1629
 20
27.7097
 30
0.0
 10
-11.8901
 20
27.7097
 30
0.0
 10
-11.8901
 20
27.7097
 30
0.0
 10
-11.8901
 20
27.7097
 30
0.0
 10
-11.8901
 20
27.7097
 30
0.0
 10
-11.8901
 20
27.482
 30
0.0
 10
-11.8901
 20
27.482
 30
0.0
 10
-11.8901
 20
27.482
 30
0.0
 10
-11.8901
 20
27.482
 30
0.0
 10
-12.1629
 20
27.482
 30
0.0
 10
-12.1629
 20
27.482
 30
0.0
 10
-12.1629
 20
27.482
 30
0.0
 10
-12.1629
 20
27.482
 30
0.0
 10
-12.1629
 20
26.9985
 30
0.0
 10
-12.1629
 20
26.9985
 30
0.0
 10
-12.1629
 20
26.9985
 30
0.0
 10
-12.1629
 20
26.9985
 30
0.0
 10
-12.4113
 20
26.9985
 30
0.0
 10
-12.4113
 20
26.9985
 30
0.0
  0
SPLINE
  5
64
330
1F
100
AcDbEntity
  8
DEFAULT_1
 62
   250
100
AcDbSpline
210
0.0
220
0.0
230
1.0
 70
    11
 71
     3
 72
    16
 73
    12
 74
     0
 42
0.0000000001
 43
0.0000000001
 40
0.0
 40
0.0
 40
0.0
 40
0.0
 40
0.25
 40
0.25
 40
0.25
 40
0.25
 40
0.5
 40
0.5
 40
0.5
 40
0.5
 40
1.0
 40
1.0
 40
1.0
 40
1.0
 10
-12.4113
 20
27.7097
 30
0.0
 10
-12.4113
 20
27.7097
 30
0.0
 10
-12.4113
 20
28.6203
 30
0.0
 10
-12.4113
 20
28.6203
 30
0.0
 10
-12.4113
 20
28.6203
 30
0.0
 10
-12.4113
 20
28.6203
 30
0.0
 10
-13.0434
 20
27.7097
 30
0.0
 10
-13.0434
 20
27.7097
 30
0.0
 10
-13.0434
 20
27.7097
 30
0.0
 10
-13.0434
 20
27.7097
 30
0.0
 10
-12.4113
 20
27.7097
 30
0.0
 10
-12.4113
 20
27.7097
 30
0.0
  0
SPLINE
  5
65
330
1F
100
AcDbEntity
  8
DEFAULT_1
 62
   250
100
AcDbSpline
210
0.0
220
0.0
230
1.0
 70
    11
 71
     3
 72
    28
 73
    24
 74
     0
 42
0.0000000001
 43
0.0000000001
 40
0.0
 40
0.0
 40
0.0
 40
0.0
 40
0.1428571428571428
 40
0.1428571428571428
 40
0.1428571428571428
 40
0.1428571428571428
 40
0.2857142857142857
 40
0.2857142857142857
 40
0.2857142857142857
 40
0.2857142857142857
 40
0.4285714285714285
 40
0.4285714285714285
 40
0.4285714285714285
 40
0.4285714285714285
 40
0.5714285714285714
 40
0.5714285714285714
 40
0.5714285714285714
 40
0.5714285714285714
 40
0.7142857142857143
 40
0.7142857142857143
 40
0.7142857142857143
 40
0.7142857142857143
 40
1.0
 40
1.0
 40
1.0
 40
1.0
 10
-11.5552
 20
28.3033
 30
0.0
 10
-11.5552
 20
28.3033
 30
0.0
 10
-11.6243
 20
28.6881
 30
0.0
 10
-11.6243
 20
28.6881
 30
0.0
 10
-11.6243
 20
28.6881
 30
0.0
 10
-11.6243
 20
28.6881
 30
0.0
 10
-11.6243
 20
29.0187
 30
0.0
 10
-11.6243
 20
29.0187
 30
0.0
 10
-11.6243
 20
29.0187
 30
0.0
 10
-11.6243
 20
29.0187
 30
0.0
 10
-11.3417
 20
29.0187
 30
0.0
 10
-11.3417
 20
29.0187
 30
0.0
 10
-11.3417
 20
29.0187
 30
0.0
 10
-11.3417
 20
29.0187
 30
0.0
 10
-11.3417
 20
28.6881
 30
0.0
 10
-11.3417
 20
28.6881
 30
0.0
 10
-11.3417
 20
28.6881
 30
0.0
 10
-11.3417
 20
28.6881
 30
0.0
 10
-11.4037
 20
28.3033
 30
0.0
 10
-11.4037
 20
28.3033
 30
0.0
 10
-11.4037
 20
28.3033
 30
0.0
 10
-11.4037
 20
28.3033
 30
0.0
 10
-11.5552
 20
28.3033
 30
0.0
 10
-11.5552
 20
28.3033
 30
0.0
  0
SPLINE
  5
66
330
1F
100
AcDbEntity
  8
DEFAULT_1
 62
   250
100
AcDbSpline
210
0.0
220
0.0
230
1.0
 70
    11
 71
     3
 72
    28
 73
    24
 74
     0
 42
0.0000000001
 43
0.0000000001
 40
0.0
 40
0.0
 40
0.0
 40
0.0
 40
0.1428571428571428
 40
0.1428571428571428
 40
0.1428571428571428
 40
0.1428571428571428
 40
0.2857142857142857
 40
0.2857142857142857
 40
0.2857142857142857
 40
0.2857142857142857
 40
0.4285714285714285
 40
0.4285714285714285
 40
0.4285714285714285
 40
0.4285714285714285
 40
0.5714285714285714
 40
0.5714285714285714
 40
0.5714285714285714
 40
0.5714285714285714
 40
0.7142857142857143
 40
0.7142857142857143
 40
0.7142857142857143
 40
0.7142857142857143
 40
1.0
 40
1.0
 40
1.0
 40
1.0
 10
-11.0989
 20
28.3033
 30
0.0
 10
-11.0989
 20
28.3033
 30
0.0
 10
-11.1667
 20
28.6881
 30
0.0
 10
-11.1667
 20
28.6881
 30
0.0
 10
-11.1667
 20
28.6881
 30
0.0
 10
-11.1667
 20
28.6881
 30
0.0
 10
-11.1667
 20
29.0187
 30
0.0
 10
-11.1667
 20
29.0187
 30
0.0
 10
-11.1667
 20
29.0187
 30
0.0
 10
-11.1667
 20
29.0187
 30
0.0
 10
-10.884
 20
29.0187
 30
0.0
 10
-10.884
 20
29.0187
 30
0.0
 10
-10.884
 20
29.0187
 30
0.0
 10
-10.884
 20
29.0187
 30
0.0
 10
-10.884
 20
28.6881
 30
0.0
 10
-10.884
 20
28.6881
 30
0.0
 10
-10.884
 20
28.6881
 30
0.0
 10
-10.884
 20
28.6881
 30
0.0
 10
-10.9503
 20
28.3033
 30
0.0
 10
-10.9503
 20
28.3033
 30
0.0
 10
-10.9503
 20
28.3033
 30
0.0
 10
-10.9503
 20
28.3033
 30
0.0
 10
-11.0989
 20
28.3033
 30
0.0
 10
-11.0989
 20
28.3033
 30
0.0
  0
SPLINE
  5
67
330
1F
100
AcDbEntity
  8
DEFAULT_1
 62
   250
100
AcDbSpline
210
0.0
220
0.0
230
1.0
 70
    11
 71
     3
 72
    40
 73
    36
 74
     0
 42
0.0000000001
 43
0.0000000001
 40
0.0
 40
0.0
 40
0.0
 40
0.0
 40
0.1
 40
0.1
 40
0.1
 40
0.1
 40
0.2
 40
0.2
 40
0.2
 40
0.2
 40
0.3
 40
0.3
 40
0.3
 40
0.3
 40
0.4
 40
0.4
 40
0.4
 40
0.4
 40
0.5
 40
0.5
 40
0.5
 40
0.5
 40
0.6
 40
0.6
 40
0.6
 40
0.6
 40
0.7
 40
0.7
 40
0.7
 40
0.7
 40
0.8
 40
0.8
 40
0.8
 40
0.8
 40
1.0
 40
1.0
 40
1.0
 40
1.0
 10
-25.3116
 20
-0.9546
 30
0.0
 10
-25.3116
 20
-0.9546
 30
0.0
 10
-25.3116
 20
-1.2025
 30
0.0
 10
-25.3116
 20
-1.2025
 30
0.0
 10
-25.3116
 20
-1.2025
 30
0.0
 10
-25.3116
 20
-1.2025
 30
0.0
 10
-26.892
 20
-1.2025
 30
0.0
 10
-26.892
 20
-1.2025
 30
0.0
 10
-26.892
 20
-1.2025
 30
0.0
 10
-26.8351
 20
-1.2623
 30
0.0
 10
-26.7782
 20
-1.3403
 30
0.0
 10
-26.7213
 20
-1.4372
 30
0.0
 10
-26.7213
 20
-1.4372
 30
0.0
 10
-26.6644
 20
-1.5346
 30
0.0
 10
-26.6216
 20
-1.6216
 30
0.0
 10
-26.5933
 20
-1.6988
 30
0.0
 10
-26.5933
 20
-1.6988
 30
0.0
 10
-26.5933
 20
-1.6988
 30
0.0
 10
-26.8328
 20
-1.6988
 30
0.0
 10
-26.8328
 20
-1.6988
 30
0.0
 10
-26.8328
 20
-1.6988
 30
0.0
 10
-26.8981
 20
-1.56
 30
0.0
 10
-26.9772
 20
-1.4386
 30
0.0
 10
-27.0698
 20
-1.3347
 30
0.0
 10
-27.0698
 20
-1.3347
 30
0.0
 10
-27.163
 20
-1.2312
 30
0.0
 10
-27.2528
 20
-1.1574
 30
0.0
 10
-27.3403
 20
-1.1141
 30
0.0
 10
-27.3403
 20
-1.1141
 30
0.0
 10
-27.3403
 20
-1.1141
 30
0.0
 10
-27.3403
 20
-0.9546
 30
0.0
 10
-27.3403
 20
-0.9546
 30
0.0
 10
-27.3403
 20
-0.9546
 30
0.0
 10
-27.3403
 20
-0.9546
 30
0.0
 10
-25.3116
 20
-0.9546
 30
0.0
 10
-25.3116
 20
-0.9546
 30
0.0
  0
SPLINE
  5
68
330
1F
100
AcDbEntity
  8
DEFAULT_1
 62
   250
100
AcDbSpline
210
0.0
220
0.0
230
1.0
 70
    11
 71
     3
 72
    40
 73
    36
 74
     0
 42
0.0000000001
 43
0.0000000001
 40
0.0
 40
0.0
 40
0.0
 40
0.0
 40
0.1
 40
0.1
 40
0.1
 40
0.1
 40
0.2
 40
0.2
 40
0.2
 40
0.2
 40
0.3
 40
0.3
 40
0.3
 40
0.3
 40
0.4
 40
0.4
 40
0.4
 40
0.4
 40
0.5
 40
0.5
 40
0.5
 40
0.5
 40
0.6
 40
0.6
 40
0.6
 40
0.6
 40
0.7
 40
0.7
 40
0.7
 40
0.7
 40
0.8
 40
0.8
 40
0.8
 40
0.8
 40
1.0
 40
1.0
 40
1.0
 40
1.0
 10
-25.3116
 20
0.4057
 30
0.0
 10
-25.3116
 20
0.4057
 30
0.0
 10
-25.3116
 20
0.1578
 30
0.0
 10
-25.3116
 20
0.1578
 30
0.0
 10
-25.3116
 20
0.1578
 30
0.0
 10
-25.3116
 20
0.1578
 30
0.0
 10
-26.892
 20
0.1578
 30
0.0
 10
-26.892
 20
0.1578
 30
0.0
 10
-26.892
 20
0.1578
 30
0.0
 10
-26.8351
 20
0.098
 30
0.0
 10
-26.7782
 20
0.02
 30
0.0
 10
-26.7213
 20
-0.0769
 30
0.0
 10
-26.7213
 20
-0.0769
 30
0.0
 10
-26.6644
 20
-0.1743
 30
0.0
 10
-26.6216
 20
-0.2613
 30
0.0
 10
-26.5933
 20
-0.3385
 30
0.0
 10
-26.5933
 20
-0.3385
 30
0.0
 10
-26.5933
 20
-0.3385
 30
0.0
 10
-26.8328
 20
-0.3385
 30
0.0
 10
-26.8328
 20
-0.3385
 30
0.0
 10
-26.8328
 20
-0.3385
 30
0.0
 10
-26.8981
 20
-0.1997
 30
0.0
 10
-26.9772
 20
-0.0783
 30
0.0
 10
-27.0698
 20
0.0256
 30
0.0
 10
-27.0698
 20
0.0256
 30
0.0
 10
-27.163
 20
0.1291
 30
0.0
 10
-27.2528
 20
0.2029
 30
0.0
 10
-27.3403
 20
0.2462
 30
0.0
 10
-27.3403
 20
0.2462
 30
0.0
 10
-27.3403
 20
0.2462
 30
0.0
 10
-27.3403
 20
0.4057
 30
0.0
 10
-27.3403
 20
0.4057
 30
0.0
 10
-27.3403
 20
0.4057
 30
0.0
 10
-27.3403
 20
0.4057
 30
0.0
 10
-25.3116
 20
0.4057
 30
0.0
 10
-25.3116
 20
0.4057
 30
0.0
  0
SPLINE
  5
69
330
1F
100
AcDbEntity
  8
DEFAULT_1
 62
   250
100
AcDbSpline
210
0.0
220
0.0
230
1.0
 70
    11
 71
     3
 72
    92
 73
    88
 74
     0
 42
0.0000000001
 43
0.0000000001
 40
0.0
 40
0.0
 40
0.0
 40
0.0
 40
0.0434782608695652
 40
0.0434782608695652
 40
0.0434782608695652
 40
0.0434782608695652
 40
0.0869565217391304
 40
0.0869565217391304
 40
0.0869565217391304
 40
0.0869565217391304
 40
0.1304347826086956
 40
0.1304347826086956
 40
0.1304347826086956
 40
0.1304347826086956
 40
0.1739130434782609
 40
0.1739130434782609
 40
0.1739130434782609
 40
0.1739130434782609
 40
0.2173913043478261
 40
0.2173913043478261
 40
0.2173913043478261
 40
0.2173913043478261
 40
0.2608695652173913
 40
0.2608695652173913
 40
0.2608695652173913
 40
0.2608695652173913
 40
0.3043478260869565
 40
0.3043478260869565
 40
0.3043478260869565
 40
0.3043478260869565
 40
0.3478260869565217
 40
0.3478260869565217
 40
0.3478260869565217
 40
0.3478260869565217
 40
0.391304347826087
 40
0.391304347826087
 40
0.391304347826087
 40
0.391304347826087
 40
0.4347826086956522
 40
0.4347826086956522
 40
0.4347826086956522
 40
0.4347826086956522
 40
0.4782608695652174
 40
0.4782608695652174
 40
0.4782608695652174
 40
0.4782608695652174
 40
0.5217391304347826
 40
0.5217391304347826
 40
0.5217391304347826
 40
0.5217391304347826
 40
0.5652173913043478
 40
0.5652173913043478
 40
0.5652173913043478
 40
0.5652173913043478
 40
0.6086956521739131
 40
0.6086956521739131
 40
0.6086956521739131
 40
0.6086956521739131
 40
0.6521739130434783
 40
0.6521739130434783
 40
0.6521739130434783
 40
0.6521739130434783
 40
0.6956521739130435
 40
0.6956521739130435
 40
0.6956521739130435
 40
0.6956521739130435
 40
0.7391304347826086
 40
0.7391304347826086
 40
0.7391304347826086
 40
0.7391304347826086
 40
0.782608695652174
 40
0.782608695652174
 40
0.782608695652174
 40
0.782608695652174
 40
0.8260869565217391
 40
0.8260869565217391
 40
0.8260869565217391
 40
0.8260869565217391
 40
0.8695652173913043
 40
0.8695652173913043
 40
0.8695652173913043
 40
0.8695652173913043
 40
0.9130434782608695
 40
0.9130434782608695
 40
0.9130434782608695
 40
0.9130434782608695
 40
1.0
 40
1.0
 40
1.0
 40
1.0
 10
-25.8408
 20
1.0411
 30
0.0
 10
-25.8408
 20
1.0411
 30
0.0
 10
-25.8629
 20
1.3017
 30
0.0
 10
-25.8629
 20
1.3017
 30
0.0
 10
-25.8629
 20
1.3017
 30
0.0
 10
-25.7359
 20
1.321
 30
0.0
 10
-25.6409
 20
1.3657
 30
0.0
 10
-25.5769
 20
1.4358
 30
0.0
 10
-25.5769
 20
1.4358
 30
0.0
 10
-25.5129
 20
1.5063
 30
0.0
 10
-25.4809
 20
1.591
 30
0.0
 10
-25.4809
 20
1.6902
 30
0.0
 10
-25.4809
 20
1.6902
 30
0.0
 10
-25.4809
 20
1.8097
 30
0.0
 10
-25.5261
 20
1.9108
 30
0.0
 10
-25.6159
 20
1.9931
 30
0.0
 10
-25.6159
 20
1.9931
 30
0.0
 10
-25.7062
 20
2.0759
 30
0.0
 10
-25.8257
 20
2.1173
 30
0.0
 10
-25.9743
 20
2.1173
 30
0.0
 10
-25.9743
 20
2.1173
 30
0.0
 10
-26.1159
 20
2.1173
 30
0.0
 10
-26.2274
 20
2.0778
 30
0.0
 10
-26.3092
 20
1.9983
 30
0.0
 10
-26.3092
 20
1.9983
 30
0.0
 10
-26.3911
 20
1.9188
 30
0.0
 10
-26.432
 20
1.8149
 30
0.0
 10
-26.432
 20
1.686
 30
0.0
 10
-26.432
 20
1.686
 30
0.0
 10
-26.432
 20
1.606
 30
0.0
 10
-26.4137
 20
1.5341
 30
0.0
 10
-26.3775
 20
1.4696
 30
0.0
 10
-26.3775
 20
1.4696
 30
0.0
 10
-26.3412
 20
1.4052
 30
0.0
 10
-26.2942
 20
1.3549
 30
0.0
 10
-26.2363
 20
1.3182
 30
0.0
 10
-26.2363
 20
1.3182
 30
0.0
 10
-26.2363
 20
1.3182
 30
0.0
 10
-26.2664
 20
1.0853
 30
0.0
 10
-26.2664
 20
1.0853
 30
0.0
 10
-26.2664
 20
1.0853
 30
0.0
 10
-26.2664
 20
1.0853
 30
0.0
 10
-27.3041
 20
1.281
 30
0.0
 10
-27.3041
 20
1.281
 30
0.0
 10
-27.3041
 20
1.281
 30
0.0
 10
-27.3041
 20
1.281
 30
0.0
 10
-27.3041
 20
2.2857
 30
0.0
 10
-27.3041
 20
2.2857
 30
0.0
 10
-27.3041
 20
2.2857
 30
0.0
 10
-27.3041
 20
2.2857
 30
0.0
 10
-27.067
 20
2.2857
 30
0.0
 10
-27.067
 20
2.2857
 30
0.0
 10
-27.067
 20
2.2857
 30
0.0
 10
-27.067
 20
2.2857
 30
0.0
 10
-27.067
 20
1.4795
 30
0.0
 10
-27.067
 20
1.4795
 30
0.0
 10
-27.067
 20
1.4795
 30
0.0
 10
-27.067
 20
1.4795
 30
0.0
 10
-26.5242
 20
1.3704
 30
0.0
 10
-26.5242
 20
1.3704
 30
0.0
 10
-26.5242
 20
1.3704
 30
0.0
 10
-26.6089
 20
1.4917
 30
0.0
 10
-26.6512
 20
1.6192
 30
0.0
 10
-26.6512
 20
1.7523
 30
0.0
 10
-26.6512
 20
1.7523
 30
0.0
 10
-26.6512
 20
1.9287
 30
0.0
 10
-26.5901
 20
2.0773
 30
0.0
 10
-26.4678
 20
2.1987
 30
0.0
 10
-26.4678
 20
2.1987
 30
0.0
 10
-26.3455
 20
2.32
 30
0.0
 10
-26.1884
 20
2.3807
 30
0.0
 10
-25.9965
 20
2.3807
 30
0.0
 10
-25.9965
 20
2.3807
 30
0.0
 10
-25.8135
 20
2.3807
 30
0.0
 10
-25.6554
 20
2.3271
 30
0.0
 10
-25.5223
 20
2.2208
 30
0.0
 10
-25.5223
 20
2.2208
 30
0.0
 10
-25.3591
 20
2.091
 30
0.0
 10
-25.2773
 20
1.9141
 30
0.0
 10
-25.2773
 20
1.6902
 30
0.0
 10
-25.2773
 20
1.6902
 30
0.0
 10
-25.2773
 20
1.5063
 30
0.0
 10
-25.3285
 20
1.3563
 30
0.0
 10
-25.4315
 20
1.2401
 30
0.0
 10
-25.4315
 20
1.2401
 30
0.0
 10
-25.5346
 20
1.1239
 30
0.0
 10
-25.671
 20
1.0576
 30
0.0
 10
-25.8408
 20
1.0411
 30
0.0
  0
SPLINE
  5
6A
330
1F
100
AcDbEntity
  8
DEFAULT_1
 62
   250
100
AcDbSpline
210
0.0
220
0.0
230
1.0
 70
    11
 71
     3
 72
    20
 73
    16
 74
     0
 42
0.0000000001
 43
0.0000000001
 40
0.0
 40
0.0
 40
0.0
 40
0.0
 40
0.2
 40
0.2
 40
0.2
 40
0.2
 40
0.4
 40
0.4
 40
0.4
 40
0.4
 40
0.6
 40
0.6
 40
0.6
 40
0.6
 40
1.0
 40
1.0
 40
1.0
 40
1.0
 10
-25.9179
 20
3.3671
 30
0.0
 10
-25.9179
 20
3.3671
 30
0.0
 10
-26.1672
 20
3.3671
 30
0.0
 10
-26.1672
 20
3.3671
 30
0.0
 10
-26.1672
 20
3.3671
 30
0.0
 10
-26.1672
 20
3.3671
 30
0.0
 10
-26.1672
 20
4.1295
 30
0.0
 10
-26.1672
 20
4.1295
 30
0.0
 10
-26.1672
 20
4.1295
 30
0.0
 10
-26.1672
 20
4.1295
 30
0.0
 10
-25.9179
 20
4.1295
 30
0.0
 10
-25.9179
 20
4.1295
 30
0.0
 10
-25.9179
 20
4.1295
 30
0.0
 10
-25.9179
 20
4.1295
 30
0.0
 10
-25.9179
 20
3.3671
 30
0.0
 10
-25.9179
 20
3.3671
 30
0.0
  0
SPLINE
  5
6B
330
1F
100
AcDbEntity
  8
DEFAULT_1
 62
   250
100
AcDbSpline
210
0.0
220
0.0
230
1.0
 70
    11
 71
     3
 72
    40
 73
    36
 74
     0
 42
0.0000000001
 43
0.0000000001
 40
0.0
 40
0.0
 40
0.0
 40
0.0
 40
0.1
 40
0.1
 40
0.1
 40
0.1
 40
0.2
 40
0.2
 40
0.2
 40
0.2
 40
0.3
 40
0.3
 40
0.3
 40
0.3
 40
0.4
 40
0.4
 40
0.4
 40
0.4
 40
0.5
 40
0.5
 40
0.5
 40
0.5
 40
0.6
 40
0.6
 40
0.6
 40
0.6
 40
0.7
 40
0.7
 40
0.7
 40
0.7
 40
0.8
 40
0.8
 40
0.8
 40
0.8
 40
1.0
 40
1.0
 40
1.0
 40
1.0
 10
-25.3116
 20
6.0529
 30
0.0
 10
-25.3116
 20
6.0529
 30
0.0
 10
-25.3116
 20
5.805
 30
0.0
 10
-25.3116
 20
5.805
 30
0.0
 10
-25.3116
 20
5.805
 30
0.0
 10
-25.3116
 20
5.805
 30
0.0
 10
-26.892
 20
5.805
 30
0.0
 10
-26.892
 20
5.805
 30
0.0
 10
-26.892
 20
5.805
 30
0.0
 10
-26.8351
 20
5.7452
 30
0.0
 10
-26.7782
 20
5.6672
 30
0.0
 10
-26.7213
 20
5.5703
 30
0.0
 10
-26.7213
 20
5.5703
 30
0.0
 10
-26.6644
 20
5.4729
 30
0.0
 10
-26.6216
 20
5.3859
 30
0.0
 10
-26.5933
 20
5.3087
 30
0.0
 10
-26.5933
 20
5.3087
 30
0.0
 10
-26.5933
 20
5.3087
 30
0.0
 10
-26.8328
 20
5.3087
 30
0.0
 10
-26.8328
 20
5.3087
 30
0.0
 10
-26.8328
 20
5.3087
 30
0.0
 10
-26.8981
 20
5.4475
 30
0.0
 10
-26.9772
 20
5.5689
 30
0.0
 10
-27.0698
 20
5.6728
 30
0.0
 10
-27.0698
 20
5.6728
 30
0.0
 10
-27.163
 20
5.7763
 30
0.0
 10
-27.2528
 20
5.8501
 30
0.0
 10
-27.3403
 20
5.8934
 30
0.0
 10
-27.3403
 20
5.8934
 30
0.0
 10
-27.3403
 20
5.8934
 30
0.0
 10
-27.3403
 20
6.0529
 30
0.0
 10
-27.3403
 20
6.0529
 30
0.0
 10
-27.3403
 20
6.0529
 30
0.0
 10
-27.3403
 20
6.0529
 30
0.0
 10
-25.3116
 20
6.0529
 30
0.0
 10
-25.3116
 20
6.0529
 30
0.0
  0
SPLINE
  5
6C
330
1F
100
AcDbEntity
  8
DEFAULT_1
 62
   250
100
AcDbSpline
210
0.0
220
0.0
230
1.0
 70
    11
 71
     3
 72
    92
 73
    88
 74
     0
 42
0.0000000001
 43
0.0000000001
 40
0.0
 40
0.0
 40
0.0
 40
0.0
 40
0.0434782608695652
 40
0.0434782608695652
 40
0.0434782608695652
 40
0.0434782608695652
 40
0.0869565217391304
 40
0.0869565217391304
 40
0.0869565217391304
 40
0.0869565217391304
 40
0.1304347826086956
 40
0.1304347826086956
 40
0.1304347826086956
 40
0.1304347826086956
 40
0.1739130434782609
 40
0.1739130434782609
 40
0.1739130434782609
 40
0.1739130434782609
 40
0.2173913043478261
 40
0.2173913043478261
 40
0.2173913043478261
 40
0.2173913043478261
 40
0.2608695652173913
 40
0.2608695652173913
 40
0.2608695652173913
 40
0.2608695652173913
 40
0.3043478260869565
 40
0.3043478260869565
 40
0.3043478260869565
 40
0.3043478260869565
 40
0.3478260869565217
 40
0.3478260869565217
 40
0.3478260869565217
 40
0.3478260869565217
 40
0.391304347826087
 40
0.391304347826087
 40
0.391304347826087
 40
0.391304347826087
 40
0.4347826086956522
 40
0.4347826086956522
 40
0.4347826086956522
 40
0.4347826086956522
 40
0.4782608695652174
 40
0.4782608695652174
 40
0.4782608695652174
 40
0.4782608695652174
 40
0.5217391304347826
 40
0.5217391304347826
 40
0.5217391304347826
 40
0.5217391304347826
 40
0.5652173913043478
 40
0.5652173913043478
 40
0.5652173913043478
 40
0.5652173913043478
 40
0.6086956521739131
 40
0.6086956521739131
 40
0.6086956521739131
 40
0.6086956521739131
 40
0.6521739130434783
 40
0.6521739130434783
 40
0.6521739130434783
 40
0.6521739130434783
 40
0.6956521739130435
 40
0.6956521739130435
 40
0.6956521739130435
 40
0.6956521739130435
 40
0.7391304347826086
 40
0.7391304347826086
 40
0.7391304347826086
 40
0.7391304347826086
 40
0.782608695652174
 40
0.782608695652174
 40
0.782608695652174
 40
0.782608695652174
 40
0.8260869565217391
 40
0.8260869565217391
 40
0.8260869565217391
 40
0.8260869565217391
 40
0.8695652173913043
 40
0.8695652173913043
 40
0.8695652173913043
 40
0.8695652173913043
 40
0.9130434782608695
 40
0.9130434782608695
 40
0.9130434782608695
 40
0.9130434782608695
 40
1.0
 40
1.0
 40
1.0
 40
1.0
 10
-25.7787
 20
6.7255
 30
0.0
 10
-25.7787
 20
6.7255
 30
0.0
 10
-25.8008
 20
6.964
 30
0.0
 10
-25.8008
 20
6.964
 30
0.0
 10
-25.8008
 20
6.964
 30
0.0
 10
-25.6888
 20
6.9842
 30
0.0
 10
-25.6075
 20
7.0228
 30
0.0
 10
-25.5567
 20
7.0797
 30
0.0
 10
-25.5567
 20
7.0797
 30
0.0
 10
-25.5063
 20
7.1366
 30
0.0
 10
-25.4809
 20
7.2095
 30
0.0
 10
-25.4809
 20
7.2989
 30
0.0
 10
-25.4809
 20
7.2989
 30
0.0
 10
-25.4809
 20
7.3751
 30
0.0
 10
-25.4983
 20
7.4418
 30
0.0
 10
-25.5336
 20
7.4992
 30
0.0
 10
-25.5336
 20
7.4992
 30
0.0
 10
-25.5684
 20
7.5566
 30
0.0
 10
-25.615
 20
7.6037
 30
0.0
 10
-25.6733
 20
7.6403
 30
0.0
 10
-25.6733
 20
7.6403
 30
0.0
 10
-25.7316
 20
7.6775
 30
0.0
 10
-25.8107
 20
7.7081
 30
0.0
 10
-25.9094
 20
7.733
 30
0.0
 10
-25.9094
 20
7.733
 30
0.0
 10
-26.0087
 20
7.7575
 30
0.0
 10
-26.1098
 20
7.7702
 30
0.0
 10
-26.2128
 20
7.7702
 30
0.0
 10
-26.2128
 20
7.7702
 30
0.0
 10
-26.2236
 20
7.7702
 30
0.0
 10
-26.2406
 20
7.7697
 30
0.0
 10
-26.2622
 20
7.7688
 30
0.0
 10
-26.2622
 20
7.7688
 30
0.0
 10
-26.1837
 20
7.7189
 30
0.0
 10
-26.1192
 20
7.6512
 30
0.0
 10
-26.0703
 20
7.5656
 30
0.0
 10
-26.0703
 20
7.5656
 30
0.0
 10
-26.0209
 20
7.4795
 30
0.0
 10
-25.9965
 20
7.3863
 30
0.0
 10
-25.9965
 20
7.2866
 30
0.0
 10
-25.9965
 20
7.2866
 30
0.0
 10
-25.9965
 20
7.1192
 30
0.0
 10
-26.0571
 20
6.9776
 30
0.0
 10
-26.1785
 20
6.8619
 30
0.0
 10
-26.1785
 20
6.8619
 30
0.0
 10
-26.2998
 20
6.7462
 30
0.0
 10
-26.4593
 20
6.6883
 30
0.0
 10
-26.6578
 20
6.6883
 30
0.0
 10
-26.6578
 20
6.6883
 30
0.0
 10
-26.8629
 20
6.6883
 30
0.0
 10
-27.0275
 20
6.7485
 30
0.0
 10
-27.1526
 20
6.8694
 30
0.0
 10
-27.1526
 20
6.8694
 30
0.0
 10
-27.2777
 20
6.9903
 30
0.0
 10
-27.3403
 20
7.1418
 30
0.0
 10
-27.3403
 20
7.3238
 30
0.0
 10
-27.3403
 20
7.3238
 30
0.0
 10
-27.3403
 20
7.455
 30
0.0
 10
-27.3045
 20
7.575
 30
0.0
 10
-27.234
 20
7.6841
 30
0.0
 10
-27.234
 20
7.6841
 30
0.0
 10
-27.1634
 20
7.7927
 30
0.0
 10
-27.0623
 20
7.8755
 30
0.0
 10
-26.9315
 20
7.932
 30
0.0
 10
-26.9315
 20
7.932
 30
0.0
 10
-26.8008
 20
7.9884
 30
0.0
 10
-26.6112
 20
8.0166
 30
0.0
 10
-26.3629
 20
8.0166
 30
0.0
 10
-26.3629
 20
8.0166
 30
0.0
 10
-26.1051
 20
8.0166
 30
0.0
 10
-25.8996
 20
7.9889
 30
0.0
 10
-25.7462
 20
7.9329
 30
0.0
 10
-25.7462
 20
7.9329
 30
0.0
 10
-25.5933
 20
7.8765
 30
0.0
 10
-25.4772
 20
7.7932
 30
0.0
 10
-25.3972
 20
7.6827
 30
0.0
 10
-25.3972
 20
7.6827
 30
0.0
 10
-25.3172
 20
7.5717
 30
0.0
 10
-25.2773
 20
7.4423
 30
0.0
 10
-25.2773
 20
7.2932
 30
0.0
 10
-25.2773
 20
7.2932
 30
0.0
 10
-25.2773
 20
7.1352
 30
0.0
 10
-25.321
 20
7.0063
 30
0.0
 10
-25.409
 20
6.9061
 30
0.0
 10
-25.409
 20
6.9061
 30
0.0
 10
-25.4965
 20
6.8059
 30
0.0
 10
-25.6197
 20
6.7457
 30
0.0
 10
-25.7787
 20
6.7255
 30
0.0
  0
SPLINE
  5
6D
330
1F
100
AcDbEntity
  8
DEFAULT_1
 62
   250
100
AcDbSpline
210
0.0
220
0.0
230
1.0
 70
    11
 71
     3
 72
    36
 73
    32
 74
     0
 42
0.0000000001
 43
0.0000000001
 40
0.0
 40
0.0
 40
0.0
 40
0.0
 40
0.1111111111111111
 40
0.1111111111111111
 40
0.1111111111111111
 40
0.1111111111111111
 40
0.2222222222222222
 40
0.2222222222222222
 40
0.2222222222222222
 40
0.2222222222222222
 40
0.3333333333333333
 40
0.3333333333333333
 40
0.3333333333333333
 40
0.3333333333333333
 40
0.4444444444444444
 40
0.4444444444444444
 40
0.4444444444444444
 40
0.4444444444444444
 40
0.5555555555555556
 40
0.5555555555555556
 40
0.5555555555555556
 40
0.5555555555555556
 40
0.6666666666666666
 40
0.6666666666666666
 40
0.6666666666666666
 40
0.6666666666666666
 40
0.7777777777777778
 40
0.7777777777777778
 40
0.7777777777777778
 40
0.7777777777777778
 40
1.0
 40
1.0
 40
1.0
 40
1.0
 10
-26.6705
 20
7.741
 30
0.0
 10
-26.8125
 20
7.741
 30
0.0
 10
-26.9259
 20
7.7034
 30
0.0
 10
-27.0092
 20
7.6276
 30
0.0
 10
-27.0092
 20
7.6276
 30
0.0
 10
-27.0929
 20
7.5514
 30
0.0
 10
-27.1347
 20
7.4607
 30
0.0
 10
-27.1347
 20
7.3539
 30
0.0
 10
-27.1347
 20
7.3539
 30
0.0
 10
-27.1347
 20
7.2438
 30
0.0
 10
-27.0896
 20
7.1479
 30
0.0
 10
-26.9997
 20
7.066
 30
0.0
 10
-26.9997
 20
7.066
 30
0.0
 10
-26.9094
 20
6.9842
 30
0.0
 10
-26.7928
 20
6.9433
 30
0.0
 10
-26.6498
 20
6.9433
 30
0.0
 10
-26.6498
 20
6.9433
 30
0.0
 10
-26.5209
 20
6.9433
 30
0.0
 10
-26.4165
 20
6.9823
 30
0.0
 10
-26.3361
 20
7.0599
 30
0.0
 10
-26.3361
 20
7.0599
 30
0.0
 10
-26.2556
 20
7.1375
 30
0.0
 10
-26.2156
 20
7.233
 30
0.0
 10
-26.2156
 20
7.3468
 30
0.0
 10
-26.2156
 20
7.3468
 30
0.0
 10
-26.2156
 20
7.4621
 30
0.0
 10
-26.2556
 20
7.5561
 30
0.0
 10
-26.3361
 20
7.63
 30
0.0
 10
-26.3361
 20
7.63
 30
0.0
 10
-26.4165
 20
7.7043
 30
0.0
 10
-26.528
 20
7.741
 30
0.0
 10
-26.6705
 20
7.741
 30
0.0
  0
SPLINE
  5
6E
330
1F
100
AcDbEntity
  8
DEFAULT_1
 62
   250
100
AcDbSpline
210
0.0
220
0.0
230
1.0
 70
    11
 71
     3
 72
    92
 73
    88
 74
     0
 42
0.0000000001
 43
0.0000000001
 40
0.0
 40
0.0
 40
0.0
 40
0.0
 40
0.0434782608695652
 40
0.0434782608695652
 40
0.0434782608695652
 40
0.0434782608695652
 40
0.0869565217391304
 40
0.0869565217391304
 40
0.0869565217391304
 40
0.0869565217391304
 40
0.1304347826086956
 40
0.1304347826086956
 40
0.1304347826086956
 40
0.1304347826086956
 40
0.1739130434782609
 40
0.1739130434782609
 40
0.1739130434782609
 40
0.1739130434782609
 40
0.2173913043478261
 40
0.2173913043478261
 40
0.2173913043478261
 40
0.2173913043478261
 40
0.2608695652173913
 40
0.2608695652173913
 40
0.2608695652173913
 40
0.2608695652173913
 40
0.3043478260869565
 40
0.3043478260869565
 40
0.3043478260869565
 40
0.3043478260869565
 40
0.3478260869565217
 40
0.3478260869565217
 40
0.3478260869565217
 40
0.3478260869565217
 40
0.391304347826087
 40
0.391304347826087
 40
0.391304347826087
 40
0.391304347826087
 40
0.4347826086956522
 40
0.4347826086956522
 40
0.4347826086956522
 40
0.4347826086956522
 40
0.4782608695652174
 40
0.4782608695652174
 40
0.4782608695652174
 40
0.4782608695652174
 40
0.5217391304347826
 40
0.5217391304347826
 40
0.5217391304347826
 40
0.5217391304347826
 40
0.5652173913043478
 40
0.5652173913043478
 40
0.5652173913043478
 40
0.5652173913043478
 40
0.6086956521739131
 40
0.6086956521739131
 40
0.6086956521739131
 40
0.6086956521739131
 40
0.6521739130434783
 40
0.6521739130434783
 40
0.6521739130434783
 40
0.6521739130434783
 40
0.6956521739130435
 40
0.6956521739130435
 40
0.6956521739130435
 40
0.6956521739130435
 40
0.7391304347826086
 40
0.7391304347826086
 40
0.7391304347826086
 40
0.7391304347826086
 40
0.782608695652174
 40
0.782608695652174
 40
0.782608695652174
 40
0.782608695652174
 40
0.8260869565217391
 40
0.8260869565217391
 40
0.8260869565217391
 40
0.8260869565217391
 40
0.8695652173913043
 40
0.8695652173913043
 40
0.8695652173913043
 40
0.8695652173913043
 40
0.9130434782608695
 40
0.9130434782608695
 40
0.9130434782608695
 40
0.9130434782608695
 40
1.0
 40
1.0
 40
1.0
 40
1.0
 10
-25.8408
 20
8.2579
 30
0.0
 10
-25.8408
 20
8.2579
 30
0.0
 10
-25.8629
 20
8.5185
 30
0.0
 10
-25.8629
 20
8.5185
 30
0.0
 10
-25.8629
 20
8.5185
 30
0.0
 10
-25.7359
 20
8.5378
 30
0.0
 10
-25.6409
 20
8.5825
 30
0.0
 10
-25.5769
 20
8.6526
 30
0.0
 10
-25.5769
 20
8.6526
 30
0.0
 10
-25.5129
 20
8.7231
 30
0.0
 10
-25.4809
 20
8.8078
 30
0.0
 10
-25.4809
 20
8.907
 30
0.0
 10
-25.4809
 20
8.907
 30
0.0
 10
-25.4809
 20
9.0265
 30
0.0
 10
-25.5261
 20
9.1276
 30
0.0
 10
-25.6159
 20
9.2099
 30
0.0
 10
-25.6159
 20
9.2099
 30
0.0
 10
-25.7062
 20
9.2927
 30
0.0
 10
-25.8257
 20
9.3341
 30
0.0
 10
-25.9743
 20
9.3341
 30
0.0
 10
-25.9743
 20
9.3341
 30
0.0
 10
-26.1159
 20
9.3341
 30
0.0
 10
-26.2274
 20
9.2946
 30
0.0
 10
-26.3092
 20
9.2151
 30
0.0
 10
-26.3092
 20
9.2151
 30
0.0
 10
-26.3911
 20
9.1356
 30
0.0
 10
-26.432
 20
9.0317
 30
0.0
 10
-26.432
 20
8.9028
 30
0.0
 10
-26.432
 20
8.9028
 30
0.0
 10
-26.432
 20
8.8228
 30
0.0
 10
-26.4137
 20
8.7509
 30
0.0
 10
-26.3775
 20
8.6864
 30
0.0
 10
-26.3775
 20
8.6864
 30
0.0
 10
-26.3412
 20
8.622
 30
0.0
 10
-26.2942
 20
8.5717
 30
0.0
 10
-26.2363
 20
8.535
 30
0.0
 10
-26.2363
 20
8.535
 30
0.0
 10
-26.2363
 20
8.535
 30
0.0
 10
-26.2664
 20
8.3021
 30
0.0
 10
-26.2664
 20
8.3021
 30
0.0
 10
-26.2664
 20
8.3021
 30
0.0
 10
-26.2664
 20
8.3021
 30
0.0
 10
-27.3041
 20
8.4978
 30
0.0
 10
-27.3041
 20
8.4978
 30
0.0
 10
-27.3041
 20
8.4978
 30
0.0
 10
-27.3041
 20
8.4978
 30
0.0
 10
-27.3041
 20
9.5025
 30
0.0
 10
-27.3041
 20
9.5025
 30
0.0
 10
-27.3041
 20
9.5025
 30
0.0
 10
-27.3041
 20
9.5025
 30
0.0
 10
-27.067
 20
9.5025
 30
0.0
 10
-27.067
 20
9.5025
 30
0.0
 10
-27.067
 20
9.5025
 30
0.0
 10
-27.067
 20
9.5025
 30
0.0
 10
-27.067
 20
8.6963
 30
0.0
 10
-27.067
 20
8.6963
 30
0.0
 10
-27.067
 20
8.6963
 30
0.0
 10
-27.067
 20
8.6963
 30
0.0
 10
-26.5242
 20
8.5872
 30
0.0
 10
-26.5242
 20
8.5872
 30
0.0
 10
-26.5242
 20
8.5872
 30
0.0
 10
-26.6089
 20
8.7085
 30
0.0
 10
-26.6512
 20
8.836
 30
0.0
 10
-26.6512
 20
8.9691
 30
0.0
 10
-26.6512
 20
8.9691
 30
0.0
 10
-26.6512
 20
9.1455
 30
0.0
 10
-26.5901
 20
9.2941
 30
0.0
 10
-26.4678
 20
9.4155
 30
0.0
 10
-26.4678
 20
9.4155
 30
0.0
 10
-26.3455
 20
9.5368
 30
0.0
 10
-26.1884
 20
9.5975
 30
0.0
 10
-25.9965
 20
9.5975
 30
0.0
 10
-25.9965
 20
9.5975
 30
0.0
 10
-25.8135
 20
9.5975
 30
0.0
 10
-25.6554
 20
9.5439
 30
0.0
 10
-25.5223
 20
9.4376
 30
0.0
 10
-25.5223
 20
9.4376
 30
0.0
 10
-25.3591
 20
9.3078
 30
0.0
 10
-25.2773
 20
9.1309
 30
0.0
 10
-25.2773
 20
8.907
 30
0.0
 10
-25.2773
 20
8.907
 30
0.0
 10
-25.2773
 20
8.7231
 30
0.0
 10
-25.3285
 20
8.5731
 30
0.0
 10
-25.4315
 20
8.4569
 30
0.0
 10
-25.4315
 20
8.4569
 30
0.0
 10
-25.5346
 20
8.3407
 30
0.0
 10
-25.671
 20
8.2744
 30
0.0
 10
-25.8408
 20
8.2579
 30
0.0
  0
SPLINE
  5
6F
330
1F
100
AcDbEntity
  8
DEFAULT_1
 62
   250
100
AcDbSpline
210
0.0
220
0.0
230
1.0
 70
    11
 71
     3
 72
    84
 73
    80
 74
     0
 42
0.0000000001
 43
0.0000000001
 40
0.0
 40
0.0
 40
0.0
 40
0.0
 40
0.0476190476190476
 40
0.0476190476190476
 40
0.0476190476190476
 40
0.0476190476190476
 40
0.0952380952380952
 40
0.0952380952380952
 40
0.0952380952380952
 40
0.0952380952380952
 40
0.1428571428571428
 40
0.1428571428571428
 40
0.1428571428571428
 40
0.1428571428571428
 40
0.1904761904761905
 40
0.1904761904761905
 40
0.1904761904761905
 40
0.1904761904761905
 40
0.2380952380952381
 40
0.2380952380952381
 40
0.2380952380952381
 40
0.2380952380952381
 40
0.2857142857142857
 40
0.2857142857142857
 40
0.2857142857142857
 40
0.2857142857142857
 40
0.3333333333333333
 40
0.3333333333333333
 40
0.3333333333333333
 40
0.3333333333333333
 40
0.3809523809523809
 40
0.3809523809523809
 40
0.3809523809523809
 40
0.3809523809523809
 40
0.4285714285714285
 40
0.4285714285714285
 40
0.4285714285714285
 40
0.4285714285714285
 40
0.4761904761904762
 40
0.4761904761904762
 40
0.4761904761904762
 40
0.4761904761904762
 40
0.5238095238095238
 40
0.5238095238095238
 40
0.5238095238095238
 40
0.5238095238095238
 40
0.5714285714285714
 40
0.5714285714285714
 40
0.5714285714285714
 40
0.5714285714285714
 40
0.6190476190476191
 40
0.6190476190476191
 40
0.6190476190476191
 40
0.6190476190476191
 40
0.6666666666666666
 40
0.6666666666666666
 40
0.6666666666666666
 40
0.6666666666666666
 40
0.7142857142857143
 40
0.7142857142857143
 40
0.7142857142857143
 40
0.7142857142857143
 40
0.7619047619047619
 40
0.7619047619047619
 40
0.7619047619047619
 40
0.7619047619047619
 40
0.8095238095238095
 40
0.8095238095238095
 40
0.8095238095238095
 40
0.8095238095238095
 40
0.8571428571428571
 40
0.8571428571428571
 40
0.8571428571428571
 40
0.8571428571428571
 40
0.9047619047619048
 40
0.9047619047619048
 40
0.9047619047619048
 40
0.9047619047619048
 40
1.0
 40
1.0
 40
1.0
 40
1.0
 10
5.1068
 20
-2.0483
 30
0.0
 10
5.1068
 20
-2.0483
 30
0.0
 10
4.8476
 20
-1.8168
 30
0.0
 10
4.8476
 20
-1.8168
 30
0.0
 10
4.8476
 20
-1.8168
 30
0.0
 10
4.8476
 20
-1.8168
 30
0.0
 10
4.9633
 20
-1.6805
 30
0.0
 10
4.9633
 20
-1.6805
 30
0.0
 10
4.9633
 20
-1.6805
 30
0.0
 10
4.9633
 20
-1.6805
 30
0.0
 10
5.2362
 20
-1.9227
 30
0.0
 10
5.2362
 20
-1.9227
 30
0.0
 10
5.2362
 20
-1.9227
 30
0.0
 10
5.3537
 20
-1.8437
 30
0.0
 10
5.4567
 20
-1.7905
 30
0.0
 10
5.5448
 20
-1.7628
 30
0.0
 10
5.5448
 20
-1.7628
 30
0.0
 10
5.6605
 20
-1.726
 30
0.0
 10
5.7902
 20
-1.7077
 30
0.0
 10
5.9332
 20
-1.7077
 30
0.0
 10
5.9332
 20
-1.7077
 30
0.0
 10
6.1402
 20
-1.7077
 30
0.0
 10
6.3246
 20
-1.7496
 30
0.0
 10
6.4859
 20
-1.8334
 30
0.0
 10
6.4859
 20
-1.8334
 30
0.0
 10
6.6478
 20
-1.9171
 30
0.0
 10
6.7701
 20
-2.0341
 30
0.0
 10
6.8528
 20
-2.1852
 30
0.0
 10
6.8528
 20
-2.1852
 30
0.0
 10
6.9351
 20
-2.3366
 30
0.0
 10
6.9766
 20
-2.497
 30
0.0
 10
6.9766
 20
-2.6668
 30
0.0
 10
6.9766
 20
-2.6668
 30
0.0
 10
6.9766
 20
-2.7938
 30
0.0
 10
6.9586
 20
-2.9086
 30
0.0
 10
6.9229
 20
-3.0116
 30
0.0
 10
6.9229
 20
-3.0116
 30
0.0
 10
6.8951
 20
-3.0906
 30
0.0
 10
6.8424
 20
-3.1829
 30
0.0
 10
6.7644
 20
-3.2887
 30
0.0
 10
6.7644
 20
-3.2887
 30
0.0
 10
6.7644
 20
-3.2887
 30
0.0
 10
7.0235
 20
-3.5201
 30
0.0
 10
7.0235
 20
-3.5201
 30
0.0
 10
7.0235
 20
-3.5201
 30
0.0
 10
7.0235
 20
-3.5201
 30
0.0
 10
6.9078
 20
-3.6565
 30
0.0
 10
6.9078
 20
-3.6565
 30
0.0
 10
6.9078
 20
-3.6565
 30
0.0
 10
6.9078
 20
-3.6565
 30
0.0
 10
6.6365
 20
-3.4138
 30
0.0
 10
6.6365
 20
-3.4138
 30
0.0
 10
6.6365
 20
-3.4138
 30
0.0
 10
6.4996
 20
-3.504
 30
0.0
 10
6.3824
 20
-3.5643
 30
0.0
 10
6.2855
 20
-3.5945
 30
0.0
 10
6.2855
 20
-3.5945
 30
0.0
 10
6.1886
 20
-3.6245
 30
0.0
 10
6.0721
 20
-3.64
 30
0.0
 10
5.9361
 20
-3.64
 30
0.0
 10
5.9361
 20
-3.64
 30
0.0
 10
5.7286
 20
-3.64
 30
0.0
 10
5.5438
 20
-3.5987
 30
0.0
 10
5.3815
 20
-3.5159
 30
0.0
 10
5.3815
 20
-3.5159
 30
0.0
 10
5.2192
 20
-3.4331
 30
0.0
 10
5.0964
 20
-3.3174
 30
0.0
 10
5.0128
 20
-3.1678
 30
0.0
 10
5.0128
 20
-3.1678
 30
0.0
 10
4.9294
 20
-3.0187
 30
0.0
 10
4.8876
 20
-2.8526
 30
0.0
 10
4.8876
 20
-2.6696
 30
0.0
 10
4.8876
 20
-2.6696
 30
0.0
 10
4.8876
 20
-2.5464
 30
0.0
 10
4.9035
 20
-2.4388
 30
0.0
 10
4.9365
 20
-2.3465
 30
0.0
 10
4.9365
 20
-2.3465
 30
0.0
 10
4.9689
 20
-2.2543
 30
0.0
 10
5.026
 20
-2.1546
 30
0.0
 10
5.1068
 20
-2.0483
 30
0.0
  0
SPLINE
  5
70
330
1F
100
AcDbEntity
  8
DEFAULT_1
 62
   250
100
AcDbSpline
210
0.0
220
0.0
230
1.0
 70
    11
 71
     3
 72
    32
 73
    28
 74
     0
 42
0.0000000001
 43
0.0000000001
 40
0.0
 40
0.0
 40
0.0
 40
0.0
 40
0.125
 40
0.125
 40
0.125
 40
0.125
 40
0.25
 40
0.25
 40
0.25
 40
0.25
 40
0.375
 40
0.375
 40
0.375
 40
0.375
 40
0.5
 40
0.5
 40
0.5
 40
0.5
 40
0.625
 40
0.625
 40
0.625
 40
0.625
 40
0.75
 40
0.75
 40
0.75
 40
0.75
 40
1.0
 40
1.0
 40
1.0
 40
1.0
 10
5.2926
 20
-2.2133
 30
0.0
 10
5.2248
 20
-2.2999
 30
0.0
 10
5.1783
 20
-2.3756
 30
0.0
 10
5.1534
 20
-2.4401
 30
0.0
 10
5.1534
 20
-2.4401
 30
0.0
 10
5.1289
 20
-2.505
 30
0.0
 10
5.1162
 20
-2.5812
 30
0.0
 10
5.1162
 20
-2.6683
 30
0.0
 10
5.1162
 20
-2.6683
 30
0.0
 10
5.1162
 20
-2.8695
 30
0.0
 10
5.1844
 20
-3.0357
 30
0.0
 10
5.3209
 20
-3.1673
 30
0.0
 10
5.3209
 20
-3.1673
 30
0.0
 10
5.4572
 20
-3.2986
 30
0.0
 10
5.6608
 20
-3.3644
 30
0.0
 10
5.9323
 20
-3.3644
 30
0.0
 10
5.9323
 20
-3.3644
 30
0.0
 10
6.0386
 20
-3.3644
 30
0.0
 10
6.1332
 20
-3.3541
 30
0.0
 10
6.2159
 20
-3.3338
 30
0.0
 10
6.2159
 20
-3.3338
 30
0.0
 10
6.2775
 20
-3.3192
 30
0.0
 10
6.3533
 20
-3.2887
 30
0.0
 10
6.4432
 20
-3.2416
 30
0.0
 10
6.4432
 20
-3.2416
 30
0.0
 10
6.4432
 20
-3.2416
 30
0.0
 10
5.2926
 20
-2.2133
 30
0.0
 10
5.2926
 20
-2.2133
 30
0.0
  0
SPLINE
  5
71
330
1F
100
AcDbEntity
  8
DEFAULT_1
 62
   250
100
AcDbSpline
210
0.0
220
0.0
230
1.0
 70
    11
 71
     3
 72
    28
 73
    24
 74
     0
 42
0.0000000001
 43
0.0000000001
 40
0.0
 40
0.0
 40
0.0
 40
0.0
 40
0.1428571428571428
 40
0.1428571428571428
 40
0.1428571428571428
 40
0.1428571428571428
 40
0.2857142857142857
 40
0.2857142857142857
 40
0.2857142857142857
 40
0.2857142857142857
 40
0.4285714285714285
 40
0.4285714285714285
 40
0.4285714285714285
 40
0.4285714285714285
 40
0.5714285714285714
 40
0.5714285714285714
 40
0.5714285714285714
 40
0.5714285714285714
 40
0.7142857142857143
 40
0.7142857142857143
 40
0.7142857142857143
 40
0.7142857142857143
 40
1.0
 40
1.0
 40
1.0
 40
1.0
 10
5.4347
 20
-2.1005
 30
0.0
 10
5.4347
 20
-2.1005
 30
0.0
 10
6.5809
 20
-3.1245
 30
0.0
 10
6.5809
 20
-3.1245
 30
0.0
 10
6.5809
 20
-3.1245
 30
0.0
 10
6.6388
 20
-3.054
 30
0.0
 10
6.6793
 20
-2.9886
 30
0.0
 10
6.7023
 20
-2.9288
 30
0.0
 10
6.7023
 20
-2.9288
 30
0.0
 10
6.7329
 20
-2.8507
 30
0.0
 10
6.7479
 20
-2.766
 30
0.0
 10
6.7479
 20
-2.6753
 30
0.0
 10
6.7479
 20
-2.6753
 30
0.0
 10
6.7479
 20
-2.4749
 30
0.0
 10
6.6774
 20
-2.3099
 30
0.0
 10
6.5358
 20
-2.1791
 30
0.0
 10
6.5358
 20
-2.1791
 30
0.0
 10
6.3942
 20
-2.0487
 30
0.0
 10
6.1957
 20
-1.9833
 30
0.0
 10
5.9403
 20
-1.9833
 30
0.0
 10
5.9403
 20
-1.9833
 30
0.0
 10
5.7494
 20
-1.9833
 30
0.0
 10
5.5805
 20
-2.0224
 30
0.0
 10
5.4347
 20
-2.1005
 30
0.0
  0
SPLINE
  5
72
330
1F
100
AcDbEntity
  8
DEFAULT_1
 62
   250
100
AcDbSpline
210
0.0
220
0.0
230
1.0
 70
    11
 71
     3
 72
    48
 73
    44
 74
     0
 42
0.0000000001
 43
0.0000000001
 40
0.0
 40
0.0
 40
0.0
 40
0.0
 40
0.0833333333333333
 40
0.0833333333333333
 40
0.0833333333333333
 40
0.0833333333333333
 40
0.1666666666666667
 40
0.1666666666666667
 40
0.1666666666666667
 40
0.1666666666666667
 40
0.25
 40
0.25
 40
0.25
 40
0.25
 40
0.3333333333333333
 40
0.3333333333333333
 40
0.3333333333333333
 40
0.3333333333333333
 40
0.4166666666666667
 40
0.4166666666666667
 40
0.4166666666666667
 40
0.4166666666666667
 40
0.5
 40
0.5
 40
0.5
 40
0.5
 40
0.5833333333333334
 40
0.5833333333333334
 40
0.5833333333333334
 40
0.5833333333333334
 40
0.6666666666666666
 40
0.6666666666666666
 40
0.6666666666666666
 40
0.6666666666666666
 40
0.75
 40
0.75
 40
0.75
 40
0.75
 40
0.8333333333333334
 40
0.8333333333333334
 40
0.8333333333333334
 40
0.8333333333333334
 40
1.0
 40
1.0
 40
1.0
 40
1.0
 10
6.9422
 20
-0.6635
 30
0.0
 10
6.9422
 20
-0.6635
 30
0.0
 10
6.4586
 20
-0.6635
 30
0.0
 10
6.4586
 20
-0.6635
 30
0.0
 10
6.4586
 20
-0.6635
 30
0.0
 10
6.4586
 20
-0.6635
 30
0.0
 10
6.4586
 20
-1.5398
 30
0.0
 10
6.4586
 20
-1.5398
 30
0.0
 10
6.4586
 20
-1.5398
 30
0.0
 10
6.4586
 20
-1.5398
 30
0.0
 10
6.231
 20
-1.5398
 30
0.0
 10
6.231
 20
-1.5398
 30
0.0
 10
6.231
 20
-1.5398
 30
0.0
 10
6.231
 20
-1.5398
 30
0.0
 10
4.922
 20
-0.6179
 30
0.0
 10
4.922
 20
-0.6179
 30
0.0
 10
4.922
 20
-0.6179
 30
0.0
 10
4.922
 20
-0.6179
 30
0.0
 10
4.922
 20
-0.4152
 30
0.0
 10
4.922
 20
-0.4152
 30
0.0
 10
4.922
 20
-0.4152
 30
0.0
 10
4.922
 20
-0.4152
 30
0.0
 10
6.231
 20
-0.4152
 30
0.0
 10
6.231
 20
-0.4152
 30
0.0
 10
6.231
 20
-0.4152
 30
0.0
 10
6.231
 20
-0.4152
 30
0.0
 10
6.231
 20
-0.1423
 30
0.0
 10
6.231
 20
-0.1423
 30
0.0
 10
6.231
 20
-0.1423
 30
0.0
 10
6.231
 20
-0.1423
 30
0.0
 10
6.4586
 20
-0.1423
 30
0.0
 10
6.4586
 20
-0.1423
 30
0.0
 10
6.4586
 20
-0.1423
 30
0.0
 10
6.4586
 20
-0.1423
 30
0.0
 10
6.4586
 20
-0.4152
 30
0.0
 10
6.4586
 20
-0.4152
 30
0.0
 10
6.4586
 20
-0.4152
 30
0.0
 10
6.4586
 20
-0.4152
 30
0.0
 10
6.9422
 20
-0.4152
 30
0.0
 10
6.9422
 20
-0.4152
 30
0.0
 10
6.9422
 20
-0.4152
 30
0.0
 10
6.9422
 20
-0.4152
 30
0.0
 10
6.9422
 20
-0.6635
 30
0.0
 10
6.9422
 20
-0.6635
 30
0.0
  0
SPLINE
  5
73
330
1F
100
AcDbEntity
  8
DEFAULT_1
 62
   250
100
AcDbSpline
210
0.0
220
0.0
230
1.0
 70
    11
 71
     3
 72
    16
 73
    12
 74
     0
 42
0.0000000001
 43
0.0000000001
 40
0.0
 40
0.0
 40
0.0
 40
0.0
 40
0.25
 40
0.25
 40
0.25
 40
0.25
 40
0.5
 40
0.5
 40
0.5
 40
0.5
 40
1.0
 40
1.0
 40
1.0
 40
1.0
 10
6.231
 20
-0.6635
 30
0.0
 10
6.231
 20
-0.6635
 30
0.0
 10
5.3204
 20
-0.6635
 30
0.0
 10
5.3204
 20
-0.6635
 30
0.0
 10
5.3204
 20
-0.6635
 30
0.0
 10
5.3204
 20
-0.6635
 30
0.0
 10
6.231
 20
-1.2958
 30
0.0
 10
6.231
 20
-1.2958
 30
0.0
 10
6.231
 20
-1.2958
 30
0.0
 10
6.231
 20
-1.2958
 30
0.0
 10
6.231
 20
-0.6635
 30
0.0
 10
6.231
 20
-0.6635
 30
0.0
  0
SPLINE
  5
74
330
1F
100
AcDbEntity
  8
DEFAULT_1
 62
   250
100
AcDbSpline
210
0.0
220
0.0
230
1.0
 70
    11
 71
     3
 72
    52
 73
    48
 74
     0
 42
0.0000000001
 43
0.0000000001
 40
0.0
 40
0.0
 40
0.0
 40
0.0
 40
0.0769230769230769
 40
0.0769230769230769
 40
0.0769230769230769
 40
0.0769230769230769
 40
0.1538461538461539
 40
0.1538461538461539
 40
0.1538461538461539
 40
0.1538461538461539
 40
0.2307692307692308
 40
0.2307692307692308
 40
0.2307692307692308
 40
0.2307692307692308
 40
0.3076923076923077
 40
0.3076923076923077
 40
0.3076923076923077
 40
0.3076923076923077
 40
0.3846153846153846
 40
0.3846153846153846
 40
0.3846153846153846
 40
0.3846153846153846
 40
0.4615384615384616
 40
0.4615384615384616
 40
0.4615384615384616
 40
0.4615384615384616
 40
0.5384615384615384
 40
0.5384615384615384
 40
0.5384615384615384
 40
0.5384615384615384
 40
0.6153846153846154
 40
0.6153846153846154
 40
0.6153846153846154
 40
0.6153846153846154
 40
0.6923076923076923
 40
0.6923076923076923
 40
0.6923076923076923
 40
0.6923076923076923
 40
0.7692307692307693
 40
0.7692307692307693
 40
0.7692307692307693
 40
0.7692307692307693
 40
0.8461538461538461
 40
0.8461538461538461
 40
0.8461538461538461
 40
0.8461538461538461
 40
1.0
 40
1.0
 40
1.0
 40
1.0
 10
5.9459
 20
0.1111
 30
0.0
 10
5.707
 20
0.1111
 30
0.0
 10
5.5146
 20
0.1357
 30
0.0
 10
5.3693
 20
0.185
 30
0.0
 10
5.3693
 20
0.185
 30
0.0
 10
5.2235
 20
0.2339
 30
0.0
 10
5.111
 20
0.3073
 30
0.0
 10
5.0321
 20
0.4043
 30
0.0
 10
5.0321
 20
0.4043
 30
0.0
 10
4.953
 20
0.5012
 30
0.0
 10
4.9135
 20
0.623
 30
0.0
 10
4.9135
 20
0.7697
 30
0.0
 10
4.9135
 20
0.7697
 30
0.0
 10
4.9135
 20
0.8784
 30
0.0
 10
4.9355
 20
0.9734
 30
0.0
 10
4.9794
 20
1.0552
 30
0.0
 10
4.9794
 20
1.0552
 30
0.0
 10
5.0226
 20
1.1371
 30
0.0
 10
5.0856
 20
1.2043
 30
0.0
 10
5.1679
 20
1.258
 30
0.0
 10
5.1679
 20
1.258
 30
0.0
 10
5.2502
 20
1.3112
 30
0.0
 10
5.3505
 20
1.353
 30
0.0
 10
5.4686
 20
1.383
 30
0.0
 10
5.4686
 20
1.383
 30
0.0
 10
5.5866
 20
1.4137
 30
0.0
 10
5.7455
 20
1.4287
 30
0.0
 10
5.9459
 20
1.4287
 30
0.0
 10
5.9459
 20
1.4287
 30
0.0
 10
6.183
 20
1.4287
 30
0.0
 10
6.3739
 20
1.4042
 30
0.0
 10
6.5198
 20
1.3558
 30
0.0
 10
6.5198
 20
1.3558
 30
0.0
 10
6.6656
 20
1.3069
 30
0.0
 10
6.7781
 20
1.234
 30
0.0
 10
6.8575
 20
1.1371
 30
0.0
 10
6.8575
 20
1.1371
 30
0.0
 10
6.937
 20
1.0402
 30
0.0
 10
6.9766
 20
0.9179
 30
0.0
 10
6.9766
 20
0.7697
 30
0.0
 10
6.9766
 20
0.7697
 30
0.0
 10
6.9766
 20
0.575
 30
0.0
 10
6.907
 20
0.4221
 30
0.0
 10
6.7672
 20
0.3111
 30
0.0
 10
6.7672
 20
0.3111
 30
0.0
 10
6.5994
 20
0.178
 30
0.0
 10
6.3251
 20
0.1111
 30
0.0
 10
5.9459
 20
0.1111
 30
0.0
  0
SPLINE
  5
75
330
1F
100
AcDbEntity
  8
DEFAULT_1
 62
   250
100
AcDbSpline
210
0.0
220
0.0
230
1.0
 70
    11
 71
     3
 72
    36
 73
    32
 74
     0
 42
0.0000000001
 43
0.0000000001
 40
0.0
 40
0.0
 40
0.0
 40
0.0
 40
0.1111111111111111
 40
0.1111111111111111
 40
0.1111111111111111
 40
0.1111111111111111
 40
0.2222222222222222
 40
0.2222222222222222
 40
0.2222222222222222
 40
0.2222222222222222
 40
0.3333333333333333
 40
0.3333333333333333
 40
0.3333333333333333
 40
0.3333333333333333
 40
0.4444444444444444
 40
0.4444444444444444
 40
0.4444444444444444
 40
0.4444444444444444
 40
0.5555555555555556
 40
0.5555555555555556
 40
0.5555555555555556
 40
0.5555555555555556
 40
0.6666666666666666
 40
0.6666666666666666
 40
0.6666666666666666
 40
0.6666666666666666
 40
0.7777777777777778
 40
0.7777777777777778
 40
0.7777777777777778
 40
0.7777777777777778
 40
1.0
 40
1.0
 40
1.0
 40
1.0
 10
5.9459
 20
0.3662
 30
0.0
 10
6.2775
 20
0.3662
 30
0.0
 10
6.4982
 20
0.4052
 30
0.0
 10
6.6082
 20
0.4828
 30
0.0
 10
6.6082
 20
0.4828
 30
0.0
 10
6.7178
 20
0.5605
 30
0.0
 10
6.7728
 20
0.6559
 30
0.0
 10
6.7728
 20
0.7697
 30
0.0
 10
6.7728
 20
0.7697
 30
0.0
 10
6.7728
 20
0.884
 30
0.0
 10
6.7174
 20
0.9795
 30
0.0
 10
6.6073
 20
1.0571
 30
0.0
 10
6.6073
 20
1.0571
 30
0.0
 10
6.4972
 20
1.1347
 30
0.0
 10
6.2767
 20
1.1738
 30
0.0
 10
5.9459
 20
1.1738
 30
0.0
 10
5.9459
 20
1.1738
 30
0.0
 10
5.6134
 20
1.1738
 30
0.0
 10
5.3923
 20
1.1347
 30
0.0
 10
5.2832
 20
1.0571
 30
0.0
 10
5.2832
 20
1.0571
 30
0.0
 10
5.1735
 20
0.9795
 30
0.0
 10
5.119
 20
0.8831
 30
0.0
 10
5.119
 20
0.7673
 30
0.0
 10
5.119
 20
0.7673
 30
0.0
 10
5.119
 20
0.6531
 30
0.0
 10
5.1674
 20
0.5623
 30
0.0
 10
5.2639
 20
0.4941
 30
0.0
 10
5.2639
 20
0.4941
 30
0.0
 10
5.3866
 20
0.4089
 30
0.0
 10
5.6144
 20
0.3662
 30
0.0
 10
5.9459
 20
0.3662
 30
0.0
  0
SPLINE
  5
76
330
1F
100
AcDbEntity
  8
DEFAULT_1
 62
   250
100
AcDbSpline
210
0.0
220
0.0
230
1.0
 70
    11
 71
     3
 72
    20
 73
    16
 74
     0
 42
0.0000000001
 43
0.0000000001
 40
0.0
 40
0.0
 40
0.0
 40
0.0
 40
0.2
 40
0.2
 40
0.2
 40
0.2
 40
0.4
 40
0.4
 40
0.4
 40
0.4
 40
0.6
 40
0.6
 40
0.6
 40
0.6
 40
1.0
 40
1.0
 40
1.0
 40
1.0
 10
8.4291
 20
-3.4008
 30
0.0
 10
8.4291
 20
-3.4008
 30
0.0
 10
8.0762
 20
-5.9008
 30
0.0
 10
8.0762
 20
-5.9008
 30
0.0
 10
8.0762
 20
-5.9008
 30
0.0
 10
8.0762
 20
-5.9008
 30
0.0
 10
7.9979
 20
-5.9008
 30
0.0
 10
7.9979
 20
-5.9008
 30
0.0
 10
7.9979
 20
-5.9008
 30
0.0
 10
7.9979
 20
-5.9008
 30
0.0
 10
7.6216
 20
-3.4008
 30
0.0
 10
7.6216
 20
-3.4008
 30
0.0
 10
7.6216
 20
-3.4008
 30
0.0
 10
7.6216
 20
-3.4008
 30
0.0
 10
8.4291
 20
-3.4008
 30
0.0
 10
8.4291
 20
-3.4008
 30
0.0
  0
SPLINE
  5
77
330
1F
100
AcDbEntity
  8
DEFAULT_1
 62
   250
100
AcDbSpline
210
0.0
220
0.0
230
1.0
 70
     8
 71
     3
 72
     8
 73
     4
 74
     0
 42
0.0000000001
 43
0.0000000001
 40
0.0
 40
0.0
 40
0.0
 40
0.0
 40
1.0
 40
1.0
 40
1.0
 40
1.0
 10
17.3965
 20
-13.2881
 30
0.0
 10
17.3965
 20
-14.6098
 30
0.0
 10
18.468
 20
-15.6813
 30
0.0
 10
19.7899
 20
-15.6813
 30
0.0
  0
SPLINE
  5
78
330
1F
100
AcDbEntity
  8
DEFAULT_1
 62
   250
100
AcDbSpline
210
0.0
220
0.0
230
1.0
 70
     8
 71
     3
 72
     8
 73
     4
 74
     0
 42
0.0000000001
 43
0.0000000001
 40
0.0
 40
0.0
 40
0.0
 40
0.0
 40
1.0
 40
1.0
 40
1.0
 40
1.0
 10
19.7899
 20
-3.3732
 30
0.0
 10
18.468
 20
-3.3732
 30
0.0
 10
17.3965
 20
-4.4446
 30
0.0
 10
17.3965
 20
-5.7664
 30
0.0
  0
SPLINE
  5
79
330
1F
100
AcDbEntity
  8
DEFAULT_1
 62
   250
100
AcDbSpline
210
0.0
220
0.0
230
1.0
 70
    27
 71
     3
 72
    12
 73
     8
 74
     0
 42
0.0000000001
 43
0.0000000001
 40
0.0
 40
0.0
 40
0.0
 40
0.0
 40
0.3333333333333333
 40
0.3333333333333333
 40
0.3333333333333333
 40
0.3333333333333333
 40
1.0
 40
1.0
 40
1.0
 40
1.0
 10
21.8415
 20
-2.9457
 30
0.0
 10
21.8415
 20
-2.9457
 30
0.0
 10
21.8415
 20
-16.1087
 30
0.0
 10
21.8415
 20
-16.1087
 30
0.0
 10
21.8415
 20
-16.1087
 30
0.0
 10
21.8415
 20
-16.1087
 30
0.0
 10
21.8415
 20
-2.9457
 30
0.0
 10
21.8415
 20
-2.9457
 30
0.0
  0
SPLINE
  5
7A
330
1F
100
AcDbEntity
  8
DEFAULT_1
 62
   250
100
AcDbSpline
210
0.0
220
0.0
230
1.0
 70
    11
 71
     3
 72
    28
 73
    24
 74
     0
 42
0.0000000001
 43
0.0000000001
 40
0.0
 40
0.0
 40
0.0
 40
0.0
 40
0.1428571428571428
 40
0.1428571428571428
 40
0.1428571428571428
 40
0.1428571428571428
 40
0.2857142857142857
 40
0.2857142857142857
 40
0.2857142857142857
 40
0.2857142857142857
 40
0.4285714285714285
 40
0.4285714285714285
 40
0.4285714285714285
 40
0.4285714285714285
 40
0.5714285714285714
 40
0.5714285714285714
 40
0.5714285714285714
 40
0.5714285714285714
 40
0.7142857142857143
 40
0.7142857142857143
 40
0.7142857142857143
 40
0.7142857142857143
 40
1.0
 40
1.0
 40
1.0
 40
1.0
 10
21.3285
 20
-3.3732
 30
0.0
 10
21.3285
 20
-3.3732
 30
0.0
 10
21.756
 20
-2.9457
 30
0.0
 10
21.756
 20
-2.9457
 30
0.0
 10
21.756
 20
-2.9457
 30
0.0
 10
21.756
 20
-2.9457
 30
0.0
 10
21.3285
 20
-3.3732
 30
0.0
 10
21.3285
 20
-3.3732
 30
0.0
 10
21.3285
 20
-3.3732
 30
0.0
 10
21.3285
 20
-3.3732
 30
0.0
 10
21.3285
 20
-15.6813
 30
0.0
 10
21.3285
 20
-15.6813
 30
0.0
 10
21.3285
 20
-15.6813
 30
0.0
 10
21.3285
 20
-15.6813
 30
0.0
 10
21.756
 20
-16.1087
 30
0.0
 10
21.756
 20
-16.1087
 30
0.0
 10
21.756
 20
-16.1087
 30
0.0
 10
21.756
 20
-16.1087
 30
0.0
 10
21.3285
 20
-15.6813
 30
0.0
 10
21.3285
 20
-15.6813
 30
0.0
 10
21.3285
 20
-15.6813
 30
0.0
 10
21.3285
 20
-15.6813
 30
0.0
 10
21.3285
 20
-3.3732
 30
0.0
 10
21.3285
 20
-3.3732
 30
0.0
  0
SPLINE
  5
7B
330
1F
100
AcDbEntity
  8
DEFAULT_1
 62
   250
100
AcDbSpline
210
0.0
220
0.0
230
1.0
 70
    27
 71
     3
 72
    20
 73
    16
 74
     0
 42
0.0000000001
 43
0.0000000001
 40
0.0
 40
0.0
 40
0.0
 40
0.0
 40
0.2
 40
0.2
 40
0.2
 40
0.2
 40
0.4
 40
0.4
 40
0.4
 40
0.4
 40
0.6
 40
0.6
 40
0.6
 40
0.6
 40
1.0
 40
1.0
 40
1.0
 40
1.0
 10
21.3285
 20
-3.3732
 30
0.0
 10
21.3285
 20
-3.3732
 30
0.0
 10
19.926
 20
-3.3732
 30
0.0
 10
19.926
 20
-3.3732
 30
0.0
 10
19.926
 20
-3.3732
 30
0.0
 10
19.926
 20
-3.3732
 30
0.0
 10
19.7899
 20
-3.3732
 30
0.0
 10
19.7899
 20
-3.3732
 30
0.0
 10
19.7899
 20
-3.3732
 30
0.0
 10
19.7899
 20
-3.3732
 30
0.0
 10
19.926
 20
-3.3732
 30
0.0
 10
19.926
 20
-3.3732
 30
0.0
 10
19.926
 20
-3.3732
 30
0.0
 10
19.926
 20
-3.3732
 30
0.0
 10
21.3285
 20
-3.3732
 30
0.0
 10
21.3285
 20
-3.3732
 30
0.0
  0
SPLINE
  5
7C
330
1F
100
AcDbEntity
  8
DEFAULT_1
 62
   250
100
AcDbSpline
210
0.0
220
0.0
230
1.0
 70
    27
 71
     3
 72
    12
 73
     8
 74
     0
 42
0.0000000001
 43
0.0000000001
 40
0.0
 40
0.0
 40
0.0
 40
0.0
 40
0.3333333333333333
 40
0.3333333333333333
 40
0.3333333333333333
 40
0.3333333333333333
 40
1.0
 40
1.0
 40
1.0
 40
1.0
 10
21.3285
 20
-15.6813
 30
0.0
 10
21.3285
 20
-15.6813
 30
0.0
 10
19.7899
 20
-15.6813
 30
0.0
 10
19.7899
 20
-15.6813
 30
0.0
 10
19.7899
 20
-15.6813
 30
0.0
 10
19.7899
 20
-15.6813
 30
0.0
 10
21.3285
 20
-15.6813
 30
0.0
 10
21.3285
 20
-15.6813
 30
0.0
  0
SPLINE
  5
7D
330
1F
100
AcDbEntity
  8
DEFAULT_1
 62
   250
100
AcDbSpline
210
0.0
220
0.0
230
1.0
 70
    27
 71
     3
 72
    12
 73
     8
 74
     0
 42
0.0000000001
 43
0.0000000001
 40
0.0
 40
0.0
 40
0.0
 40
0.0
 40
0.3333333333333333
 40
0.3333333333333333
 40
0.3333333333333333
 40
0.3333333333333333
 40
1.0
 40
1.0
 40
1.0
 40
1.0
 10
17.3965
 20
-5.7664
 30
0.0
 10
17.3965
 20
-5.7664
 30
0.0
 10
17.3965
 20
-13.2881
 30
0.0
 10
17.3965
 20
-13.2881
 30
0.0
 10
17.3965
 20
-13.2881
 30
0.0
 10
17.3965
 20
-13.2881
 30
0.0
 10
17.3965
 20
-5.7664
 30
0.0
 10
17.3965
 20
-5.7664
 30
0.0
  0
SPLINE
  5
7E
330
1F
100
AcDbEntity
  8
DEFAULT_1
 62
   250
100
AcDbSpline
210
0.0
220
0.0
230
1.0
 70
    11
 71
     3
 72
   164
 73
   160
 74
     0
 42
0.0000000001
 43
0.0000000001
 40
0.0
 40
0.0
 40
0.0
 40
0.0
 40
0.024390243902439
 40
0.024390243902439
 40
0.024390243902439
 40
0.024390243902439
 40
0.0487804878048781
 40
0.0487804878048781
 40
0.0487804878048781
 40
0.0487804878048781
 40
0.0731707317073171
 40
0.0731707317073171
 40
0.0731707317073171
 40
0.0731707317073171
 40
0.0975609756097561
 40
0.0975609756097561
 40
0.0975609756097561
 40
0.0975609756097561
 40
0.1219512195121951
 40
0.1219512195121951
 40
0.1219512195121951
 40
0.1219512195121951
 40
0.1463414634146341
 40
0.1463414634146341
 40
0.1463414634146341
 40
0.1463414634146341
 40
0.1707317073170732
 40
0.1707317073170732
 40
0.1707317073170732
 40
0.1707317073170732
 40
0.1951219512195122
 40
0.1951219512195122
 40
0.1951219512195122
 40
0.1951219512195122
 40
0.2195121951219512
 40
0.2195121951219512
 40
0.2195121951219512
 40
0.2195121951219512
 40
0.2439024390243902
 40
0.2439024390243902
 40
0.2439024390243902
 40
0.2439024390243902
 40
0.2682926829268293
 40
0.2682926829268293
 40
0.2682926829268293
 40
0.2682926829268293
 40
0.2926829268292683
 40
0.2926829268292683
 40
0.2926829268292683
 40
0.2926829268292683
 40
0.3170731707317073
 40
0.3170731707317073
 40
0.3170731707317073
 40
0.3170731707317073
 40
0.3414634146341464
 40
0.3414634146341464
 40
0.3414634146341464
 40
0.3414634146341464
 40
0.3658536585365854
 40
0.3658536585365854
 40
0.3658536585365854
 40
0.3658536585365854
 40
0.3902439024390244
 40
0.3902439024390244
 40
0.3902439024390244
 40
0.3902439024390244
 40
0.4146341463414634
 40
0.4146341463414634
 40
0.4146341463414634
 40
0.4146341463414634
 40
0.4390243902439024
 40
0.4390243902439024
 40
0.4390243902439024
 40
0.4390243902439024
 40
0.4634146341463415
 40
0.4634146341463415
 40
0.4634146341463415
 40
0.4634146341463415
 40
0.4878048780487805
 40
0.4878048780487805
 40
0.4878048780487805
 40
0.4878048780487805
 40
0.5121951219512195
 40
0.5121951219512195
 40
0.5121951219512195
 40
0.5121951219512195
 40
0.5365853658536586
 40
0.5365853658536586
 40
0.5365853658536586
 40
0.5365853658536586
 40
0.5609756097560976
 40
0.5609756097560976
 40
0.5609756097560976
 40
0.5609756097560976
 40
0.5853658536585366
 40
0.5853658536585366
 40
0.5853658536585366
 40
0.5853658536585366
 40
0.6097560975609756
 40
0.6097560975609756
 40
0.6097560975609756
 40
0.6097560975609756
 40
0.6341463414634146
 40
0.6341463414634146
 40
0.6341463414634146
 40
0.6341463414634146
 40
0.6585365853658537
 40
0.6585365853658537
 40
0.6585365853658537
 40
0.6585365853658537
 40
0.6829268292682927
 40
0.6829268292682927
 40
0.6829268292682927
 40
0.6829268292682927
 40
0.7073170731707317
 40
0.7073170731707317
 40
0.7073170731707317
 40
0.7073170731707317
 40
0.7317073170731707
 40
0.7317073170731707
 40
0.7317073170731707
 40
0.7317073170731707
 40
0.7560975609756098
 40
0.7560975609756098
 40
0.7560975609756098
 40
0.7560975609756098
 40
0.7804878048780488
 40
0.7804878048780488
 40
0.7804878048780488
 40
0.7804878048780488
 40
0.8048780487804879
 40
0.8048780487804879
 40
0.8048780487804879
 40
0.8048780487804879
 40
0.8292682926829268
 40
0.8292682926829268
 40
0.8292682926829268
 40
0.8292682926829268
 40
0.8536585365853658
 40
0.8536585365853658
 40
0.8536585365853658
 40
0.8536585365853658
 40
0.8780487804878049
 40
0.8780487804878049
 40
0.8780487804878049
 40
0.8780487804878049
 40
0.9024390243902439
 40
0.9024390243902439
 40
0.9024390243902439
 40
0.9024390243902439
 40
0.926829268292683
 40
0.926829268292683
 40
0.926829268292683
 40
0.926829268292683
 40
0.9512195121951219
 40
0.9512195121951219
 40
0.9512195121951219
 40
0.9512195121951219
 40
1.0
 40
1.0
 40
1.0
 40
1.0
 10
-6.353
 20
-9.1759
 30
0.0
 10
-6.353
 20
-9.1759
 30
0.0
 10
-6.353
 20
-6.4105
 30
0.0
 10
-6.353
 20
-6.4105
 30
0.0
 10
-6.353
 20
-6.4105
 30
0.0
 10
-6.353
 20
-6.4105
 30
0.0
 10
-5.1281
 20
-6.4244
 30
0.0
 10
-5.1281
 20
-6.4244
 30
0.0
 10
-5.1281
 20
-6.4244
 30
0.0
 10
-5.1281
 20
-6.4244
 30
0.0
 10
-4.946
 20
-6.3464
 30
0.0
 10
-4.946
 20
-6.3464
 30
0.0
 10
-4.946
 20
-6.3464
 30
0.0
 10
-4.946
 20
-6.3464
 30
0.0
 10
-4.8118
 20
-6.2002
 30
0.0
 10
-4.8118
 20
-6.2002
 30
0.0
 10
-4.8118
 20
-6.2002
 30
0.0
 10
-4.8118
 20
-6.2002
 30
0.0
 10
-4.831
 20
-6.093
 30
0.0
 10
-4.831
 20
-6.093
 30
0.0
 10
-4.831
 20
-6.093
 30
0.0
 10
-4.831
 20
-6.093
 30
0.0
 10
-4.9076
 20
-6.0052
 30
0.0
 10
-4.9076
 20
-6.0052
 30
0.0
 10
-4.9076
 20
-6.0052
 30
0.0
 10
-4.9076
 20
-6.0052
 30
0.0
 10
-5.0323
 20
-5.9564
 30
0.0
 10
-5.0323
 20
-5.9564
 30
0.0
 10
-5.0323
 20
-5.9564
 30
0.0
 10
-5.0323
 20
-5.9564
 30
0.0
 10
-5.2049
 20
-5.9077
 30
0.0
 10
-5.2049
 20
-5.9077
 30
0.0
 10
-5.2049
 20
-5.9077
 30
0.0
 10
-5.2049
 20
-5.9077
 30
0.0
 10
-6.3457
 20
-5.9077
 30
0.0
 10
-6.3457
 20
-5.9077
 30
0.0
 10
-6.3457
 20
-5.9077
 30
0.0
 10
-6.3457
 20
-5.9077
 30
0.0
 10
-6.3553
 20
-4.8258
 30
0.0
 10
-6.3553
 20
-4.8258
 30
0.0
 10
-6.3553
 20
-4.8258
 30
0.0
 10
-6.3553
 20
-4.8258
 30
0.0
 10
-4.2653
 20
-4.8452
 30
0.0
 10
-4.2653
 20
-4.8452
 30
0.0
 10
-4.2653
 20
-4.8452
 30
0.0
 10
-4.2653
 20
-4.8452
 30
0.0
 10
-4.1407
 20
-4.894
 30
0.0
 10
-4.1407
 20
-4.894
 30
0.0
 10
-4.1407
 20
-4.894
 30
0.0
 10
-4.1407
 20
-4.894
 30
0.0
 10
-4.0448
 20
-5.0012
 30
0.0
 10
-4.0448
 20
-5.0012
 30
0.0
 10
-4.0448
 20
-5.0012
 30
0.0
 10
-4.0448
 20
-5.0012
 30
0.0
 10
-3.9969
 20
-5.0889
 30
0.0
 10
-3.9969
 20
-5.0889
 30
0.0
 10
-3.9969
 20
-5.0889
 30
0.0
 10
-3.9969
 20
-5.0889
 30
0.0
 10
-3.9584
 20
-5.2156
 30
0.0
 10
-3.9584
 20
-5.2156
 30
0.0
 10
-3.9584
 20
-5.2156
 30
0.0
 10
-3.9584
 20
-5.2156
 30
0.0
 10
-3.9515
 20
-13.8592
 30
0.0
 10
-3.9515
 20
-13.8592
 30
0.0
 10
-3.9515
 20
-13.8592
 30
0.0
 10
-3.9515
 20
-13.8592
 30
0.0
 10
-4.0181
 20
-14.037
 30
0.0
 10
-4.0181
 20
-14.037
 30
0.0
 10
-4.0181
 20
-14.037
 30
0.0
 10
-4.0181
 20
-14.037
 30
0.0
 10
-4.1194
 20
-14.1573
 30
0.0
 10
-4.1194
 20
-14.1573
 30
0.0
 10
-4.1194
 20
-14.1573
 30
0.0
 10
-4.1194
 20
-14.1573
 30
0.0
 10
-4.2968
 20
-14.1916
 30
0.0
 10
-4.2968
 20
-14.1916
 30
0.0
 10
-4.2968
 20
-14.1916
 30
0.0
 10
-4.2968
 20
-14.1916
 30
0.0
 10
-6.3752
 20
-14.1916
 30
0.0
 10
-6.3752
 20
-14.1916
 30
0.0
 10
-6.3752
 20
-14.1916
 30
0.0
 10
-6.3752
 20
-14.1916
 30
0.0
 10
-6.3667
 20
-13.0921
 30
0.0
 10
-6.3667
 20
-13.0921
 30
0.0
 10
-6.3667
 20
-13.0921
 30
0.0
 10
-6.3667
 20
-13.0921
 30
0.0
 10
-5.1586
 20
-13.1179
 30
0.0
 10
-5.1586
 20
-13.1179
 30
0.0
 10
-5.1586
 20
-13.1179
 30
0.0
 10
-5.1586
 20
-13.1179
 30
0.0
 10
-4.9304
 20
-13.0578
 30
0.0
 10
-4.9304
 20
-13.0578
 30
0.0
 10
-4.9304
 20
-13.0578
 30
0.0
 10
-4.9304
 20
-13.0578
 30
0.0
 10
-4.8291
 20
-12.989
 30
0.0
 10
-4.8291
 20
-12.989
 30
0.0
 10
-4.8291
 20
-12.989
 30
0.0
 10
-4.8291
 20
-12.989
 30
0.0
 10
-4.8291
 20
-12.9117
 30
0.0
 10
-4.8291
 20
-12.9117
 30
0.0
 10
-4.8291
 20
-12.9117
 30
0.0
 10
-4.8291
 20
-12.9117
 30
0.0
 10
-4.8291
 20
-12.8259
 30
0.0
 10
-4.8291
 20
-12.8259
 30
0.0
 10
-4.8291
 20
-12.8259
 30
0.0
 10
-4.8291
 20
-12.8259
 30
0.0
 10
-4.922
 20
-12.7056
 30
0.0
 10
-4.922
 20
-12.7056
 30
0.0
 10
-4.922
 20
-12.7056
 30
0.0
 10
-4.922
 20
-12.7056
 30
0.0
 10
-5.0657
 20
-12.6283
 30
0.0
 10
-5.0657
 20
-12.6283
 30
0.0
 10
-5.0657
 20
-12.6283
 30
0.0
 10
-5.0657
 20
-12.6283
 30
0.0
 10
-5.1502
 20
-12.6283
 30
0.0
 10
-5.1502
 20
-12.6283
 30
0.0
 10
-5.1502
 20
-12.6283
 30
0.0
 10
-5.1502
 20
-12.6283
 30
0.0
 10
-6.3498
 20
-12.6283
 30
0.0
 10
-6.3498
 20
-12.6283
 30
0.0
 10
-6.3498
 20
-12.6283
 30
0.0
 10
-6.3498
 20
-12.6283
 30
0.0
 10
-6.3498
 20
-9.8367
 30
0.0
 10
-6.3498
 20
-9.8367
 30
0.0
 10
-6.3498
 20
-9.8367
 30
0.0
 10
-6.3498
 20
-9.8367
 30
0.0
 10
-5.1754
 20
-9.8367
 30
0.0
 10
-5.1754
 20
-9.8367
 30
0.0
 10
-5.1754
 20
-9.8367
 30
0.0
 10
-5.1754
 20
-9.8367
 30
0.0
 10
-5.0149
 20
-9.8023
 30
0.0
 10
-5.0149
 20
-9.8023
 30
0.0
 10
-5.0149
 20
-9.8023
 30
0.0
 10
-5.0149
 20
-9.8023
 30
0.0
 10
-4.8967
 20
-9.7164
 30
0.0
 10
-4.8967
 20
-9.7164
 30
0.0
 10
-4.8967
 20
-9.7164
 30
0.0
 10
-4.8967
 20
-9.7164
 30
0.0
 10
-4.8459
 20
-9.5533
 30
0.0
 10
-4.8459
 20
-9.5533
 30
0.0
 10
-4.8459
 20
-9.5533
 30
0.0
 10
-4.8459
 20
-9.5533
 30
0.0
 10
-4.8713
 20
-9.39
 30
0.0
 10
-4.8713
 20
-9.39
 30
0.0
 10
-4.8713
 20
-9.39
 30
0.0
 10
-4.8713
 20
-9.39
 30
0.0
 10
-4.922
 20
-9.2698
 30
0.0
 10
-4.922
 20
-9.2698
 30
0.0
 10
-4.922
 20
-9.2698
 30
0.0
 10
-4.922
 20
-9.2698
 30
0.0
 10
-4.998
 20
-9.201
 30
0.0
 10
-4.998
 20
-9.201
 30
0.0
 10
-4.998
 20
-9.201
 30
0.0
 10
-4.998
 20
-9.201
 30
0.0
 10
-5.0741
 20
-9.1667
 30
0.0
 10
-5.0741
 20
-9.1667
 30
0.0
 10
-5.0741
 20
-9.1667
 30
0.0
 10
-5.0741
 20
-9.1667
 30
0.0
 10
-6.353
 20
-9.1759
 30
0.0
 10
-6.353
 20
-9.1759
 30
0.0
  0
SPLINE
  5
7F
330
1F
100
AcDbEntity
  8
DEFAULT_1
 62
   250
100
AcDbSpline
210
0.0
220
0.0
230
1.0
 70
    11
 71
     3
 72
    28
 73
    24
 74
     0
 42
0.0000000001
 43
0.0000000001
 40
0.0
 40
0.0
 40
0.0
 40
0.0
 40
0.1428571428571428
 40
0.1428571428571428
 40
0.1428571428571428
 40
0.1428571428571428
 40
0.2857142857142857
 40
0.2857142857142857
 40
0.2857142857142857
 40
0.2857142857142857
 40
0.4285714285714285
 40
0.4285714285714285
 40
0.4285714285714285
 40
0.4285714285714285
 40
0.5714285714285714
 40
0.5714285714285714
 40
0.5714285714285714
 40
0.5714285714285714
 40
0.7142857142857143
 40
0.7142857142857143
 40
0.7142857142857143
 40
0.7142857142857143
 40
1.0
 40
1.0
 40
1.0
 40
1.0
 10
-4.8179
 20
-4.7628
 30
0.0
 10
-4.8179
 20
-4.7628
 30
0.0
 10
-6.8648
 20
-4.7628
 30
0.0
 10
-6.8648
 20
-4.7628
 30
0.0
 10
-6.8648
 20
-4.7628
 30
0.0
 10
-6.8648
 20
-4.7628
 30
0.0
 10
-6.8648
 20
-14.2813
 30
0.0
 10
-6.8648
 20
-14.2813
 30
0.0
 10
-6.8648
 20
-14.2813
 30
0.0
 10
-6.8648
 20
-14.2813
 30
0.0
 10
-4.8179
 20
-14.2813
 30
0.0
 10
-4.8179
 20
-14.2813
 30
0.0
 10
-4.8179
 20
-14.2813
 30
0.0
 10
-4.8179
 20
-14.2813
 30
0.0
 10
-6.8648
 20
-14.2813
 30
0.0
 10
-6.8648
 20
-14.2813
 30
0.0
 10
-6.8648
 20
-14.2813
 30
0.0
 10
-6.8648
 20
-14.2813
 30
0.0
 10
-6.8648
 20
-4.7628
 30
0.0
 10
-6.8648
 20
-4.7628
 30
0.0
 10
-6.8648
 20
-4.7628
 30
0.0
 10
-6.8648
 20
-4.7628
 30
0.0
 10
-4.8179
 20
-4.7628
 30
0.0
 10
-4.8179
 20
-4.7628
 30
0.0
  0
SPLINE
  5
80
330
1F
100
AcDbEntity
  8
DEFAULT_1
 62
   250
100
AcDbSpline
210
0.0
220
0.0
230
1.0
 70
    11
 71
     3
 72
   164
 73
   160
 74
     0
 42
0.0000000001
 43
0.0000000001
 40
0.0
 40
0.0
 40
0.0
 40
0.0
 40
0.024390243902439
 40
0.024390243902439
 40
0.024390243902439
 40
0.024390243902439
 40
0.0487804878048781
 40
0.0487804878048781
 40
0.0487804878048781
 40
0.0487804878048781
 40
0.0731707317073171
 40
0.0731707317073171
 40
0.0731707317073171
 40
0.0731707317073171
 40
0.0975609756097561
 40
0.0975609756097561
 40
0.0975609756097561
 40
0.0975609756097561
 40
0.1219512195121951
 40
0.1219512195121951
 40
0.1219512195121951
 40
0.1219512195121951
 40
0.1463414634146341
 40
0.1463414634146341
 40
0.1463414634146341
 40
0.1463414634146341
 40
0.1707317073170732
 40
0.1707317073170732
 40
0.1707317073170732
 40
0.1707317073170732
 40
0.1951219512195122
 40
0.1951219512195122
 40
0.1951219512195122
 40
0.1951219512195122
 40
0.2195121951219512
 40
0.2195121951219512
 40
0.2195121951219512
 40
0.2195121951219512
 40
0.2439024390243902
 40
0.2439024390243902
 40
0.2439024390243902
 40
0.2439024390243902
 40
0.2682926829268293
 40
0.2682926829268293
 40
0.2682926829268293
 40
0.2682926829268293
 40
0.2926829268292683
 40
0.2926829268292683
 40
0.2926829268292683
 40
0.2926829268292683
 40
0.3170731707317073
 40
0.3170731707317073
 40
0.3170731707317073
 40
0.3170731707317073
 40
0.3414634146341464
 40
0.3414634146341464
 40
0.3414634146341464
 40
0.3414634146341464
 40
0.3658536585365854
 40
0.3658536585365854
 40
0.3658536585365854
 40
0.3658536585365854
 40
0.3902439024390244
 40
0.3902439024390244
 40
0.3902439024390244
 40
0.3902439024390244
 40
0.4146341463414634
 40
0.4146341463414634
 40
0.4146341463414634
 40
0.4146341463414634
 40
0.4390243902439024
 40
0.4390243902439024
 40
0.4390243902439024
 40
0.4390243902439024
 40
0.4634146341463415
 40
0.4634146341463415
 40
0.4634146341463415
 40
0.4634146341463415
 40
0.4878048780487805
 40
0.4878048780487805
 40
0.4878048780487805
 40
0.4878048780487805
 40
0.5121951219512195
 40
0.5121951219512195
 40
0.5121951219512195
 40
0.5121951219512195
 40
0.5365853658536586
 40
0.5365853658536586
 40
0.5365853658536586
 40
0.5365853658536586
 40
0.5609756097560976
 40
0.5609756097560976
 40
0.5609756097560976
 40
0.5609756097560976
 40
0.5853658536585366
 40
0.5853658536585366
 40
0.5853658536585366
 40
0.5853658536585366
 40
0.6097560975609756
 40
0.6097560975609756
 40
0.6097560975609756
 40
0.6097560975609756
 40
0.6341463414634146
 40
0.6341463414634146
 40
0.6341463414634146
 40
0.6341463414634146
 40
0.6585365853658537
 40
0.6585365853658537
 40
0.6585365853658537
 40
0.6585365853658537
 40
0.6829268292682927
 40
0.6829268292682927
 40
0.6829268292682927
 40
0.6829268292682927
 40
0.7073170731707317
 40
0.7073170731707317
 40
0.7073170731707317
 40
0.7073170731707317
 40
0.7317073170731707
 40
0.7317073170731707
 40
0.7317073170731707
 40
0.7317073170731707
 40
0.7560975609756098
 40
0.7560975609756098
 40
0.7560975609756098
 40
0.7560975609756098
 40
0.7804878048780488
 40
0.7804878048780488
 40
0.7804878048780488
 40
0.7804878048780488
 40
0.8048780487804879
 40
0.8048780487804879
 40
0.8048780487804879
 40
0.8048780487804879
 40
0.8292682926829268
 40
0.8292682926829268
 40
0.8292682926829268
 40
0.8292682926829268
 40
0.8536585365853658
 40
0.8536585365853658
 40
0.8536585365853658
 40
0.8536585365853658
 40
0.8780487804878049
 40
0.8780487804878049
 40
0.8780487804878049
 40
0.8780487804878049
 40
0.9024390243902439
 40
0.9024390243902439
 40
0.9024390243902439
 40
0.9024390243902439
 40
0.926829268292683
 40
0.926829268292683
 40
0.926829268292683
 40
0.926829268292683
 40
0.9512195121951219
 40
0.9512195121951219
 40
0.9512195121951219
 40
0.9512195121951219
 40
1.0
 40
1.0
 40
1.0
 40
1.0
 10
-15.1764
 20
-2.6087
 30
0.0
 10
-15.1764
 20
-2.6087
 30
0.0
 10
-17.6192
 20
-2.6087
 30
0.0
 10
-17.6192
 20
-2.6087
 30
0.0
 10
-17.6192
 20
-2.6087
 30
0.0
 10
-17.6192
 20
-2.6087
 30
0.0
 10
-17.607
 20
-1.5984
 30
0.0
 10
-17.607
 20
-1.5984
 30
0.0
 10
-17.607
 20
-1.5984
 30
0.0
 10
-17.607
 20
-1.5984
 30
0.0
 10
-17.6759
 20
-1.4482
 30
0.0
 10
-17.6759
 20
-1.4482
 30
0.0
 10
-17.6759
 20
-1.4482
 30
0.0
 10
-17.6759
 20
-1.4482
 30
0.0
 10
-17.8049
 20
-1.3375
 30
0.0
 10
-17.8049
 20
-1.3375
 30
0.0
 10
-17.8049
 20
-1.3375
 30
0.0
 10
-17.8049
 20
-1.3375
 30
0.0
 10
-17.8997
 20
-1.3533
 30
0.0
 10
-17.8997
 20
-1.3533
 30
0.0
 10
-17.8997
 20
-1.3533
 30
0.0
 10
-17.8997
 20
-1.3533
 30
0.0
 10
-17.9772
 20
-1.4165
 30
0.0
 10
-17.9772
 20
-1.4165
 30
0.0
 10
-17.9772
 20
-1.4165
 30
0.0
 10
-17.9772
 20
-1.4165
 30
0.0
 10
-18.0204
 20
-1.5193
 30
0.0
 10
-18.0204
 20
-1.5193
 30
0.0
 10
-18.0204
 20
-1.5193
 30
0.0
 10
-18.0204
 20
-1.5193
 30
0.0
 10
-18.0633
 20
-1.6618
 30
0.0
 10
-18.0633
 20
-1.6618
 30
0.0
 10
-18.0633
 20
-1.6618
 30
0.0
 10
-18.0633
 20
-1.6618
 30
0.0
 10
-18.0633
 20
-2.6027
 30
0.0
 10
-18.0633
 20
-2.6027
 30
0.0
 10
-18.0633
 20
-2.6027
 30
0.0
 10
-18.0633
 20
-2.6027
 30
0.0
 10
-19.019
 20
-2.6106
 30
0.0
 10
-19.019
 20
-2.6106
 30
0.0
 10
-19.019
 20
-2.6106
 30
0.0
 10
-19.019
 20
-2.6106
 30
0.0
 10
-19.0018
 20
-0.8867
 30
0.0
 10
-19.0018
 20
-0.8867
 30
0.0
 10
-19.0018
 20
-0.8867
 30
0.0
 10
-19.0018
 20
-0.8867
 30
0.0
 10
-18.9588
 20
-0.7839
 30
0.0
 10
-18.9588
 20
-0.7839
 30
0.0
 10
-18.9588
 20
-0.7839
 30
0.0
 10
-18.9588
 20
-0.7839
 30
0.0
 10
-18.8641
 20
-0.7048
 30
0.0
 10
-18.8641
 20
-0.7048
 30
0.0
 10
-18.8641
 20
-0.7048
 30
0.0
 10
-18.8641
 20
-0.7048
 30
0.0
 10
-18.7867
 20
-0.6652
 30
0.0
 10
-18.7867
 20
-0.6652
 30
0.0
 10
-18.7867
 20
-0.6652
 30
0.0
 10
-18.7867
 20
-0.6652
 30
0.0
 10
-18.6746
 20
-0.6335
 30
0.0
 10
-18.6746
 20
-0.6335
 30
0.0
 10
-18.6746
 20
-0.6335
 30
0.0
 10
-18.6746
 20
-0.6335
 30
0.0
 10
-11.0395
 20
-0.6278
 30
0.0
 10
-11.0395
 20
-0.6278
 30
0.0
 10
-11.0395
 20
-0.6278
 30
0.0
 10
-11.0395
 20
-0.6278
 30
0.0
 10
-10.8825
 20
-0.6828
 30
0.0
 10
-10.8825
 20
-0.6828
 30
0.0
 10
-10.8825
 20
-0.6828
 30
0.0
 10
-10.8825
 20
-0.6828
 30
0.0
 10
-10.7763
 20
-0.7663
 30
0.0
 10
-10.7763
 20
-0.7663
 30
0.0
 10
-10.7763
 20
-0.7663
 30
0.0
 10
-10.7763
 20
-0.7663
 30
0.0
 10
-10.7458
 20
-0.9127
 30
0.0
 10
-10.7458
 20
-0.9127
 30
0.0
 10
-10.7458
 20
-0.9127
 30
0.0
 10
-10.7458
 20
-0.9127
 30
0.0
 10
-10.7458
 20
-2.6269
 30
0.0
 10
-10.7458
 20
-2.6269
 30
0.0
 10
-10.7458
 20
-2.6269
 30
0.0
 10
-10.7458
 20
-2.6269
 30
0.0
 10
-11.7171
 20
-2.62
 30
0.0
 10
-11.7171
 20
-2.62
 30
0.0
 10
-11.7171
 20
-2.62
 30
0.0
 10
-11.7171
 20
-2.62
 30
0.0
 10
-11.6943
 20
-1.6234
 30
0.0
 10
-11.6943
 20
-1.6234
 30
0.0
 10
-11.6943
 20
-1.6234
 30
0.0
 10
-11.6943
 20
-1.6234
 30
0.0
 10
-11.7474
 20
-1.4353
 30
0.0
 10
-11.7474
 20
-1.4353
 30
0.0
 10
-11.7474
 20
-1.4353
 30
0.0
 10
-11.7474
 20
-1.4353
 30
0.0
 10
-11.8082
 20
-1.3518
 30
0.0
 10
-11.8082
 20
-1.3518
 30
0.0
 10
-11.8082
 20
-1.3518
 30
0.0
 10
-11.8082
 20
-1.3518
 30
0.0
 10
-11.8765
 20
-1.3518
 30
0.0
 10
-11.8765
 20
-1.3518
 30
0.0
 10
-11.8765
 20
-1.3518
 30
0.0
 10
-11.8765
 20
-1.3518
 30
0.0
 10
-11.9523
 20
-1.3518
 30
0.0
 10
-11.9523
 20
-1.3518
 30
0.0
 10
-11.9523
 20
-1.3518
 30
0.0
 10
-11.9523
 20
-1.3518
 30
0.0
 10
-12.0585
 20
-1.4284
 30
0.0
 10
-12.0585
 20
-1.4284
 30
0.0
 10
-12.0585
 20
-1.4284
 30
0.0
 10
-12.0585
 20
-1.4284
 30
0.0
 10
-12.1268
 20
-1.5468
 30
0.0
 10
-12.1268
 20
-1.5468
 30
0.0
 10
-12.1268
 20
-1.5468
 30
0.0
 10
-12.1268
 20
-1.5468
 30
0.0
 10
-12.1268
 20
-1.6165
 30
0.0
 10
-12.1268
 20
-1.6165
 30
0.0
 10
-12.1268
 20
-1.6165
 30
0.0
 10
-12.1268
 20
-1.6165
 30
0.0
 10
-12.1268
 20
-2.606
 30
0.0
 10
-12.1268
 20
-2.606
 30
0.0
 10
-12.1268
 20
-2.606
 30
0.0
 10
-12.1268
 20
-2.606
 30
0.0
 10
-14.5927
 20
-2.606
 30
0.0
 10
-14.5927
 20
-2.606
 30
0.0
 10
-14.5927
 20
-2.606
 30
0.0
 10
-14.5927
 20
-2.606
 30
0.0
 10
-14.5927
 20
-1.6374
 30
0.0
 10
-14.5927
 20
-1.6374
 30
0.0
 10
-14.5927
 20
-1.6374
 30
0.0
 10
-14.5927
 20
-1.6374
 30
0.0
 10
-14.6231
 20
-1.505
 30
0.0
 10
-14.6231
 20
-1.505
 30
0.0
 10
-14.6231
 20
-1.505
 30
0.0
 10
-14.6231
 20
-1.505
 30
0.0
 10
-14.6989
 20
-1.4075
 30
0.0
 10
-14.6989
 20
-1.4075
 30
0.0
 10
-14.6989
 20
-1.4075
 30
0.0
 10
-14.6989
 20
-1.4075
 30
0.0
 10
-14.8431
 20
-1.3656
 30
0.0
 10
-14.8431
 20
-1.3656
 30
0.0
 10
-14.8431
 20
-1.3656
 30
0.0
 10
-14.8431
 20
-1.3656
 30
0.0
 10
-14.9873
 20
-1.3865
 30
0.0
 10
-14.9873
 20
-1.3865
 30
0.0
 10
-14.9873
 20
-1.3865
 30
0.0
 10
-14.9873
 20
-1.3865
 30
0.0
 10
-15.0934
 20
-1.4284
 30
0.0
 10
-15.0934
 20
-1.4284
 30
0.0
 10
-15.0934
 20
-1.4284
 30
0.0
 10
-15.0934
 20
-1.4284
 30
0.0
 10
-15.1543
 20
-1.4911
 30
0.0
 10
-15.1543
 20
-1.4911
 30
0.0
 10
-15.1543
 20
-1.4911
 30
0.0
 10
-15.1543
 20
-1.4911
 30
0.0
 10
-15.1846
 20
-1.5539
 30
0.0
 10
-15.1846
 20
-1.5539
 30
0.0
 10
-15.1846
 20
-1.5539
 30
0.0
 10
-15.1846
 20
-1.5539
 30
0.0
 10
-15.1764
 20
-2.6087
 30
0.0
 10
-15.1764
 20
-2.6087
 30
0.0
  0
SPLINE
  5
81
330
1F
100
AcDbEntity
  8
DEFAULT_1
 62
   250
100
AcDbSpline
210
0.0
220
0.0
230
1.0
 70
    11
 71
     3
 72
    28
 73
    24
 74
     0
 42
0.0000000001
 43
0.0000000001
 40
0.0
 40
0.0
 40
0.0
 40
0.0
 40
0.1428571428571428
 40
0.1428571428571428
 40
0.1428571428571428
 40
0.1428571428571428
 40
0.2857142857142857
 40
0.2857142857142857
 40
0.2857142857142857
 40
0.2857142857142857
 40
0.4285714285714285
 40
0.4285714285714285
 40
0.4285714285714285
 40
0.4285714285714285
 40
0.5714285714285714
 40
0.5714285714285714
 40
0.5714285714285714
 40
0.5714285714285714
 40
0.7142857142857143
 40
0.7142857142857143
 40
0.7142857142857143
 40
0.7142857142857143
 40
1.0
 40
1.0
 40
1.0
 40
1.0
 10
-19.0746
 20
-1.3425
 30
0.0
 10
-19.0746
 20
-1.3425
 30
0.0
 10
-19.0746
 20
-3.0308
 30
0.0
 10
-19.0746
 20
-3.0308
 30
0.0
 10
-19.0746
 20
-3.0308
 30
0.0
 10
-19.0746
 20
-3.0308
 30
0.0
 10
-10.6667
 20
-3.0308
 30
0.0
 10
-10.6667
 20
-3.0308
 30
0.0
 10
-10.6667
 20
-3.0308
 30
0.0
 10
-10.6667
 20
-3.0308
 30
0.0
 10
-10.6667
 20
-1.3425
 30
0.0
 10
-10.6667
 20
-1.3425
 30
0.0
 10
-10.6667
 20
-1.3425
 30
0.0
 10
-10.6667
 20
-1.3425
 30
0.0
 10
-10.6667
 20
-3.0308
 30
0.0
 10
-10.6667
 20
-3.0308
 30
0.0
 10
-10.6667
 20
-3.0308
 30
0.0
 10
-10.6667
 20
-3.0308
 30
0.0
 10
-19.0746
 20
-3.0308
 30
0.0
 10
-19.0746
 20
-3.0308
 30
0.0
 10
-19.0746
 20
-3.0308
 30
0.0
 10
-19.0746
 20
-3.0308
 30
0.0
 10
-19.0746
 20
-1.3425
 30
0.0
 10
-19.0746
 20
-1.3425
 30
0.0
  0
SPLINE
  5
82
330
1F
100
AcDbEntity
  8
DEFAULT_1
 62
   250
100
AcDbSpline
210
0.0
220
0.0
230
1.0
 70
     8
 71
     3
 72
    44
 73
    40
 74
     0
 42
0.0000000001
 43
0.0000000001
 40
0.0
 40
0.0
 40
0.0
 40
0.0
 40
0.0909090909090909
 40
0.0909090909090909
 40
0.0909090909090909
 40
0.0909090909090909
 40
0.1818181818181818
 40
0.1818181818181818
 40
0.1818181818181818
 40
0.1818181818181818
 40
0.2727272727272727
 40
0.2727272727272727
 40
0.2727272727272727
 40
0.2727272727272727
 40
0.3636363636363636
 40
0.3636363636363636
 40
0.3636363636363636
 40
0.3636363636363636
 40
0.4545454545454545
 40
0.4545454545454545
 40
0.4545454545454545
 40
0.4545454545454545
 40
0.5454545454545454
 40
0.5454545454545454
 40
0.5454545454545454
 40
0.5454545454545454
 40
0.6363636363636364
 40
0.6363636363636364
 40
0.6363636363636364
 40
0.6363636363636364
 40
0.7272727272727273
 40
0.7272727272727273
 40
0.7272727272727273
 40
0.7272727272727273
 40
0.8181818181818182
 40
0.8181818181818182
 40
0.8181818181818182
 40
0.8181818181818182
 40
1.0
 40
1.0
 40
1.0
 40
1.0
 10
-18.2461
 20
-5.854
 30
0.0
 10
-18.2461
 20
-5.854
 30
0.0
 10
-18.2461
 20
-5.7873
 30
0.0
 10
-18.2461
 20
-5.7873
 30
0.0
 10
-18.2461
 20
-5.7873
 30
0.0
 10
-18.2461
 20
-5.7873
 30
0.0
 10
-18.2164
 20
-5.6609
 30
0.0
 10
-18.2164
 20
-5.6609
 30
0.0
 10
-18.2164
 20
-5.6609
 30
0.0
 10
-18.2164
 20
-5.6609
 30
0.0
 10
-18.1129
 20
-5.5016
 30
0.0
 10
-18.1129
 20
-5.5016
 30
0.0
 10
-18.1129
 20
-5.5016
 30
0.0
 10
-18.1129
 20
-5.5016
 30
0.0
 10
-18.0093
 20
-5.4451
 30
0.0
 10
-18.0093
 20
-5.4451
 30
0.0
 10
-18.0093
 20
-5.4451
 30
0.0
 10
-18.0093
 20
-5.4451
 30
0.0
 10
-11.836
 20
-5.0962
 30
0.0
 10
-11.836
 20
-5.0962
 30
0.0
 10
-11.836
 20
-5.0962
 30
0.0
 10
-10.7876
 20
-5.1454
 30
0.0
 10
-9.7423
 20
-5.2479
 30
0.0
 10
-8.7043
 20
-5.4032
 30
0.0
 10
-8.7043
 20
-5.4032
 30
0.0
 10
-8.7043
 20
-5.4032
 30
0.0
 10
-8.443
 20
-5.5314
 30
0.0
 10
-8.443
 20
-5.5314
 30
0.0
 10
-8.443
 20
-5.5314
 30
0.0
 10
-8.443
 20
-5.5314
 30
0.0
 10
-8.3707
 20
-5.6652
 30
0.0
 10
-8.3707
 20
-5.6652
 30
0.0
 10
-8.3707
 20
-5.6652
 30
0.0
 10
-8.3707
 20
-5.6652
 30
0.0
 10
-8.35
 20
-5.7888
 30
0.0
 10
-8.35
 20
-5.7888
 30
0.0
 10
-8.35
 20
-5.7888
 30
0.0
 10
-8.35
 20
-5.7888
 30
0.0
 10
-8.3397
 20
-5.9123
 30
0.0
 10
-8.3397
 20
-5.9123
 30
0.0
  0
SPLINE
  5
83
330
1F
100
AcDbEntity
  8
DEFAULT_1
 62
   250
100
AcDbSpline
210
0.0
220
0.0
230
1.0
 70
     8
 71
     3
 72
    24
 73
    20
 74
     0
 42
0.0000000001
 43
0.0000000001
 40
0.0
 40
0.0
 40
0.0
 40
0.0
 40
0.1666666666666667
 40
0.1666666666666667
 40
0.1666666666666667
 40
0.1666666666666667
 40
0.3333333333333333
 40
0.3333333333333333
 40
0.3333333333333333
 40
0.3333333333333333
 40
0.5
 40
0.5
 40
0.5
 40
0.5
 40
0.6666666666666666
 40
0.6666666666666666
 40
0.6666666666666666
 40
0.6666666666666666
 40
1.0
 40
1.0
 40
1.0
 40
1.0
 10
-18.4781
 20
-3.089
 30
0.0
 10
-18.4781
 20
-3.089
 30
0.0
 10
-18.4781
 20
-3.6418
 30
0.0
 10
-18.4781
 20
-3.6418
 30
0.0
 10
-18.4781
 20
-3.6418
 30
0.0
 10
-18.4781
 20
-3.6418
 30
0.0
 10
-18.2202
 20
-3.6418
 30
0.0
 10
-18.2202
 20
-3.6418
 30
0.0
 10
-18.2202
 20
-3.6418
 30
0.0
 10
-18.2202
 20
-3.6418
 30
0.0
 10
-11.5282
 20
-3.6418
 30
0.0
 10
-11.5282
 20
-3.6418
 30
0.0
 10
-11.5282
 20
-3.6418
 30
0.0
 10
-11.5282
 20
-3.6418
 30
0.0
 10
-11.2703
 20
-3.6418
 30
0.0
 10
-11.2703
 20
-3.6418
 30
0.0
 10
-11.2703
 20
-3.6418
 30
0.0
 10
-11.2703
 20
-3.6418
 30
0.0
 10
-11.2564
 20
-3.0562
 30
0.0
 10
-11.2564
 20
-3.0562
 30
0.0
  0
SPLINE
  5
84
330
1F
100
AcDbEntity
  8
DEFAULT_1
 62
   250
100
AcDbSpline
210
0.0
220
0.0
230
1.0
 70
     8
 71
     3
 72
    44
 73
    40
 74
     0
 42
0.0000000001
 43
0.0000000001
 40
0.0
 40
0.0
 40
0.0
 40
0.0
 40
0.0909090909090909
 40
0.0909090909090909
 40
0.0909090909090909
 40
0.0909090909090909
 40
0.1818181818181818
 40
0.1818181818181818
 40
0.1818181818181818
 40
0.1818181818181818
 40
0.2727272727272727
 40
0.2727272727272727
 40
0.2727272727272727
 40
0.2727272727272727
 40
0.3636363636363636
 40
0.3636363636363636
 40
0.3636363636363636
 40
0.3636363636363636
 40
0.4545454545454545
 40
0.4545454545454545
 40
0.4545454545454545
 40
0.4545454545454545
 40
0.5454545454545454
 40
0.5454545454545454
 40
0.5454545454545454
 40
0.5454545454545454
 40
0.6363636363636364
 40
0.6363636363636364
 40
0.6363636363636364
 40
0.6363636363636364
 40
0.7272727272727273
 40
0.7272727272727273
 40
0.7272727272727273
 40
0.7272727272727273
 40
0.8181818181818182
 40
0.8181818181818182
 40
0.8181818181818182
 40
0.8181818181818182
 40
1.0
 40
1.0
 40
1.0
 40
1.0
 10
-18.7466
 20
-23.1318
 30
0.0
 10
-18.7466
 20
-23.1318
 30
0.0
 10
-18.5924
 20
-23.1687
 30
0.0
 10
-18.5924
 20
-23.1687
 30
0.0
 10
-18.5924
 20
-23.1687
 30
0.0
 10
-18.5924
 20
-23.1687
 30
0.0
 10
-18.4814
 20
-23.2854
 30
0.0
 10
-18.4814
 20
-23.2854
 30
0.0
 10
-18.4814
 20
-23.2854
 30
0.0
 10
-18.4814
 20
-23.2854
 30
0.0
 10
-18.4244
 20
-23.4431
 30
0.0
 10
-18.4244
 20
-23.4431
 30
0.0
 10
-18.4244
 20
-23.4431
 30
0.0
 10
-18.2547
 20
-26.1377
 30
0.0
 10
-16.0077
 20
-28.2367
 30
0.0
 10
-13.2928
 20
-28.2367
 30
0.0
 10
-13.2928
 20
-28.2367
 30
0.0
 10
-10.5779
 20
-28.2367
 30
0.0
 10
-8.3308
 20
-26.1377
 30
0.0
 10
-8.1612
 20
-23.4431
 30
0.0
 10
-8.1612
 20
-23.4431
 30
0.0
 10
-8.1612
 20
-23.4431
 30
0.0
 10
-8.131
 20
-23.3126
 30
0.0
 10
-8.131
 20
-23.3126
 30
0.0
 10
-8.131
 20
-23.3126
 30
0.0
 10
-8.131
 20
-23.3126
 30
0.0
 10
-8.0746
 20
-23.233
 30
0.0
 10
-8.0746
 20
-23.233
 30
0.0
 10
-8.0746
 20
-23.233
 30
0.0
 10
-8.0746
 20
-23.233
 30
0.0
 10
-7.9948
 20
-23.1801
 30
0.0
 10
-7.9948
 20
-23.1801
 30
0.0
 10
-7.9948
 20
-23.1801
 30
0.0
 10
-7.9948
 20
-23.1801
 30
0.0
 10
-7.9184
 20
-23.1437
 30
0.0
 10
-7.9184
 20
-23.1437
 30
0.0
 10
-7.9184
 20
-23.1437
 30
0.0
 10
-7.9184
 20
-23.1437
 30
0.0
 10
-7.8419
 20
-23.1304
 30
0.0
 10
-7.8419
 20
-23.1304
 30
0.0
  0
SPLINE
  5
85
330
1F
100
AcDbEntity
  8
DEFAULT_1
 62
   250
100
AcDbSpline
210
0.0
220
0.0
230
1.0
 70
     8
 71
     3
 72
     8
 73
     4
 74
     0
 42
0.0000000001
 43
0.0000000001
 40
0.0
 40
0.0
 40
0.0
 40
0.0
 40
1.0
 40
1.0
 40
1.0
 40
1.0
 10
-18.5202
 20
-20.4819
 30
0.0
 10
-18.7095
 20
-20.4819
 30
0.0
 10
-18.863
 20
-20.6344
 30
0.0
 10
-18.863
 20
-20.8227
 30
0.0
  0
SPLINE
  5
86
330
1F
100
AcDbEntity
  8
DEFAULT_1
 62
   250
100
AcDbSpline
210
0.0
220
0.0
230
1.0
 70
     8
 71
     3
 72
     8
 73
     4
 74
     0
 42
0.0000000001
 43
0.0000000001
 40
0.0
 40
0.0
 40
0.0
 40
0.0
 40
1.0
 40
1.0
 40
1.0
 40
1.0
 10
-7.7227
 20
-20.8227
 30
0.0
 10
-7.7227
 20
-20.6344
 30
0.0
 10
-7.8761
 20
-20.4819
 30
0.0
 10
-8.0653
 20
-20.4819
 30
0.0
  0
SPLINE
  5
87
330
1F
100
AcDbEntity
  8
DEFAULT_1
 62
   250
100
AcDbSpline
210
0.0
220
0.0
230
1.0
 70
     8
 71
     3
 72
   144
 73
   140
 74
     0
 42
0.0000000001
 43
0.0000000001
 40
0.0
 40
0.0
 40
0.0
 40
0.0
 40
0.0277777777777778
 40
0.0277777777777778
 40
0.0277777777777778
 40
0.0277777777777778
 40
0.0555555555555556
 40
0.0555555555555556
 40
0.0555555555555556
 40
0.0555555555555556
 40
0.0833333333333333
 40
0.0833333333333333
 40
0.0833333333333333
 40
0.0833333333333333
 40
0.1111111111111111
 40
0.1111111111111111
 40
0.1111111111111111
 40
0.1111111111111111
 40
0.1388888888888889
 40
0.1388888888888889
 40
0.1388888888888889
 40
0.1388888888888889
 40
0.1666666666666667
 40
0.1666666666666667
 40
0.1666666666666667
 40
0.1666666666666667
 40
0.1944444444444444
 40
0.1944444444444444
 40
0.1944444444444444
 40
0.1944444444444444
 40
0.2222222222222222
 40
0.2222222222222222
 40
0.2222222222222222
 40
0.2222222222222222
 40
0.25
 40
0.25
 40
0.25
 40
0.25
 40
0.2777777777777778
 40
0.2777777777777778
 40
0.2777777777777778
 40
0.2777777777777778
 40
0.3055555555555556
 40
0.3055555555555556
 40
0.3055555555555556
 40
0.3055555555555556
 40
0.3333333333333333
 40
0.3333333333333333
 40
0.3333333333333333
 40
0.3333333333333333
 40
0.3611111111111111
 40
0.3611111111111111
 40
0.3611111111111111
 40
0.3611111111111111
 40
0.3888888888888889
 40
0.3888888888888889
 40
0.3888888888888889
 40
0.3888888888888889
 40
0.4166666666666667
 40
0.4166666666666667
 40
0.4166666666666667
 40
0.4166666666666667
 40
0.4444444444444444
 40
0.4444444444444444
 40
0.4444444444444444
 40
0.4444444444444444
 40
0.4722222222222222
 40
0.4722222222222222
 40
0.4722222222222222
 40
0.4722222222222222
 40
0.5
 40
0.5
 40
0.5
 40
0.5
 40
0.5277777777777778
 40
0.5277777777777778
 40
0.5277777777777778
 40
0.5277777777777778
 40
0.5555555555555556
 40
0.5555555555555556
 40
0.5555555555555556
 40
0.5555555555555556
 40
0.5833333333333334
 40
0.5833333333333334
 40
0.5833333333333334
 40
0.5833333333333334
 40
0.6111111111111112
 40
0.6111111111111112
 40
0.6111111111111112
 40
0.6111111111111112
 40
0.6388888888888888
 40
0.6388888888888888
 40
0.6388888888888888
 40
0.6388888888888888
 40
0.6666666666666666
 40
0.6666666666666666
 40
0.6666666666666666
 40
0.6666666666666666
 40
0.6944444444444444
 40
0.6944444444444444
 40
0.6944444444444444
 40
0.6944444444444444
 40
0.7222222222222222
 40
0.7222222222222222
 40
0.7222222222222222
 40
0.7222222222222222
 40
0.75
 40
0.75
 40
0.75
 40
0.75
 40
0.7777777777777778
 40
0.7777777777777778
 40
0.7777777777777778
 40
0.7777777777777778
 40
0.8055555555555556
 40
0.8055555555555556
 40
0.8055555555555556
 40
0.8055555555555556
 40
0.8333333333333334
 40
0.8333333333333334
 40
0.8333333333333334
 40
0.8333333333333334
 40
0.8611111111111112
 40
0.8611111111111112
 40
0.8611111111111112
 40
0.8611111111111112
 40
0.8888888888888888
 40
0.8888888888888888
 40
0.8888888888888888
 40
0.8888888888888888
 40
0.9166666666666666
 40
0.9166666666666666
 40
0.9166666666666666
 40
0.9166666666666666
 40
0.9444444444444444
 40
0.9444444444444444
 40
0.9444444444444444
 40
0.9444444444444444
 40
1.0
 40
1.0
 40
1.0
 40
1.0
 10
-18.7815
 20
-23.1353
 30
0.0
 10
-18.7815
 20
-23.1353
 30
0.0
 10
-18.7724
 20
-21.4086
 30
0.0
 10
-18.7724
 20
-21.4086
 30
0.0
 10
-18.7724
 20
-21.4086
 30
0.0
 10
-18.7724
 20
-21.4086
 30
0.0
 10
-17.4638
 20
-21.4086
 30
0.0
 10
-17.4638
 20
-21.4086
 30
0.0
 10
-17.4638
 20
-21.4086
 30
0.0
 10
-17.4638
 20
-21.4086
 30
0.0
 10
-17.4664
 20
-22.7827
 30
0.0
 10
-17.4664
 20
-22.7827
 30
0.0
 10
-17.4664
 20
-22.7827
 30
0.0
 10
-17.4664
 20
-22.7827
 30
0.0
 10
-17.4586
 20
-22.8709
 30
0.0
 10
-17.4586
 20
-22.8709
 30
0.0
 10
-17.4586
 20
-22.8709
 30
0.0
 10
-17.4586
 20
-22.8709
 30
0.0
 10
-17.4358
 20
-22.9532
 30
0.0
 10
-17.4358
 20
-22.9532
 30
0.0
 10
-17.4358
 20
-22.9532
 30
0.0
 10
-17.4358
 20
-22.9532
 30
0.0
 10
-17.3991
 20
-23.0239
 30
0.0
 10
-17.3991
 20
-23.0239
 30
0.0
 10
-17.3991
 20
-23.0239
 30
0.0
 10
-17.3991
 20
-23.0239
 30
0.0
 10
-17.3507
 20
-23.078
 30
0.0
 10
-17.3507
 20
-23.078
 30
0.0
 10
-17.3507
 20
-23.078
 30
0.0
 10
-17.3507
 20
-23.078
 30
0.0
 10
-17.2935
 20
-23.1121
 30
0.0
 10
-17.2935
 20
-23.1121
 30
0.0
 10
-17.2935
 20
-23.1121
 30
0.0
 10
-17.2935
 20
-23.1121
 30
0.0
 10
-17.2314
 20
-23.1236
 30
0.0
 10
-17.2314
 20
-23.1236
 30
0.0
 10
-17.2314
 20
-23.1236
 30
0.0
 10
-17.2314
 20
-23.1236
 30
0.0
 10
-17.1251
 20
-23.0888
 30
0.0
 10
-17.1251
 20
-23.0888
 30
0.0
 10
-17.1251
 20
-23.0888
 30
0.0
 10
-17.1251
 20
-23.0888
 30
0.0
 10
-17.0364
 20
-23.0003
 30
0.0
 10
-17.0364
 20
-23.0003
 30
0.0
 10
-17.0364
 20
-23.0003
 30
0.0
 10
-17.0364
 20
-23.0003
 30
0.0
 10
-16.9969
 20
-22.9119
 30
0.0
 10
-16.9969
 20
-22.9119
 30
0.0
 10
-16.9969
 20
-22.9119
 30
0.0
 10
-16.9969
 20
-22.9119
 30
0.0
 10
-16.9673
 20
-22.7844
 30
0.0
 10
-16.9673
 20
-22.7844
 30
0.0
 10
-16.9673
 20
-22.7844
 30
0.0
 10
-16.9673
 20
-22.7844
 30
0.0
 10
-16.9773
 20
-21.3998
 30
0.0
 10
-16.9773
 20
-21.3998
 30
0.0
 10
-16.9773
 20
-21.3998
 30
0.0
 10
-16.9773
 20
-21.3998
 30
0.0
 10
-13.6264
 20
-21.3998
 30
0.0
 10
-13.6264
 20
-21.3998
 30
0.0
 10
-13.6264
 20
-21.3998
 30
0.0
 10
-13.6264
 20
-21.3998
 30
0.0
 10
-13.6166
 20
-22.8628
 30
0.0
 10
-13.6166
 20
-22.8628
 30
0.0
 10
-13.6166
 20
-22.8628
 30
0.0
 10
-13.6166
 20
-22.8628
 30
0.0
 10
-13.5575
 20
-23.0102
 30
0.0
 10
-13.5575
 20
-23.0102
 30
0.0
 10
-13.5575
 20
-23.0102
 30
0.0
 10
-13.5575
 20
-23.0102
 30
0.0
 10
-13.4492
 20
-23.0691
 30
0.0
 10
-13.4492
 20
-23.0691
 30
0.0
 10
-13.4492
 20
-23.0691
 30
0.0
 10
-13.4492
 20
-23.0691
 30
0.0
 10
-13.321
 20
-23.0985
 30
0.0
 10
-13.321
 20
-23.0985
 30
0.0
 10
-13.321
 20
-23.0985
 30
0.0
 10
-13.321
 20
-23.0985
 30
0.0
 10
-13.1338
 20
-23.0985
 30
0.0
 10
-13.1338
 20
-23.0985
 30
0.0
 10
-13.1338
 20
-23.0985
 30
0.0
 10
-13.1338
 20
-23.0985
 30
0.0
 10
-13.0647
 20
-23.02
 30
0.0
 10
-13.0647
 20
-23.02
 30
0.0
 10
-13.0647
 20
-23.02
 30
0.0
 10
-13.0647
 20
-23.02
 30
0.0
 10
-12.986
 20
-22.9218
 30
0.0
 10
-12.986
 20
-22.9218
 30
0.0
 10
-12.986
 20
-22.9218
 30
0.0
 10
-12.986
 20
-22.9218
 30
0.0
 10
-12.9367
 20
-22.8138
 30
0.0
 10
-12.9367
 20
-22.8138
 30
0.0
 10
-12.9367
 20
-22.8138
 30
0.0
 10
-12.9367
 20
-22.8138
 30
0.0
 10
-12.9267
 20
-21.4095
 30
0.0
 10
-12.9267
 20
-21.4095
 30
0.0
 10
-12.9267
 20
-21.4095
 30
0.0
 10
-12.9267
 20
-21.4095
 30
0.0
 10
-9.6056
 20
-21.4193
 30
0.0
 10
-9.6056
 20
-21.4193
 30
0.0
 10
-9.6056
 20
-21.4193
 30
0.0
 10
-9.6056
 20
-21.4193
 30
0.0
 10
-9.5958
 20
-22.853
 30
0.0
 10
-9.5958
 20
-22.853
 30
0.0
 10
-9.5958
 20
-22.853
 30
0.0
 10
-9.5958
 20
-22.853
 30
0.0
 10
-9.5662
 20
-22.9905
 30
0.0
 10
-9.5662
 20
-22.9905
 30
0.0
 10
-9.5662
 20
-22.9905
 30
0.0
 10
-9.5662
 20
-22.9905
 30
0.0
 10
-9.379
 20
-23.128
 30
0.0
 10
-9.379
 20
-23.128
 30
0.0
 10
-9.379
 20
-23.128
 30
0.0
 10
-9.379
 20
-23.128
 30
0.0
 10
-9.2804
 20
-23.1083
 30
0.0
 10
-9.2804
 20
-23.1083
 30
0.0
 10
-9.2804
 20
-23.1083
 30
0.0
 10
-9.2804
 20
-23.1083
 30
0.0
 10
-9.1326
 20
-22.9611
 30
0.0
 10
-9.1326
 20
-22.9611
 30
0.0
 10
-9.1326
 20
-22.9611
 30
0.0
 10
-9.1326
 20
-22.9611
 30
0.0
 10
-9.1228
 20
-22.8727
 30
0.0
 10
-9.1228
 20
-22.8727
 30
0.0
 10
-9.1228
 20
-22.8727
 30
0.0
 10
-9.1228
 20
-22.8727
 30
0.0
 10
-9.103
 20
-22.6566
 30
0.0
 10
-9.103
 20
-22.6566
 30
0.0
 10
-9.103
 20
-22.6566
 30
0.0
 10
-9.103
 20
-22.6566
 30
0.0
 10
-9.1128
 20
-21.3998
 30
0.0
 10
-9.1128
 20
-21.3998
 30
0.0
 10
-9.1128
 20
-21.3998
 30
0.0
 10
-9.1128
 20
-21.3998
 30
0.0
 10
-7.812
 20
-21.4095
 30
0.0
 10
-7.812
 20
-21.4095
 30
0.0
 10
-7.812
 20
-21.4095
 30
0.0
 10
-7.812
 20
-21.4095
 30
0.0
 10
-7.8022
 20
-23.1378
 30
0.0
 10
-7.8022
 20
-23.1378
 30
0.0
  0
SPLINE
  5
88
330
1F
100
AcDbEntity
  8
DEFAULT_1
 62
   250
100
AcDbSpline
210
0.0
220
0.0
230
1.0
 70
     8
 71
     3
 72
    84
 73
    80
 74
     0
 42
0.0000000001
 43
0.0000000001
 40
0.0
 40
0.0
 40
0.0
 40
0.0
 40
0.0476190476190476
 40
0.0476190476190476
 40
0.0476190476190476
 40
0.0476190476190476
 40
0.0952380952380952
 40
0.0952380952380952
 40
0.0952380952380952
 40
0.0952380952380952
 40
0.1428571428571428
 40
0.1428571428571428
 40
0.1428571428571428
 40
0.1428571428571428
 40
0.1904761904761905
 40
0.1904761904761905
 40
0.1904761904761905
 40
0.1904761904761905
 40
0.2380952380952381
 40
0.2380952380952381
 40
0.2380952380952381
 40
0.2380952380952381
 40
0.2857142857142857
 40
0.2857142857142857
 40
0.2857142857142857
 40
0.2857142857142857
 40
0.3333333333333333
 40
0.3333333333333333
 40
0.3333333333333333
 40
0.3333333333333333
 40
0.3809523809523809
 40
0.3809523809523809
 40
0.3809523809523809
 40
0.3809523809523809
 40
0.4285714285714285
 40
0.4285714285714285
 40
0.4285714285714285
 40
0.4285714285714285
 40
0.4761904761904762
 40
0.4761904761904762
 40
0.4761904761904762
 40
0.4761904761904762
 40
0.5238095238095238
 40
0.5238095238095238
 40
0.5238095238095238
 40
0.5238095238095238
 40
0.5714285714285714
 40
0.5714285714285714
 40
0.5714285714285714
 40
0.5714285714285714
 40
0.6190476190476191
 40
0.6190476190476191
 40
0.6190476190476191
 40
0.6190476190476191
 40
0.6666666666666666
 40
0.6666666666666666
 40
0.6666666666666666
 40
0.6666666666666666
 40
0.7142857142857143
 40
0.7142857142857143
 40
0.7142857142857143
 40
0.7142857142857143
 40
0.7619047619047619
 40
0.7619047619047619
 40
0.7619047619047619
 40
0.7619047619047619
 40
0.8095238095238095
 40
0.8095238095238095
 40
0.8095238095238095
 40
0.8095238095238095
 40
0.8571428571428571
 40
0.8571428571428571
 40
0.8571428571428571
 40
0.8571428571428571
 40
0.9047619047619048
 40
0.9047619047619048
 40
0.9047619047619048
 40
0.9047619047619048
 40
1.0
 40
1.0
 40
1.0
 40
1.0
 10
-8.3397
 20
-5.8927
 30
0.0
 10
-8.3397
 20
-5.8927
 30
0.0
 10
-8.3621
 20
-5.9219
 30
0.0
 10
-8.3621
 20
-5.9219
 30
0.0
 10
-8.3621
 20
-5.9219
 30
0.0
 10
-8.3621
 20
-5.9219
 30
0.0
 10
-8.4497
 20
-6.037
 30
0.0
 10
-8.4497
 20
-6.037
 30
0.0
 10
-8.4497
 20
-6.037
 30
0.0
 10
-8.4497
 20
-6.037
 30
0.0
 10
-8.6185
 20
-6.2634
 30
0.0
 10
-8.6185
 20
-6.2634
 30
0.0
 10
-8.6185
 20
-6.2634
 30
0.0
 10
-8.6185
 20
-6.2634
 30
0.0
 10
-8.8561
 20
-6.5946
 30
0.0
 10
-8.8561
 20
-6.5946
 30
0.0
 10
-8.8561
 20
-6.5946
 30
0.0
 10
-8.8561
 20
-6.5946
 30
0.0
 10
-9.1333
 20
-7.007
 30
0.0
 10
-9.1333
 20
-7.007
 30
0.0
 10
-9.1333
 20
-7.007
 30
0.0
 10
-9.1333
 20
-7.007
 30
0.0
 10
-9.4194
 20
-7.4768
 30
0.0
 10
-9.4194
 20
-7.4768
 30
0.0
 10
-9.4194
 20
-7.4768
 30
0.0
 10
-9.4194
 20
-7.4768
 30
0.0
 10
-9.6841
 20
-7.9849
 30
0.0
 10
-9.6841
 20
-7.9849
 30
0.0
 10
-9.6841
 20
-7.9849
 30
0.0
 10
-9.6841
 20
-7.9849
 30
0.0
 10
-9.9002
 20
-8.5156
 30
0.0
 10
-9.9002
 20
-8.5156
 30
0.0
 10
-9.9002
 20
-8.5156
 30
0.0
 10
-9.9002
 20
-8.5156
 30
0.0
 10
-10.0469
 20
-9.0722
 30
0.0
 10
-10.0469
 20
-9.0722
 30
0.0
 10
-10.0469
 20
-9.0722
 30
0.0
 10
-10.0469
 20
-9.0722
 30
0.0
 10
-10.1011
 20
-9.6575
 30
0.0
 10
-10.1011
 20
-9.6575
 30
0.0
 10
-10.1011
 20
-9.6575
 30
0.0
 10
-10.1011
 20
-9.6575
 30
0.0
 10
-10.0474
 20
-10.2438
 30
0.0
 10
-10.0474
 20
-10.2438
 30
0.0
 10
-10.0474
 20
-10.2438
 30
0.0
 10
-10.0474
 20
-10.2438
 30
0.0
 10
-9.9004
 20
-10.8023
 30
0.0
 10
-9.9004
 20
-10.8023
 30
0.0
 10
-9.9004
 20
-10.8023
 30
0.0
 10
-9.9004
 20
-10.8023
 30
0.0
 10
-9.6838
 20
-11.3343
 30
0.0
 10
-9.6838
 20
-11.3343
 30
0.0
 10
-9.6838
 20
-11.3343
 30
0.0
 10
-9.6838
 20
-11.3343
 30
0.0
 10
-9.4183
 20
-11.8434
 30
0.0
 10
-9.4183
 20
-11.8434
 30
0.0
 10
-9.4183
 20
-11.8434
 30
0.0
 10
-9.4183
 20
-11.8434
 30
0.0
 10
-9.1322
 20
-12.3134
 30
0.0
 10
-9.1322
 20
-12.3134
 30
0.0
 10
-9.1322
 20
-12.3134
 30
0.0
 10
-9.1322
 20
-12.3134
 30
0.0
 10
-8.8556
 20
-12.7246
 30
0.0
 10
-8.8556
 20
-12.7246
 30
0.0
 10
-8.8556
 20
-12.7246
 30
0.0
 10
-8.8556
 20
-12.7246
 30
0.0
 10
-8.6188
 20
-13.0547
 30
0.0
 10
-8.6188
 20
-13.0547
 30
0.0
 10
-8.6188
 20
-13.0547
 30
0.0
 10
-8.6188
 20
-13.0547
 30
0.0
 10
-8.4504
 20
-13.2808
 30
0.0
 10
-8.4504
 20
-13.2808
 30
0.0
 10
-8.4504
 20
-13.2808
 30
0.0
 10
-8.4504
 20
-13.2808
 30
0.0
 10
-8.3623
 20
-13.3963
 30
0.0
 10
-8.3623
 20
-13.3963
 30
0.0
 10
-8.3623
 20
-13.3963
 30
0.0
 10
-8.3623
 20
-13.3963
 30
0.0
 10
-8.3397
 20
-13.4259
 30
0.0
 10
-8.3397
 20
-13.4259
 30
0.0
  0
SPLINE
  5
89
330
1F
100
AcDbEntity
  8
DEFAULT_1
 62
   250
100
AcDbSpline
210
0.0
220
0.0
230
1.0
 70
    27
 71
     3
 72
    12
 73
     8
 74
     0
 42
0.0000000001
 43
0.0000000001
 40
0.0
 40
0.0
 40
0.0
 40
0.0
 40
0.3333333333333333
 40
0.3333333333333333
 40
0.3333333333333333
 40
0.3333333333333333
 40
1.0
 40
1.0
 40
1.0
 40
1.0
 10
-18.0061
 20
-5.4419
 30
0.0
 10
-18.0061
 20
-5.4419
 30
0.0
 10
-18.0061
 20
-3.6941
 30
0.0
 10
-18.0061
 20
-3.6941
 30
0.0
 10
-18.0061
 20
-3.6941
 30
0.0
 10
-18.0061
 20
-3.6941
 30
0.0
 10
-18.0061
 20
-5.4419
 30
0.0
 10
-18.0061
 20
-5.4419
 30
0.0
  0
SPLINE
  5
8A
330
1F
100
AcDbEntity
  8
DEFAULT_1
 62
   250
100
AcDbSpline
210
0.0
220
0.0
230
1.0
 70
    27
 71
     3
 72
    12
 73
     8
 74
     0
 42
0.0000000001
 43
0.0000000001
 40
0.0
 40
0.0
 40
0.0
 40
0.0
 40
0.3333333333333333
 40
0.3333333333333333
 40
0.3333333333333333
 40
0.3333333333333333
 40
1.0
 40
1.0
 40
1.0
 40
1.0
 10
-11.5282
 20
-3.1287
 30
0.0
 10
-11.5282
 20
-3.1287
 30
0.0
 10
-11.5282
 20
-3.6418
 30
0.0
 10
-11.5282
 20
-3.6418
 30
0.0
 10
-11.5282
 20
-3.6418
 30
0.0
 10
-11.5282
 20
-3.6418
 30
0.0
 10
-11.5282
 20
-3.1287
 30
0.0
 10
-11.5282
 20
-3.1287
 30
0.0
  0
SPLINE
  5
8B
330
1F
100
AcDbEntity
  8
DEFAULT_1
 62
   250
100
AcDbSpline
210
0.0
220
0.0
230
1.0
 70
    11
 71
     3
 72
    68
 73
    64
 74
     0
 42
0.0000000001
 43
0.0000000001
 40
0.0
 40
0.0
 40
0.0
 40
0.0
 40
0.0588235294117647
 40
0.0588235294117647
 40
0.0588235294117647
 40
0.0588235294117647
 40
0.1176470588235294
 40
0.1176470588235294
 40
0.1176470588235294
 40
0.1176470588235294
 40
0.1764705882352941
 40
0.1764705882352941
 40
0.1764705882352941
 40
0.1764705882352941
 40
0.2352941176470588
 40
0.2352941176470588
 40
0.2352941176470588
 40
0.2352941176470588
 40
0.2941176470588235
 40
0.2941176470588235
 40
0.2941176470588235
 40
0.2941176470588235
 40
0.3529411764705883
 40
0.3529411764705883
 40
0.3529411764705883
 40
0.3529411764705883
 40
0.4117647058823529
 40
0.4117647058823529
 40
0.4117647058823529
 40
0.4117647058823529
 40
0.4705882352941176
 40
0.4705882352941176
 40
0.4705882352941176
 40
0.4705882352941176
 40
0.5294117647058824
 40
0.5294117647058824
 40
0.5294117647058824
 40
0.5294117647058824
 40
0.5882352941176471
 40
0.5882352941176471
 40
0.5882352941176471
 40
0.5882352941176471
 40
0.6470588235294118
 40
0.6470588235294118
 40
0.6470588235294118
 40
0.6470588235294118
 40
0.7058823529411765
 40
0.7058823529411765
 40
0.7058823529411765
 40
0.7058823529411765
 40
0.7647058823529411
 40
0.7647058823529411
 40
0.7647058823529411
 40
0.7647058823529411
 40
0.8235294117647058
 40
0.8235294117647058
 40
0.8235294117647058
 40
0.8235294117647058
 40
0.8823529411764706
 40
0.8823529411764706
 40
0.8823529411764706
 40
0.8823529411764706
 40
1.0
 40
1.0
 40
1.0
 40
1.0
 10
-7.1227
 20
-5.5859
 30
0.0
 10
-7.1227
 20
-5.5859
 30
0.0
 10
-6.8657
 20
-5.5859
 30
0.0
 10
-6.8657
 20
-5.5859
 30
0.0
 10
-6.8657
 20
-5.5859
 30
0.0
 10
-6.8657
 20
-5.5859
 30
0.0
 10
-7.1227
 20
-5.5859
 30
0.0
 10
-7.1227
 20
-5.5859
 30
0.0
 10
-7.1227
 20
-5.5859
 30
0.0
 10
-7.1227
 20
-5.5859
 30
0.0
 10
-7.1227
 20
-5.8927
 30
0.0
 10
-7.1227
 20
-5.8927
 30
0.0
 10
-7.1227
 20
-5.8927
 30
0.0
 10
-7.1227
 20
-5.8927
 30
0.0
 10
-8.3397
 20
-5.8927
 30
0.0
 10
-8.3397
 20
-5.8927
 30
0.0
 10
-8.3397
 20
-5.8927
 30
0.0
 10
-8.3397
 20
-5.8927
 30
0.0
 10
-7.1227
 20
-5.8927
 30
0.0
 10
-7.1227
 20
-5.8927
 30
0.0
 10
-7.1227
 20
-5.8927
 30
0.0
 10
-7.1227
 20
-5.8927
 30
0.0
 10
-7.1227
 20
-13.4259
 30
0.0
 10
-7.1227
 20
-13.4259
 30
0.0
 10
-7.1227
 20
-13.4259
 30
0.0
 10
-7.1227
 20
-13.4259
 30
0.0
 10
-8.3397
 20
-13.4259
 30
0.0
 10
-8.3397
 20
-13.4259
 30
0.0
 10
-8.3397
 20
-13.4259
 30
0.0
 10
-8.3397
 20
-13.4259
 30
0.0
 10
-8.3397
 20
-20.4302
 30
0.0
 10
-8.3397
 20
-20.4302
 30
0.0
 10
-8.3397
 20
-20.4302
 30
0.0
 10
-8.3397
 20
-20.4302
 30
0.0
 10
-8.3397
 20
-13.4259
 30
0.0
 10
-8.3397
 20
-13.4259
 30
0.0
 10
-8.3397
 20
-13.4259
 30
0.0
 10
-8.3397
 20
-13.4259
 30
0.0
 10
-7.1227
 20
-13.4259
 30
0.0
 10
-7.1227
 20
-13.4259
 30
0.0
 10
-7.1227
 20
-13.4259
 30
0.0
 10
-7.1227
 20
-13.4259
 30
0.0
 10
-7.1227
 20
-13.7326
 30
0.0
 10
-7.1227
 20
-13.7326
 30
0.0
 10
-7.1227
 20
-13.7326
 30
0.0
 10
-7.1227
 20
-13.7326
 30
0.0
 10
-6.8657
 20
-13.7326
 30
0.0
 10
-6.8657
 20
-13.7326
 30
0.0
 10
-6.8657
 20
-13.7326
 30
0.0
 10
-6.8657
 20
-13.7326
 30
0.0
 10
-7.1227
 20
-13.7326
 30
0.0
 10
-7.1227
 20
-13.7326
 30
0.0
 10
-7.1227
 20
-13.7326
 30
0.0
 10
-7.1227
 20
-13.7326
 30
0.0
 10
-7.1227
 20
-13.4259
 30
0.0
 10
-7.1227
 20
-13.4259
 30
0.0
 10
-7.1227
 20
-13.4259
 30
0.0
 10
-7.1227
 20
-13.4259
 30
0.0
 10
-7.1227
 20
-5.8927
 30
0.0
 10
-7.1227
 20
-5.8927
 30
0.0
 10
-7.1227
 20
-5.8927
 30
0.0
 10
-7.1227
 20
-5.8927
 30
0.0
 10
-7.1227
 20
-5.5859
 30
0.0
 10
-7.1227
 20
-5.5859
 30
0.0
  0
SPLINE
  5
8C
330
1F
100
AcDbEntity
  8
DEFAULT_1
 62
   250
100
AcDbSpline
210
0.0
220
0.0
230
1.0
 70
    27
 71
     3
 72
    12
 73
     8
 74
     0
 42
0.0000000001
 43
0.0000000001
 40
0.0
 40
0.0
 40
0.0
 40
0.0
 40
0.3333333333333333
 40
0.3333333333333333
 40
0.3333333333333333
 40
0.3333333333333333
 40
1.0
 40
1.0
 40
1.0
 40
1.0
 10
-11.836
 20
-5.0962
 30
0.0
 10
-11.836
 20
-5.0962
 30
0.0
 10
-11.836
 20
-3.6941
 30
0.0
 10
-11.836
 20
-3.6941
 30
0.0
 10
-11.836
 20
-3.6941
 30
0.0
 10
-11.836
 20
-3.6941
 30
0.0
 10
-11.836
 20
-5.0962
 30
0.0
 10
-11.836
 20
-5.0962
 30
0.0
  0
SPLINE
  5
8D
330
1F
100
AcDbEntity
  8
DEFAULT_1
 62
   250
100
AcDbSpline
210
0.0
220
0.0
230
1.0
 70
    27
 71
     3
 72
    12
 73
     8
 74
     0
 42
0.0000000001
 43
0.0000000001
 40
0.0
 40
0.0
 40
0.0
 40
0.0
 40
0.3333333333333333
 40
0.3333333333333333
 40
0.3333333333333333
 40
0.3333333333333333
 40
1.0
 40
1.0
 40
1.0
 40
1.0
 10
-18.246
 20
-20.4761
 30
0.0
 10
-18.246
 20
-20.4761
 30
0.0
 10
-18.246
 20
-5.8244
 30
0.0
 10
-18.246
 20
-5.8244
 30
0.0
 10
-18.246
 20
-5.8244
 30
0.0
 10
-18.246
 20
-5.8244
 30
0.0
 10
-18.246
 20
-20.4761
 30
0.0
 10
-18.246
 20
-20.4761
 30
0.0
  0
SPLINE
  5
8E
330
1F
100
AcDbEntity
  8
DEFAULT_1
 62
   250
100
AcDbSpline
210
0.0
220
0.0
230
1.0
 70
    11
 71
     3
 72
    52
 73
    48
 74
     0
 42
0.0000000001
 43
0.0000000001
 40
0.0
 40
0.0
 40
0.0
 40
0.0
 40
0.0769230769230769
 40
0.0769230769230769
 40
0.0769230769230769
 40
0.0769230769230769
 40
0.1538461538461539
 40
0.1538461538461539
 40
0.1538461538461539
 40
0.1538461538461539
 40
0.2307692307692308
 40
0.2307692307692308
 40
0.2307692307692308
 40
0.2307692307692308
 40
0.3076923076923077
 40
0.3076923076923077
 40
0.3076923076923077
 40
0.3076923076923077
 40
0.3846153846153846
 40
0.3846153846153846
 40
0.3846153846153846
 40
0.3846153846153846
 40
0.4615384615384616
 40
0.4615384615384616
 40
0.4615384615384616
 40
0.4615384615384616
 40
0.5384615384615384
 40
0.5384615384615384
 40
0.5384615384615384
 40
0.5384615384615384
 40
0.6153846153846154
 40
0.6153846153846154
 40
0.6153846153846154
 40
0.6153846153846154
 40
0.6923076923076923
 40
0.6923076923076923
 40
0.6923076923076923
 40
0.6923076923076923
 40
0.7692307692307693
 40
0.7692307692307693
 40
0.7692307692307693
 40
0.7692307692307693
 40
0.8461538461538461
 40
0.8461538461538461
 40
0.8461538461538461
 40
0.8461538461538461
 40
1.0
 40
1.0
 40
1.0
 40
1.0
 10
-18.863
 20
-23.1236
 30
0.0
 10
-18.863
 20
-23.1236
 30
0.0
 10
-7.7227
 20
-23.1236
 30
0.0
 10
-7.7227
 20
-23.1236
 30
0.0
 10
-7.7227
 20
-23.1236
 30
0.0
 10
-7.7227
 20
-23.1236
 30
0.0
 10
-7.7227
 20
-20.9079
 30
0.0
 10
-7.7227
 20
-20.9079
 30
0.0
 10
-7.7227
 20
-20.9079
 30
0.0
 10
-7.7227
 20
-20.9079
 30
0.0
 10
-18.863
 20
-20.9079
 30
0.0
 10
-18.863
 20
-20.9079
 30
0.0
 10
-18.863
 20
-20.9079
 30
0.0
 10
-18.863
 20
-20.9079
 30
0.0
 10
-18.863
 20
-20.8227
 30
0.0
 10
-18.863
 20
-20.8227
 30
0.0
 10
-18.863
 20
-20.8227
 30
0.0
 10
-18.863
 20
-20.8227
 30
0.0
 10
-18.863
 20
-20.9079
 30
0.0
 10
-18.863
 20
-20.9079
 30
0.0
 10
-18.863
 20
-20.9079
 30
0.0
 10
-18.863
 20
-20.9079
 30
0.0
 10
-7.7227
 20
-20.9079
 30
0.0
 10
-7.7227
 20
-20.9079
 30
0.0
 10
-7.7227
 20
-20.9079
 30
0.0
 10
-7.7227
 20
-20.9079
 30
0.0
 10
-7.7227
 20
-20.8227
 30
0.0
 10
-7.7227
 20
-20.8227
 30
0.0
 10
-7.7227
 20
-20.8227
 30
0.0
 10
-7.7227
 20
-20.8227
 30
0.0
 10
-7.7227
 20
-20.9079
 30
0.0
 10
-7.7227
 20
-20.9079
 30
0.0
 10
-7.7227
 20
-20.9079
 30
0.0
 10
-7.7227
 20
-20.9079
 30
0.0
 10
-7.7227
 20
-23.1236
 30
0.0
 10
-7.7227
 20
-23.1236
 30
0.0
 10
-7.7227
 20
-23.1236
 30
0.0
 10
-7.7227
 20
-23.1236
 30
0.0
 10
-18.863
 20
-23.1236
 30
0.0
 10
-18.863
 20
-23.1236
 30
0.0
 10
-18.863
 20
-23.1236
 30
0.0
 10
-18.863
 20
-23.1236
 30
0.0
 10
-18.863
 20
-20.9079
 30
0.0
 10
-18.863
 20
-20.9079
 30
0.0
 10
-18.863
 20
-20.9079
 30
0.0
 10
-18.863
 20
-20.9079
 30
0.0
 10
-18.863
 20
-23.1236
 30
0.0
 10
-18.863
 20
-23.1236
 30
0.0
  0
SPLINE
  5
8F
330
1F
100
AcDbEntity
  8
DEFAULT_1
 62
   250
100
AcDbSpline
210
0.0
220
0.0
230
1.0
 70
    27
 71
     3
 72
    16
 73
    12
 74
     0
 42
0.0000000001
 43
0.0000000001
 40
0.0
 40
0.0
 40
0.0
 40
0.0
 40
0.25
 40
0.25
 40
0.25
 40
0.25
 40
0.5
 40
0.5
 40
0.5
 40
0.5
 40
1.0
 40
1.0
 40
1.0
 40
1.0
 10
-18.5202
 20
-20.4819
 30
0.0
 10
-18.5202
 20
-20.4819
 30
0.0
 10
-18.3837
 20
-20.4819
 30
0.0
 10
-18.3837
 20
-20.4819
 30
0.0
 10
-18.3837
 20
-20.4819
 30
0.0
 10
-18.3837
 20
-20.4819
 30
0.0
 10
-8.0653
 20
-20.4819
 30
0.0
 10
-8.0653
 20
-20.4819
 30
0.0
 10
-8.0653
 20
-20.4819
 30
0.0
 10
-8.0653
 20
-20.4819
 30
0.0
 10
-18.5202
 20
-20.4819
 30
0.0
 10
-18.5202
 20
-20.4819
 30
0.0
  0
SPLINE
  5
90
330
1F
100
AcDbEntity
  8
DEFAULT_1
 62
   250
100
AcDbSpline
210
0.0
220
0.0
230
1.0
 70
    27
 71
     3
 72
    12
 73
     8
 74
     0
 42
0.0000000001
 43
0.0000000001
 40
0.0
 40
0.0
 40
0.0
 40
0.0
 40
0.3333333333333333
 40
0.3333333333333333
 40
0.3333333333333333
 40
0.3333333333333333
 40
1.0
 40
1.0
 40
1.0
 40
1.0
 10
-18.2202
 20
-3.1287
 30
0.0
 10
-18.2202
 20
-3.1287
 30
0.0
 10
-18.2202
 20
-3.6418
 30
0.0
 10
-18.2202
 20
-3.6418
 30
0.0
 10
-18.2202
 20
-3.6418
 30
0.0
 10
-18.2202
 20
-3.6418
 30
0.0
 10
-18.2202
 20
-3.1287
 30
0.0
 10
-18.2202
 20
-3.1287
 30
0.0
  0
SPLINE
  5
91
330
1F
100
AcDbEntity
  8
DEFAULT_1
 62
   250
100
AcDbSpline
210
0.0
220
0.0
230
1.0
 70
    11
 71
     3
 72
   164
 73
   160
 74
     0
 42
0.0000000001
 43
0.0000000001
 40
0.0
 40
0.0
 40
0.0
 40
0.0
 40
0.024390243902439
 40
0.024390243902439
 40
0.024390243902439
 40
0.024390243902439
 40
0.0487804878048781
 40
0.0487804878048781
 40
0.0487804878048781
 40
0.0487804878048781
 40
0.0731707317073171
 40
0.0731707317073171
 40
0.0731707317073171
 40
0.0731707317073171
 40
0.0975609756097561
 40
0.0975609756097561
 40
0.0975609756097561
 40
0.0975609756097561
 40
0.1219512195121951
 40
0.1219512195121951
 40
0.1219512195121951
 40
0.1219512195121951
 40
0.1463414634146341
 40
0.1463414634146341
 40
0.1463414634146341
 40
0.1463414634146341
 40
0.1707317073170732
 40
0.1707317073170732
 40
0.1707317073170732
 40
0.1707317073170732
 40
0.1951219512195122
 40
0.1951219512195122
 40
0.1951219512195122
 40
0.1951219512195122
 40
0.2195121951219512
 40
0.2195121951219512
 40
0.2195121951219512
 40
0.2195121951219512
 40
0.2439024390243902
 40
0.2439024390243902
 40
0.2439024390243902
 40
0.2439024390243902
 40
0.2682926829268293
 40
0.2682926829268293
 40
0.2682926829268293
 40
0.2682926829268293
 40
0.2926829268292683
 40
0.2926829268292683
 40
0.2926829268292683
 40
0.2926829268292683
 40
0.3170731707317073
 40
0.3170731707317073
 40
0.3170731707317073
 40
0.3170731707317073
 40
0.3414634146341464
 40
0.3414634146341464
 40
0.3414634146341464
 40
0.3414634146341464
 40
0.3658536585365854
 40
0.3658536585365854
 40
0.3658536585365854
 40
0.3658536585365854
 40
0.3902439024390244
 40
0.3902439024390244
 40
0.3902439024390244
 40
0.3902439024390244
 40
0.4146341463414634
 40
0.4146341463414634
 40
0.4146341463414634
 40
0.4146341463414634
 40
0.4390243902439024
 40
0.4390243902439024
 40
0.4390243902439024
 40
0.4390243902439024
 40
0.4634146341463415
 40
0.4634146341463415
 40
0.4634146341463415
 40
0.4634146341463415
 40
0.4878048780487805
 40
0.4878048780487805
 40
0.4878048780487805
 40
0.4878048780487805
 40
0.5121951219512195
 40
0.5121951219512195
 40
0.5121951219512195
 40
0.5121951219512195
 40
0.5365853658536586
 40
0.5365853658536586
 40
0.5365853658536586
 40
0.5365853658536586
 40
0.5609756097560976
 40
0.5609756097560976
 40
0.5609756097560976
 40
0.5609756097560976
 40
0.5853658536585366
 40
0.5853658536585366
 40
0.5853658536585366
 40
0.5853658536585366
 40
0.6097560975609756
 40
0.6097560975609756
 40
0.6097560975609756
 40
0.6097560975609756
 40
0.6341463414634146
 40
0.6341463414634146
 40
0.6341463414634146
 40
0.6341463414634146
 40
0.6585365853658537
 40
0.6585365853658537
 40
0.6585365853658537
 40
0.6585365853658537
 40
0.6829268292682927
 40
0.6829268292682927
 40
0.6829268292682927
 40
0.6829268292682927
 40
0.7073170731707317
 40
0.7073170731707317
 40
0.7073170731707317
 40
0.7073170731707317
 40
0.7317073170731707
 40
0.7317073170731707
 40
0.7317073170731707
 40
0.7317073170731707
 40
0.7560975609756098
 40
0.7560975609756098
 40
0.7560975609756098
 40
0.7560975609756098
 40
0.7804878048780488
 40
0.7804878048780488
 40
0.7804878048780488
 40
0.7804878048780488
 40
0.8048780487804879
 40
0.8048780487804879
 40
0.8048780487804879
 40
0.8048780487804879
 40
0.8292682926829268
 40
0.8292682926829268
 40
0.8292682926829268
 40
0.8292682926829268
 40
0.8536585365853658
 40
0.8536585365853658
 40
0.8536585365853658
 40
0.8536585365853658
 40
0.8780487804878049
 40
0.8780487804878049
 40
0.8780487804878049
 40
0.8780487804878049
 40
0.9024390243902439
 40
0.9024390243902439
 40
0.9024390243902439
 40
0.9024390243902439
 40
0.926829268292683
 40
0.926829268292683
 40
0.926829268292683
 40
0.926829268292683
 40
0.9512195121951219
 40
0.9512195121951219
 40
0.9512195121951219
 40
0.9512195121951219
 40
1.0
 40
1.0
 40
1.0
 40
1.0
 10
-14.565
 20
15.9563
 30
0.0
 10
-14.565
 20
15.9563
 30
0.0
 10
-12.1222
 20
15.9563
 30
0.0
 10
-12.1222
 20
15.9563
 30
0.0
 10
-12.1222
 20
15.9563
 30
0.0
 10
-12.1222
 20
15.9563
 30
0.0
 10
-12.1344
 20
14.946
 30
0.0
 10
-12.1344
 20
14.946
 30
0.0
 10
-12.1344
 20
14.946
 30
0.0
 10
-12.1344
 20
14.946
 30
0.0
 10
-12.0655
 20
14.7958
 30
0.0
 10
-12.0655
 20
14.7958
 30
0.0
 10
-12.0655
 20
14.7958
 30
0.0
 10
-12.0655
 20
14.7958
 30
0.0
 10
-11.9365
 20
14.6851
 30
0.0
 10
-11.9365
 20
14.6851
 30
0.0
 10
-11.9365
 20
14.6851
 30
0.0
 10
-11.9365
 20
14.6851
 30
0.0
 10
-11.8417
 20
14.7009
 30
0.0
 10
-11.8417
 20
14.7009
 30
0.0
 10
-11.8417
 20
14.7009
 30
0.0
 10
-11.8417
 20
14.7009
 30
0.0
 10
-11.7642
 20
14.7641
 30
0.0
 10
-11.7642
 20
14.7641
 30
0.0
 10
-11.7642
 20
14.7641
 30
0.0
 10
-11.7642
 20
14.7641
 30
0.0
 10
-11.721
 20
14.8669
 30
0.0
 10
-11.721
 20
14.8669
 30
0.0
 10
-11.721
 20
14.8669
 30
0.0
 10
-11.721
 20
14.8669
 30
0.0
 10
-11.6781
 20
15.0094
 30
0.0
 10
-11.6781
 20
15.0094
 30
0.0
 10
-11.6781
 20
15.0094
 30
0.0
 10
-11.6781
 20
15.0094
 30
0.0
 10
-11.6781
 20
15.9503
 30
0.0
 10
-11.6781
 20
15.9503
 30
0.0
 10
-11.6781
 20
15.9503
 30
0.0
 10
-11.6781
 20
15.9503
 30
0.0
 10
-10.7224
 20
15.9582
 30
0.0
 10
-10.7224
 20
15.9582
 30
0.0
 10
-10.7224
 20
15.9582
 30
0.0
 10
-10.7224
 20
15.9582
 30
0.0
 10
-10.7396
 20
14.2343
 30
0.0
 10
-10.7396
 20
14.2343
 30
0.0
 10
-10.7396
 20
14.2343
 30
0.0
 10
-10.7396
 20
14.2343
 30
0.0
 10
-10.7826
 20
14.1315
 30
0.0
 10
-10.7826
 20
14.1315
 30
0.0
 10
-10.7826
 20
14.1315
 30
0.0
 10
-10.7826
 20
14.1315
 30
0.0
 10
-10.8773
 20
14.0524
 30
0.0
 10
-10.8773
 20
14.0524
 30
0.0
 10
-10.8773
 20
14.0524
 30
0.0
 10
-10.8773
 20
14.0524
 30
0.0
 10
-10.9547
 20
14.0128
 30
0.0
 10
-10.9547
 20
14.0128
 30
0.0
 10
-10.9547
 20
14.0128
 30
0.0
 10
-10.9547
 20
14.0128
 30
0.0
 10
-11.0668
 20
13.9811
 30
0.0
 10
-11.0668
 20
13.9811
 30
0.0
 10
-11.0668
 20
13.9811
 30
0.0
 10
-11.0668
 20
13.9811
 30
0.0
 10
-18.7019
 20
13.9754
 30
0.0
 10
-18.7019
 20
13.9754
 30
0.0
 10
-18.7019
 20
13.9754
 30
0.0
 10
-18.7019
 20
13.9754
 30
0.0
 10
-18.8589
 20
14.0304
 30
0.0
 10
-18.8589
 20
14.0304
 30
0.0
 10
-18.8589
 20
14.0304
 30
0.0
 10
-18.8589
 20
14.0304
 30
0.0
 10
-18.9651
 20
14.1139
 30
0.0
 10
-18.9651
 20
14.1139
 30
0.0
 10
-18.9651
 20
14.1139
 30
0.0
 10
-18.9651
 20
14.1139
 30
0.0
 10
-18.9956
 20
14.2603
 30
0.0
 10
-18.9956
 20
14.2603
 30
0.0
 10
-18.9956
 20
14.2603
 30
0.0
 10
-18.9956
 20
14.2603
 30
0.0
 10
-18.9956
 20
15.9745
 30
0.0
 10
-18.9956
 20
15.9745
 30
0.0
 10
-18.9956
 20
15.9745
 30
0.0
 10
-18.9956
 20
15.9745
 30
0.0
 10
-18.0243
 20
15.9676
 30
0.0
 10
-18.0243
 20
15.9676
 30
0.0
 10
-18.0243
 20
15.9676
 30
0.0
 10
-18.0243
 20
15.9676
 30
0.0
 10
-18.0471
 20
14.971
 30
0.0
 10
-18.0471
 20
14.971
 30
0.0
 10
-18.0471
 20
14.971
 30
0.0
 10
-18.0471
 20
14.971
 30
0.0
 10
-17.994
 20
14.7829
 30
0.0
 10
-17.994
 20
14.7829
 30
0.0
 10
-17.994
 20
14.7829
 30
0.0
 10
-17.994
 20
14.7829
 30
0.0
 10
-17.9332
 20
14.6994
 30
0.0
 10
-17.9332
 20
14.6994
 30
0.0
 10
-17.9332
 20
14.6994
 30
0.0
 10
-17.9332
 20
14.6994
 30
0.0
 10
-17.8649
 20
14.6994
 30
0.0
 10
-17.8649
 20
14.6994
 30
0.0
 10
-17.8649
 20
14.6994
 30
0.0
 10
-17.8649
 20
14.6994
 30
0.0
 10
-17.7891
 20
14.6994
 30
0.0
 10
-17.7891
 20
14.6994
 30
0.0
 10
-17.7891
 20
14.6994
 30
0.0
 10
-17.7891
 20
14.6994
 30
0.0
 10
-17.6829
 20
14.776
 30
0.0
 10
-17.6829
 20
14.776
 30
0.0
 10
-17.6829
 20
14.776
 30
0.0
 10
-17.6829
 20
14.776
 30
0.0
 10
-17.6146
 20
14.8944
 30
0.0
 10
-17.6146
 20
14.8944
 30
0.0
 10
-17.6146
 20
14.8944
 30
0.0
 10
-17.6146
 20
14.8944
 30
0.0
 10
-17.6146
 20
14.9641
 30
0.0
 10
-17.6146
 20
14.9641
 30
0.0
 10
-17.6146
 20
14.9641
 30
0.0
 10
-17.6146
 20
14.9641
 30
0.0
 10
-17.6146
 20
15.9536
 30
0.0
 10
-17.6146
 20
15.9536
 30
0.0
 10
-17.6146
 20
15.9536
 30
0.0
 10
-17.6146
 20
15.9536
 30
0.0
 10
-15.1487
 20
15.9536
 30
0.0
 10
-15.1487
 20
15.9536
 30
0.0
 10
-15.1487
 20
15.9536
 30
0.0
 10
-15.1487
 20
15.9536
 30
0.0
 10
-15.1487
 20
14.985
 30
0.0
 10
-15.1487
 20
14.985
 30
0.0
 10
-15.1487
 20
14.985
 30
0.0
 10
-15.1487
 20
14.985
 30
0.0
 10
-15.1183
 20
14.8526
 30
0.0
 10
-15.1183
 20
14.8526
 30
0.0
 10
-15.1183
 20
14.8526
 30
0.0
 10
-15.1183
 20
14.8526
 30
0.0
 10
-15.0425
 20
14.7551
 30
0.0
 10
-15.0425
 20
14.7551
 30
0.0
 10
-15.0425
 20
14.7551
 30
0.0
 10
-15.0425
 20
14.7551
 30
0.0
 10
-14.8983
 20
14.7132
 30
0.0
 10
-14.8983
 20
14.7132
 30
0.0
 10
-14.8983
 20
14.7132
 30
0.0
 10
-14.8983
 20
14.7132
 30
0.0
 10
-14.7541
 20
14.7341
 30
0.0
 10
-14.7541
 20
14.7341
 30
0.0
 10
-14.7541
 20
14.7341
 30
0.0
 10
-14.7541
 20
14.7341
 30
0.0
 10
-14.648
 20
14.776
 30
0.0
 10
-14.648
 20
14.776
 30
0.0
 10
-14.648
 20
14.776
 30
0.0
 10
-14.648
 20
14.776
 30
0.0
 10
-14.5871
 20
14.8387
 30
0.0
 10
-14.5871
 20
14.8387
 30
0.0
 10
-14.5871
 20
14.8387
 30
0.0
 10
-14.5871
 20
14.8387
 30
0.0
 10
-14.5568
 20
14.9015
 30
0.0
 10
-14.5568
 20
14.9015
 30
0.0
 10
-14.5568
 20
14.9015
 30
0.0
 10
-14.5568
 20
14.9015
 30
0.0
 10
-14.565
 20
15.9563
 30
0.0
 10
-14.565
 20
15.9563
 30
0.0
  0
SPLINE
  5
92
330
1F
100
AcDbEntity
  8
DEFAULT_1
 62
   250
100
AcDbSpline
210
0.0
220
0.0
230
1.0
 70
    11
 71
     3
 72
    28
 73
    24
 74
     0
 42
0.0000000001
 43
0.0000000001
 40
0.0
 40
0.0
 40
0.0
 40
0.0
 40
0.1428571428571428
 40
0.1428571428571428
 40
0.1428571428571428
 40
0.1428571428571428
 40
0.2857142857142857
 40
0.2857142857142857
 40
0.2857142857142857
 40
0.2857142857142857
 40
0.4285714285714285
 40
0.4285714285714285
 40
0.4285714285714285
 40
0.4285714285714285
 40
0.5714285714285714
 40
0.5714285714285714
 40
0.5714285714285714
 40
0.5714285714285714
 40
0.7142857142857143
 40
0.7142857142857143
 40
0.7142857142857143
 40
0.7142857142857143
 40
1.0
 40
1.0
 40
1.0
 40
1.0
 10
-10.6668
 20
14.6901
 30
0.0
 10
-10.6668
 20
14.6901
 30
0.0
 10
-10.6668
 20
16.3784
 30
0.0
 10
-10.6668
 20
16.3784
 30
0.0
 10
-10.6668
 20
16.3784
 30
0.0
 10
-10.6668
 20
16.3784
 30
0.0
 10
-19.0747
 20
16.3784
 30
0.0
 10
-19.0747
 20
16.3784
 30
0.0
 10
-19.0747
 20
16.3784
 30
0.0
 10
-19.0747
 20
16.3784
 30
0.0
 10
-19.0747
 20
14.6901
 30
0.0
 10
-19.0747
 20
14.6901
 30
0.0
 10
-19.0747
 20
14.6901
 30
0.0
 10
-19.0747
 20
14.6901
 30
0.0
 10
-19.0747
 20
16.3784
 30
0.0
 10
-19.0747
 20
16.3784
 30
0.0
 10
-19.0747
 20
16.3784
 30
0.0
 10
-19.0747
 20
16.3784
 30
0.0
 10
-10.6668
 20
16.3784
 30
0.0
 10
-10.6668
 20
16.3784
 30
0.0
 10
-10.6668
 20
16.3784
 30
0.0
 10
-10.6668
 20
16.3784
 30
0.0
 10
-10.6668
 20
14.6901
 30
0.0
 10
-10.6668
 20
14.6901
 30
0.0
  0
SPLINE
  5
93
330
1F
100
AcDbEntity
  8
DEFAULT_1
 62
   250
100
AcDbSpline
210
0.0
220
0.0
230
1.0
 70
    11
 71
     3
 72
    20
 73
    16
 74
     0
 42
0.0000000001
 43
0.0000000001
 40
0.0
 40
0.0
 40
0.0
 40
0.0
 40
0.2
 40
0.2
 40
0.2
 40
0.2
 40
0.4
 40
0.4
 40
0.4
 40
0.4
 40
0.6
 40
0.6
 40
0.6
 40
0.6
 40
1.0
 40
1.0
 40
1.0
 40
1.0
 10
7.6325
 20
-15.7088
 30
0.0
 10
7.6325
 20
-15.7088
 30
0.0
 10
7.9854
 20
-13.2088
 30
0.0
 10
7.9854
 20
-13.2088
 30
0.0
 10
7.9854
 20
-13.2088
 30
0.0
 10
7.9854
 20
-13.2088
 30
0.0
 10
8.0637
 20
-13.2088
 30
0.0
 10
8.0637
 20
-13.2088
 30
0.0
 10
8.0637
 20
-13.2088
 30
0.0
 10
8.0637
 20
-13.2088
 30
0.0
 10
8.44
 20
-15.7088
 30
0.0
 10
8.44
 20
-15.7088
 30
0.0
 10
8.44
 20
-15.7088
 30
0.0
 10
8.44
 20
-15.7088
 30
0.0
 10
7.6325
 20
-15.7088
 30
0.0
 10
7.6325
 20
-15.7088
 30
0.0
  0
SPLINE
  5
94
330
1F
100
AcDbEntity
  8
DEFAULT_1
 62
   250
100
AcDbSpline
210
0.0
220
0.0
230
1.0
 70
    11
 71
     3
 72
    20
 73
    16
 74
     0
 42
0.0000000001
 43
0.0000000001
 40
0.0
 40
0.0
 40
0.0
 40
0.0
 40
0.2
 40
0.2
 40
0.2
 40
0.2
 40
0.4
 40
0.4
 40
0.4
 40
0.4
 40
0.6
 40
0.6
 40
0.6
 40
0.6
 40
1.0
 40
1.0
 40
1.0
 40
1.0
 10
-24.3318
 20
-6.9131
 30
0.0
 10
-24.3318
 20
-6.9131
 30
0.0
 10
-24.6847
 20
-9.4131
 30
0.0
 10
-24.6847
 20
-9.4131
 30
0.0
 10
-24.6847
 20
-9.4131
 30
0.0
 10
-24.6847
 20
-9.4131
 30
0.0
 10
-24.763
 20
-9.4131
 30
0.0
 10
-24.763
 20
-9.4131
 30
0.0
 10
-24.763
 20
-9.4131
 30
0.0
 10
-24.763
 20
-9.4131
 30
0.0
 10
-25.1393
 20
-6.9131
 30
0.0
 10
-25.1393
 20
-6.9131
 30
0.0
 10
-25.1393
 20
-6.9131
 30
0.0
 10
-25.1393
 20
-6.9131
 30
0.0
 10
-24.3318
 20
-6.9131
 30
0.0
 10
-24.3318
 20
-6.9131
 30
0.0
  0
SPLINE
  5
95
330
1F
100
AcDbEntity
  8
DEFAULT_1
 62
   250
100
AcDbSpline
210
0.0
220
0.0
230
1.0
 70
    11
 71
     3
 72
    20
 73
    16
 74
     0
 42
0.0000000001
 43
0.0000000001
 40
0.0
 40
0.0
 40
0.0
 40
0.0
 40
0.2
 40
0.2
 40
0.2
 40
0.2
 40
0.4
 40
0.4
 40
0.4
 40
0.4
 40
0.6
 40
0.6
 40
0.6
 40
0.6
 40
1.0
 40
1.0
 40
1.0
 40
1.0
 10
-25.1106
 20
13.7058
 30
0.0
 10
-25.1106
 20
13.7058
 30
0.0
 10
-24.7577
 20
16.2058
 30
0.0
 10
-24.7577
 20
16.2058
 30
0.0
 10
-24.7577
 20
16.2058
 30
0.0
 10
-24.7577
 20
16.2058
 30
0.0
 10
-24.6794
 20
16.2058
 30
0.0
 10
-24.6794
 20
16.2058
 30
0.0
 10
-24.6794
 20
16.2058
 30
0.0
 10
-24.6794
 20
16.2058
 30
0.0
 10
-24.3031
 20
13.7058
 30
0.0
 10
-24.3031
 20
13.7058
 30
0.0
 10
-24.3031
 20
13.7058
 30
0.0
 10
-24.3031
 20
13.7058
 30
0.0
 10
-25.1106
 20
13.7058
 30
0.0
 10
-25.1106
 20
13.7058
 30
0.0
  0
SPLINE
  5
96
330
1F
100
AcDbEntity
  8
DEFAULT_1
 62
   250
100
AcDbSpline
210
0.0
220
0.0
230
1.0
 70
    11
 71
     3
 72
    20
 73
    16
 74
     0
 42
0.0000000001
 43
0.0000000001
 40
0.0
 40
0.0
 40
0.0
 40
0.0
 40
0.2
 40
0.2
 40
0.2
 40
0.2
 40
0.4
 40
0.4
 40
0.4
 40
0.4
 40
0.6
 40
0.6
 40
0.6
 40
0.6
 40
1.0
 40
1.0
 40
1.0
 40
1.0
 10
-20.2825
 20
1.156
 30
0.0
 10
-20.2825
 20
1.156
 30
0.0
 10
-17.7825
 20
0.8031
 30
0.0
 10
-17.7825
 20
0.8031
 30
0.0
 10
-17.7825
 20
0.8031
 30
0.0
 10
-17.7825
 20
0.8031
 30
0.0
 10
-17.7825
 20
0.7248
 30
0.0
 10
-17.7825
 20
0.7248
 30
0.0
 10
-17.7825
 20
0.7248
 30
0.0
 10
-17.7825
 20
0.7248
 30
0.0
 10
-20.2825
 20
0.3485
 30
0.0
 10
-20.2825
 20
0.3485
 30
0.0
 10
-20.2825
 20
0.3485
 30
0.0
 10
-20.2825
 20
0.3485
 30
0.0
 10
-20.2825
 20
1.156
 30
0.0
 10
-20.2825
 20
1.156
 30
0.0
  0
SPLINE
  5
97
330
1F
100
AcDbEntity
  8
DEFAULT_1
 62
   250
100
AcDbSpline
210
0.0
220
0.0
230
1.0
 70
    11
 71
     3
 72
    20
 73
    16
 74
     0
 42
0.0000000001
 43
0.0000000001
 40
0.0
 40
0.0
 40
0.0
 40
0.0
 40
0.2
 40
0.2
 40
0.2
 40
0.2
 40
0.4
 40
0.4
 40
0.4
 40
0.4
 40
0.6
 40
0.6
 40
0.6
 40
0.6
 40
1.0
 40
1.0
 40
1.0
 40
1.0
 10
-9.4418
 20
0.3789
 30
0.0
 10
-9.4418
 20
0.3789
 30
0.0
 10
-11.9418
 20
0.7318
 30
0.0
 10
-11.9418
 20
0.7318
 30
0.0
 10
-11.9418
 20
0.7318
 30
0.0
 10
-11.9418
 20
0.7318
 30
0.0
 10
-11.9418
 20
0.8101
 30
0.0
 10
-11.9418
 20
0.8101
 30
0.0
 10
-11.9418
 20
0.8101
 30
0.0
 10
-11.9418
 20
0.8101
 30
0.0
 10
-9.4418
 20
1.1864
 30
0.0
 10
-9.4418
 20
1.1864
 30
0.0
 10
-9.4418
 20
1.1864
 30
0.0
 10
-9.4418
 20
1.1864
 30
0.0
 10
-9.4418
 20
0.3789
 30
0.0
 10
-9.4418
 20
0.3789
 30
0.0
  0
SPLINE
  5
98
330
1F
100
AcDbEntity
  8
DEFAULT_1
 62
   250
100
AcDbSpline
210
0.0
220
0.0
230
1.0
 70
     8
 71
     3
 72
    16
 73
    12
 74
     0
 42
0.0000000001
 43
0.0000000001
 40
0.0
 40
0.0
 40
0.0
 40
0.0
 40
0.25
 40
0.25
 40
0.25
 40
0.25
 40
0.5
 40
0.5
 40
0.5
 40
0.5
 40
1.0
 40
1.0
 40
1.0
 40
1.0
 10
21.8646
 20
-6.1467
 30
0.0
 10
21.8646
 20
-6.1467
 30
0.0
 10
26.2964
 20
-6.1467
 30
0.0
 10
26.2964
 20
-6.1467
 30
0.0
 10
26.2964
 20
-6.1467
 30
0.0
 10
26.2964
 20
-6.1467
 30
0.0
 10
26.3005
 20
-12.9883
 30
0.0
 10
26.3005
 20
-12.9883
 30
0.0
 10
26.3005
 20
-12.9883
 30
0.0
 10
26.3005
 20
-12.9883
 30
0.0
 10
21.8626
 20
-12.9883
 30
0.0
 10
21.8626
 20
-12.9883
 30
0.0
  0
SPLINE
  5
99
330
1F
100
AcDbEntity
  8
DEFAULT_1
 62
   250
100
AcDbSpline
210
0.0
220
0.0
230
1.0
 70
    27
 71
     3
 72
    12
 73
     8
 74
     0
 42
0.0000000001
 43
0.0000000001
 40
0.0
 40
0.0
 40
0.0
 40
0.0
 40
0.3333333333333333
 40
0.3333333333333333
 40
0.3333333333333333
 40
0.3333333333333333
 40
1.0
 40
1.0
 40
1.0
 40
1.0
 10
17.3819
 20
-6.1467
 30
0.0
 10
17.3819
 20
-6.1467
 30
0.0
 10
-3.9606
 20
-6.1467
 30
0.0
 10
-3.9606
 20
-6.1467
 30
0.0
 10
-3.9606
 20
-6.1467
 30
0.0
 10
-3.9606
 20
-6.1467
 30
0.0
 10
17.3819
 20
-6.1467
 30
0.0
 10
17.3819
 20
-6.1467
 30
0.0
  0
SPLINE
  5
9A
330
1F
100
AcDbEntity
  8
DEFAULT_1
 62
   250
100
AcDbSpline
210
0.0
220
0.0
230
1.0
 70
    27
 71
     3
 72
    12
 73
     8
 74
     0
 42
0.0000000001
 43
0.0000000001
 40
0.0
 40
0.0
 40
0.0
 40
0.0
 40
0.3333333333333333
 40
0.3333333333333333
 40
0.3333333333333333
 40
0.3333333333333333
 40
1.0
 40
1.0
 40
1.0
 40
1.0
 10
17.3192
 20
-12.9844
 30
0.0
 10
17.3192
 20
-12.9844
 30
0.0
 10
-3.9606
 20
-12.9844
 30
0.0
 10
-3.9606
 20
-12.9844
 30
0.0
 10
-3.9606
 20
-12.9844
 30
0.0
 10
-3.9606
 20
-12.9844
 30
0.0
 10
17.3192
 20
-12.9844
 30
0.0
 10
17.3192
 20
-12.9844
 30
0.0
  0
SPLINE
  5
9B
330
1F
100
AcDbEntity
  8
DEFAULT_1
 62
   250
100
AcDbSpline
210
0.0
220
0.0
230
1.0
 70
    11
 71
     3
 72
    20
 73
    16
 74
     0
 42
0.0000000001
 43
0.0000000001
 40
0.0
 40
0.0
 40
0.0
 40
0.0
 40
0.2
 40
0.2
 40
0.2
 40
0.2
 40
0.4
 40
0.4
 40
0.4
 40
0.4
 40
0.6
 40
0.6
 40
0.6
 40
0.6
 40
1.0
 40
1.0
 40
1.0
 40
1.0
 10
23.8287
 20
21.2904
 30
0.0
 10
23.8287
 20
21.2904
 30
0.0
 10
26.3287
 20
20.9375
 30
0.0
 10
26.3287
 20
20.9375
 30
0.0
 10
26.3287
 20
20.9375
 30
0.0
 10
26.3287
 20
20.9375
 30
0.0
 10
26.3287
 20
20.8592
 30
0.0
 10
26.3287
 20
20.8592
 30
0.0
 10
26.3287
 20
20.8592
 30
0.0
 10
26.3287
 20
20.8592
 30
0.0
 10
23.8287
 20
20.4829
 30
0.0
 10
23.8287
 20
20.4829
 30
0.0
 10
23.8287
 20
20.4829
 30
0.0
 10
23.8287
 20
20.4829
 30
0.0
 10
23.8287
 20
21.2904
 30
0.0
 10
23.8287
 20
21.2904
 30
0.0
  0
SPLINE
  5
9C
330
1F
100
AcDbEntity
  8
DEFAULT_1
 62
   250
100
AcDbSpline
210
0.0
220
0.0
230
1.0
 70
    11
 71
     3
 72
    20
 73
    16
 74
     0
 42
0.0000000001
 43
0.0000000001
 40
0.0
 40
0.0
 40
0.0
 40
0.0
 40
0.2
 40
0.2
 40
0.2
 40
0.2
 40
0.4
 40
0.4
 40
0.4
 40
0.4
 40
0.6
 40
0.6
 40
0.6
 40
0.6
 40
1.0
 40
1.0
 40
1.0
 40
1.0
 10
-21.1584
 20
26.1162
 30
0.0
 10
-21.1584
 20
26.1162
 30
0.0
 10
-18.6584
 20
25.7633
 30
0.0
 10
-18.6584
 20
25.7633
 30
0.0
 10
-18.6584
 20
25.7633
 30
0.0
 10
-18.6584
 20
25.7633
 30
0.0
 10
-18.6584
 20
25.685
 30
0.0
 10
-18.6584
 20
25.685
 30
0.0
 10
-18.6584
 20
25.685
 30
0.0
 10
-18.6584
 20
25.685
 30
0.0
 10
-21.1584
 20
25.3087
 30
0.0
 10
-21.1584
 20
25.3087
 30
0.0
 10
-21.1584
 20
25.3087
 30
0.0
 10
-21.1584
 20
25.3087
 30
0.0
 10
-21.1584
 20
26.1162
 30
0.0
 10
-21.1584
 20
26.1162
 30
0.0
  0
SPLINE
  5
9D
330
1F
100
AcDbEntity
  8
DEFAULT_1
 62
   250
100
AcDbSpline
210
0.0
220
0.0
230
1.0
 70
    11
 71
     3
 72
    20
 73
    16
 74
     0
 42
0.0000000001
 43
0.0000000001
 40
0.0
 40
0.0
 40
0.0
 40
0.0
 40
0.2
 40
0.2
 40
0.2
 40
0.2
 40
0.4
 40
0.4
 40
0.4
 40
0.4
 40
0.6
 40
0.6
 40
0.6
 40
0.6
 40
1.0
 40
1.0
 40
1.0
 40
1.0
 10
-8.6793
 20
25.3435
 30
0.0
 10
-8.6793
 20
25.3435
 30
0.0
 10
-11.1793
 20
25.6964
 30
0.0
 10
-11.1793
 20
25.6964
 30
0.0
 10
-11.1793
 20
25.6964
 30
0.0
 10
-11.1793
 20
25.6964
 30
0.0
 10
-11.1793
 20
25.7747
 30
0.0
 10
-11.1793
 20
25.7747
 30
0.0
 10
-11.1793
 20
25.7747
 30
0.0
 10
-11.1793
 20
25.7747
 30
0.0
 10
-8.6793
 20
26.151
 30
0.0
 10
-8.6793
 20
26.151
 30
0.0
 10
-8.6793
 20
26.151
 30
0.0
 10
-8.6793
 20
26.151
 30
0.0
 10
-8.6793
 20
25.3435
 30
0.0
 10
-8.6793
 20
25.3435
 30
0.0
  0
SPLINE
  5
9E
330
1F
100
AcDbEntity
  8
DEFAULT_1
 62
   250
100
AcDbSpline
210
0.0
220
0.0
230
1.0
 70
    11
 71
     3
 72
    20
 73
    16
 74
     0
 42
0.0000000001
 43
0.0000000001
 40
0.0
 40
0.0
 40
0.0
 40
0.0
 40
0.2
 40
0.2
 40
0.2
 40
0.2
 40
0.4
 40
0.4
 40
0.4
 40
0.4
 40
0.6
 40
0.6
 40
0.6
 40
0.6
 40
1.0
 40
1.0
 40
1.0
 40
1.0
 10
-12.1826
 20
20.4981
 30
0.0
 10
-12.1826
 20
20.4981
 30
0.0
 10
-14.6826
 20
20.851
 30
0.0
 10
-14.6826
 20
20.851
 30
0.0
 10
-14.6826
 20
20.851
 30
0.0
 10
-14.6826
 20
20.851
 30
0.0
 10
-14.6826
 20
20.9293
 30
0.0
 10
-14.6826
 20
20.9293
 30
0.0
 10
-14.6826
 20
20.9293
 30
0.0
 10
-14.6826
 20
20.9293
 30
0.0
 10
-12.1826
 20
21.3056
 30
0.0
 10
-12.1826
 20
21.3056
 30
0.0
 10
-12.1826
 20
21.3056
 30
0.0
 10
-12.1826
 20
21.3056
 30
0.0
 10
-12.1826
 20
20.4981
 30
0.0
 10
-12.1826
 20
20.4981
 30
0.0
  0
SPLINE
  5
9F
330
1F
100
AcDbEntity
  8
DEFAULT_1
 62
   250
100
AcDbSpline
210
0.0
220
0.0
230
1.0
 70
    24
 71
     3
 72
     8
 73
     4
 74
     0
 42
0.0000000001
 43
0.0000000001
 40
0.0
 40
0.0
 40
0.0
 40
0.0
 40
1.0
 40
1.0
 40
1.0
 40
1.0
 10
-11.2712
 20
16.9212
 30
0.0
 10
-11.2712
 20
16.9212
 30
0.0
 10
-11.2712
 20
20.0665
 30
0.0
 10
-11.2712
 20
20.0665
 30
0.0
  0
SPLINE
  5
A0
330
1F
100
AcDbEntity
  8
DEFAULT_1
  6
NEW_LINE4
 62
   250
100
AcDbSpline
210
0.0
220
0.0
230
1.0
 70
    24
 71
     3
 72
     8
 73
     4
 74
     0
 42
0.0000000001
 43
0.0000000001
 40
0.0
 40
0.0
 40
0.0
 40
0.0
 40
1.0
 40
1.0
 40
1.0
 40
1.0
 10
-2.4314
 20
11.3044
 30
0.0
 10
-2.4314
 20
11.3044
 30
0.0
 10
0.3574
 20
0.8965
 30
0.0
 10
0.3574
 20
0.8965
 30
0.0
  0
SPLINE
  5
A2
330
1F
100
AcDbEntity
  8
DEFAULT_1
 62
   250
100
AcDbSpline
210
0.0
220
0.0
230
1.0
 70
     8
 71
     3
 72
   116
 73
   112
 74
     0
 42
0.0000000001
 43
0.0000000001
 40
0.0
 40
0.0
 40
0.0
 40
0.0
 40
0.0344827586206897
 40
0.0344827586206897
 40
0.0344827586206897
 40
0.0344827586206897
 40
0.0689655172413793
 40
0.0689655172413793
 40
0.0689655172413793
 40
0.0689655172413793
 40
0.103448275862069
 40
0.103448275862069
 40
0.103448275862069
 40
0.103448275862069
 40
0.1379310344827586
 40
0.1379310344827586
 40
0.1379310344827586
 40
0.1379310344827586
 40
0.1724137931034483
 40
0.1724137931034483
 40
0.1724137931034483
 40
0.1724137931034483
 40
0.2068965517241379
 40
0.2068965517241379
 40
0.2068965517241379
 40
0.2068965517241379
 40
0.2413793103448276
 40
0.2413793103448276
 40
0.2413793103448276
 40
0.2413793103448276
 40
0.2758620689655172
 40
0.2758620689655172
 40
0.2758620689655172
 40
0.2758620689655172
 40
0.3103448275862069
 40
0.3103448275862069
 40
0.3103448275862069
 40
0.3103448275862069
 40
0.3448275862068966
 40
0.3448275862068966
 40
0.3448275862068966
 40
0.3448275862068966
 40
0.3793103448275862
 40
0.3793103448275862
 40
0.3793103448275862
 40
0.3793103448275862
 40
0.4137931034482759
 40
0.4137931034482759
 40
0.4137931034482759
 40
0.4137931034482759
 40
0.4482758620689655
 40
0.4482758620689655
 40
0.4482758620689655
 40
0.4482758620689655
 40
0.4827586206896552
 40
0.4827586206896552
 40
0.4827586206896552
 40
0.4827586206896552
 40
0.5172413793103449
 40
0.5172413793103449
 40
0.5172413793103449
 40
0.5172413793103449
 40
0.5517241379310345
 40
0.5517241379310345
 40
0.5517241379310345
 40
0.5517241379310345
 40
0.5862068965517241
 40
0.5862068965517241
 40
0.5862068965517241
 40
0.5862068965517241
 40
0.6206896551724138
 40
0.6206896551724138
 40
0.6206896551724138
 40
0.6206896551724138
 40
0.6551724137931034
 40
0.6551724137931034
 40
0.6551724137931034
 40
0.6551724137931034
 40
0.6896551724137931
 40
0.6896551724137931
 40
0.6896551724137931
 40
0.6896551724137931
 40
0.7241379310344828
 40
0.7241379310344828
 40
0.7241379310344828
 40
0.7241379310344828
 40
0.7586206896551724
 40
0.7586206896551724
 40
0.7586206896551724
 40
0.7586206896551724
 40
0.7931034482758621
 40
0.7931034482758621
 40
0.7931034482758621
 40
0.7931034482758621
 40
0.8275862068965517
 40
0.8275862068965517
 40
0.8275862068965517
 40
0.8275862068965517
 40
0.8620689655172413
 40
0.8620689655172413
 40
0.8620689655172413
 40
0.8620689655172413
 40
0.896551724137931
 40
0.896551724137931
 40
0.896551724137931
 40
0.896551724137931
 40
0.9310344827586207
 40
0.9310344827586207
 40
0.9310344827586207
 40
0.9310344827586207
 40
1.0
 40
1.0
 40
1.0
 40
1.0
 10
-7.5449
 20
6.7796
 30
0.0
 10
-7.5449
 20
6.7796
 30
0.0
 10
-11.7939
 20
5.6164
 30
0.0
 10
-11.7939
 20
5.6164
 30
0.0
 10
-11.7939
 20
5.6164
 30
0.0
 10
-11.7939
 20
5.6164
 30
0.0
 10
-12.026
 20
5.5482
 30
0.0
 10
-12.026
 20
5.5482
 30
0.0
 10
-12.026
 20
5.5482
 30
0.0
 10
-12.026
 20
5.5482
 30
0.0
 10
-12.0263
 20
5.5485
 30
0.0
 10
-12.0263
 20
5.5485
 30
0.0
 10
-12.0263
 20
5.5485
 30
0.0
 10
-12.0263
 20
5.5485
 30
0.0
 10
-12.5878
 20
6.0859
 30
0.0
 10
-12.5878
 20
6.0859
 30
0.0
 10
-12.5878
 20
6.0859
 30
0.0
 10
-12.5878
 20
6.0859
 30
0.0
 10
-12.7715
 20
6.2741
 30
0.0
 10
-12.7715
 20
6.2741
 30
0.0
 10
-12.7715
 20
6.2741
 30
0.0
 10
-12.7715
 20
6.2741
 30
0.0
 10
-12.9695
 20
6.4939
 30
0.0
 10
-12.9695
 20
6.4939
 30
0.0
 10
-12.9695
 20
6.4939
 30
0.0
 10
-12.9695
 20
6.4939
 30
0.0
 10
-13.1598
 20
6.7341
 30
0.0
 10
-13.1598
 20
6.7341
 30
0.0
 10
-13.1598
 20
6.7341
 30
0.0
 10
-13.1598
 20
6.7341
 30
0.0
 10
-13.3234
 20
6.988
 30
0.0
 10
-13.3234
 20
6.988
 30
0.0
 10
-13.3234
 20
6.988
 30
0.0
 10
-13.3234
 20
6.988
 30
0.0
 10
-13.4432
 20
7.2528
 30
0.0
 10
-13.4432
 20
7.2528
 30
0.0
 10
-13.4432
 20
7.2528
 30
0.0
 10
-13.4432
 20
7.2528
 30
0.0
 10
-13.5054
 20
7.5153
 30
0.0
 10
-13.5054
 20
7.5153
 30
0.0
 10
-13.5054
 20
7.5153
 30
0.0
 10
-13.5054
 20
7.5153
 30
0.0
 10
-13.5123
 20
7.779
 30
0.0
 10
-13.5123
 20
7.779
 30
0.0
 10
-13.5123
 20
7.779
 30
0.0
 10
-13.5123
 20
7.779
 30
0.0
 10
-13.4657
 20
8.0628
 30
0.0
 10
-13.4657
 20
8.0628
 30
0.0
 10
-13.4657
 20
8.0628
 30
0.0
 10
-13.4657
 20
8.0628
 30
0.0
 10
-13.3685
 20
8.3644
 30
0.0
 10
-13.3685
 20
8.3644
 30
0.0
 10
-13.3685
 20
8.3644
 30
0.0
 10
-13.3685
 20
8.3644
 30
0.0
 10
-13.231
 20
8.676
 30
0.0
 10
-13.231
 20
8.676
 30
0.0
 10
-13.231
 20
8.676
 30
0.0
 10
-13.231
 20
8.676
 30
0.0
 10
-13.0591
 20
9.0025
 30
0.0
 10
-13.0591
 20
9.0025
 30
0.0
 10
-13.0591
 20
9.0025
 30
0.0
 10
-13.0591
 20
9.0025
 30
0.0
 10
-12.8519
 20
9.3547
 30
0.0
 10
-12.8519
 20
9.3547
 30
0.0
 10
-12.8519
 20
9.3547
 30
0.0
 10
-12.8519
 20
9.3547
 30
0.0
 10
-12.6193
 20
9.7226
 30
0.0
 10
-12.6193
 20
9.7226
 30
0.0
 10
-12.6193
 20
9.7226
 30
0.0
 10
-12.6193
 20
9.7226
 30
0.0
 10
-12.4072
 20
10.0433
 30
0.0
 10
-12.4072
 20
10.0433
 30
0.0
 10
-12.4072
 20
10.0433
 30
0.0
 10
-12.4072
 20
10.0433
 30
0.0
 10
-12.2372
 20
10.2935
 30
0.0
 10
-12.2372
 20
10.2935
 30
0.0
 10
-12.2372
 20
10.2935
 30
0.0
 10
-12.2372
 20
10.2935
 30
0.0
 10
-12.1166
 20
10.4684
 30
0.0
 10
-12.1166
 20
10.4684
 30
0.0
 10
-12.1166
 20
10.4684
 30
0.0
 10
-12.1166
 20
10.4684
 30
0.0
 10
-12.047
 20
10.5683
 30
0.0
 10
-12.047
 20
10.5683
 30
0.0
 10
-12.047
 20
10.5683
 30
0.0
 10
-12.047
 20
10.5683
 30
0.0
 10
-12.0263
 20
10.598
 30
0.0
 10
-12.0263
 20
10.598
 30
0.0
 10
-12.0263
 20
10.598
 30
0.0
 10
-12.0263
 20
10.598
 30
0.0
 10
-8.8365
 20
11.4823
 30
0.0
 10
-8.8365
 20
11.4823
 30
0.0
 10
-8.8365
 20
11.4823
 30
0.0
 10
-8.8365
 20
11.4823
 30
0.0
 10
-8.9235
 20
11.7908
 30
0.0
 10
-8.9235
 20
11.7908
 30
0.0
 10
-8.9235
 20
11.7908
 30
0.0
 10
-8.9235
 20
11.7908
 30
0.0
 10
-8.6997
 20
11.8685
 30
0.0
 10
-8.6997
 20
11.8685
 30
0.0
 10
-8.6997
 20
11.8685
 30
0.0
 10
-8.6997
 20
11.8685
 30
0.0
 10
-8.9257
 20
11.7886
 30
0.0
 10
-8.9257
 20
11.7886
 30
0.0
 10
-8.9257
 20
11.7886
 30
0.0
 10
-8.9257
 20
11.7886
 30
0.0
 10
-7.424
 20
6.3289
 30
0.0
 10
-7.424
 20
6.3289
 30
0.0
 10
-7.424
 20
6.3289
 30
0.0
 10
-7.424
 20
6.3289
 30
0.0
 10
-7.2512
 20
6.4354
 30
0.0
 10
-7.2512
 20
6.4354
 30
0.0
  0
SPLINE
  5
A3
330
1F
100
AcDbEntity
  8
DEFAULT_1
 62
   250
100
AcDbSpline
210
0.0
220
0.0
230
1.0
 70
    11
 71
     3
 72
    28
 73
    24
 74
     0
 42
0.0000000001
 43
0.0000000001
 40
0.0
 40
0.0
 40
0.0
 40
0.0
 40
0.1428571428571428
 40
0.1428571428571428
 40
0.1428571428571428
 40
0.1428571428571428
 40
0.2857142857142857
 40
0.2857142857142857
 40
0.2857142857142857
 40
0.2857142857142857
 40
0.4285714285714285
 40
0.4285714285714285
 40
0.4285714285714285
 40
0.4285714285714285
 40
0.5714285714285714
 40
0.5714285714285714
 40
0.5714285714285714
 40
0.5714285714285714
 40
0.7142857142857143
 40
0.7142857142857143
 40
0.7142857142857143
 40
0.7142857142857143
 40
1.0
 40
1.0
 40
1.0
 40
1.0
 10
-17.405
 20
13.8446
 30
0.0
 10
-17.405
 20
13.8446
 30
0.0
 10
-17.405
 20
12.4787
 30
0.0
 10
-17.405
 20
12.4787
 30
0.0
 10
-17.405
 20
12.4787
 30
0.0
 10
-17.405
 20
12.4787
 30
0.0
 10
-17.4903
 20
12.4787
 30
0.0
 10
-17.4903
 20
12.4787
 30
0.0
 10
-17.4903
 20
12.4787
 30
0.0
 10
-17.4903
 20
12.4787
 30
0.0
 10
-17.4903
 20
-0.6691
 30
0.0
 10
-17.4903
 20
-0.6691
 30
0.0
 10
-17.4903
 20
-0.6691
 30
0.0
 10
-17.4903
 20
-0.6691
 30
0.0
 10
-17.4903
 20
12.4787
 30
0.0
 10
-17.4903
 20
12.4787
 30
0.0
 10
-17.4903
 20
12.4787
 30
0.0
 10
-17.4903
 20
12.4787
 30
0.0
 10
-17.405
 20
12.4787
 30
0.0
 10
-17.405
 20
12.4787
 30
0.0
 10
-17.405
 20
12.4787
 30
0.0
 10
-17.405
 20
12.4787
 30
0.0
 10
-17.405
 20
13.8446
 30
0.0
 10
-17.405
 20
13.8446
 30
0.0
  0
SPLINE
  5
A4
330
1F
100
AcDbEntity
  8
DEFAULT_1
 62
   250
100
AcDbSpline
210
0.0
220
0.0
230
1.0
 70
    27
 71
     3
 72
    20
 73
    16
 74
     0
 42
0.0000000001
 43
0.0000000001
 40
0.0
 40
0.0
 40
0.0
 40
0.0
 40
0.2
 40
0.2
 40
0.2
 40
0.2
 40
0.4
 40
0.4
 40
0.4
 40
0.4
 40
0.6
 40
0.6
 40
0.6
 40
0.6
 40
1.0
 40
1.0
 40
1.0
 40
1.0
 10
-12.0263
 20
5.56
 30
0.0
 10
-12.0263
 20
5.56
 30
0.0
 10
-12.0263
 20
5.5485
 30
0.0
 10
-12.0263
 20
5.5485
 30
0.0
 10
-12.0263
 20
5.5485
 30
0.0
 10
-12.0263
 20
5.5485
 30
0.0
 10
-12.0263
 20
-0.6691
 30
0.0
 10
-12.0263
 20
-0.6691
 30
0.0
 10
-12.0263
 20
-0.6691
 30
0.0
 10
-12.0263
 20
-0.6691
 30
0.0
 10
-12.0263
 20
5.5485
 30
0.0
 10
-12.0263
 20
5.5485
 30
0.0
 10
-12.0263
 20
5.5485
 30
0.0
 10
-12.0263
 20
5.5485
 30
0.0
 10
-12.0263
 20
5.56
 30
0.0
 10
-12.0263
 20
5.56
 30
0.0
  0
SPLINE
  5
A5
330
1F
100
AcDbEntity
  8
DEFAULT_1
 62
   250
100
AcDbSpline
210
0.0
220
0.0
230
1.0
 70
    11
 71
     3
 72
    36
 73
    32
 74
     0
 42
0.0000000001
 43
0.0000000001
 40
0.0
 40
0.0
 40
0.0
 40
0.0
 40
0.1111111111111111
 40
0.1111111111111111
 40
0.1111111111111111
 40
0.1111111111111111
 40
0.2222222222222222
 40
0.2222222222222222
 40
0.2222222222222222
 40
0.2222222222222222
 40
0.3333333333333333
 40
0.3333333333333333
 40
0.3333333333333333
 40
0.3333333333333333
 40
0.4444444444444444
 40
0.4444444444444444
 40
0.4444444444444444
 40
0.4444444444444444
 40
0.5555555555555556
 40
0.5555555555555556
 40
0.5555555555555556
 40
0.5555555555555556
 40
0.6666666666666666
 40
0.6666666666666666
 40
0.6666666666666666
 40
0.6666666666666666
 40
0.7777777777777778
 40
0.7777777777777778
 40
0.7777777777777778
 40
0.7777777777777778
 40
1.0
 40
1.0
 40
1.0
 40
1.0
 10
-12.0263
 20
12.4787
 30
0.0
 10
-12.0263
 20
12.4787
 30
0.0
 10
-12.0263
 20
10.598
 30
0.0
 10
-12.0263
 20
10.598
 30
0.0
 10
-12.0263
 20
10.598
 30
0.0
 10
-12.0263
 20
10.598
 30
0.0
 10
-12.0263
 20
12.4787
 30
0.0
 10
-12.0263
 20
12.4787
 30
0.0
 10
-12.0263
 20
12.4787
 30
0.0
 10
-12.0263
 20
12.4787
 30
0.0
 10
-12.1116
 20
12.4787
 30
0.0
 10
-12.1116
 20
12.4787
 30
0.0
 10
-12.1116
 20
12.4787
 30
0.0
 10
-12.1116
 20
12.4787
 30
0.0
 10
-12.1116
 20
13.8446
 30
0.0
 10
-12.1116
 20
13.8446
 30
0.0
 10
-12.1116
 20
13.8446
 30
0.0
 10
-12.1116
 20
13.8446
 30
0.0
 10
-12.1116
 20
12.4787
 30
0.0
 10
-12.1116
 20
12.4787
 30
0.0
 10
-12.1116
 20
12.4787
 30
0.0
 10
-12.1116
 20
12.4787
 30
0.0
 10
-17.405
 20
12.4787
 30
0.0
 10
-17.405
 20
12.4787
 30
0.0
 10
-17.405
 20
12.4787
 30
0.0
 10
-17.405
 20
12.4787
 30
0.0
 10
-12.1116
 20
12.4787
 30
0.0
 10
-12.1116
 20
12.4787
 30
0.0
 10
-12.1116
 20
12.4787
 30
0.0
 10
-12.1116
 20
12.4787
 30
0.0
 10
-12.0263
 20
12.4787
 30
0.0
 10
-12.0263
 20
12.4787
 30
0.0
  0
SPLINE
  5
A6
330
1F
100
AcDbEntity
  8
DEFAULT_1
 62
   250
100
AcDbSpline
210
0.0
220
0.0
230
1.0
 70
    11
 71
     3
 72
    24
 73
    20
 74
     0
 42
0.0000000001
 43
0.0000000001
 40
0.0
 40
0.0
 40
0.0
 40
0.0
 40
0.1666666666666667
 40
0.1666666666666667
 40
0.1666666666666667
 40
0.1666666666666667
 40
0.3333333333333333
 40
0.3333333333333333
 40
0.3333333333333333
 40
0.3333333333333333
 40
0.5
 40
0.5
 40
0.5
 40
0.5
 40
0.6666666666666666
 40
0.6666666666666666
 40
0.6666666666666666
 40
0.6666666666666666
 40
1.0
 40
1.0
 40
1.0
 40
1.0
 10
-1.4984
 20
1.553
 30
0.0
 10
-1.4984
 20
1.553
 30
0.0
 10
-1.5649
 20
1.7954
 30
0.0
 10
-1.5649
 20
1.7954
 30
0.0
 10
-1.5649
 20
1.7954
 30
0.0
 10
-1.5649
 20
1.7954
 30
0.0
 10
1.3932
 20
2.5986
 30
0.0
 10
1.3932
 20
2.5986
 30
0.0
 10
1.3932
 20
2.5986
 30
0.0
 10
1.3932
 20
2.5986
 30
0.0
 10
1.519
 20
2.6328
 30
0.0
 10
1.519
 20
2.6328
 30
0.0
 10
1.519
 20
2.6328
 30
0.0
 10
1.519
 20
2.6328
 30
0.0
 10
1.5898
 20
2.3805
 30
0.0
 10
1.5898
 20
2.3805
 30
0.0
 10
1.5898
 20
2.3805
 30
0.0
 10
1.5898
 20
2.3805
 30
0.0
 10
-1.4984
 20
1.553
 30
0.0
 10
-1.4984
 20
1.553
 30
0.0
  0
SPLINE
  5
A7
330
1F
100
AcDbEntity
  8
DEFAULT_1
 62
   250
100
AcDbSpline
210
0.0
220
0.0
230
1.0
 70
    11
 71
     3
 72
   140
 73
   136
 74
     0
 42
0.0000000001
 43
0.0000000001
 40
0.0
 40
0.0
 40
0.0
 40
0.0
 40
0.0285714285714286
 40
0.0285714285714286
 40
0.0285714285714286
 40
0.0285714285714286
 40
0.0571428571428571
 40
0.0571428571428571
 40
0.0571428571428571
 40
0.0571428571428571
 40
0.0857142857142857
 40
0.0857142857142857
 40
0.0857142857142857
 40
0.0857142857142857
 40
0.1142857142857143
 40
0.1142857142857143
 40
0.1142857142857143
 40
0.1142857142857143
 40
0.1428571428571428
 40
0.1428571428571428
 40
0.1428571428571428
 40
0.1428571428571428
 40
0.1714285714285714
 40
0.1714285714285714
 40
0.1714285714285714
 40
0.1714285714285714
 40
0.2
 40
0.2
 40
0.2
 40
0.2
 40
0.2285714285714286
 40
0.2285714285714286
 40
0.2285714285714286
 40
0.2285714285714286
 40
0.2571428571428571
 40
0.2571428571428571
 40
0.2571428571428571
 40
0.2571428571428571
 40
0.2857142857142857
 40
0.2857142857142857
 40
0.2857142857142857
 40
0.2857142857142857
 40
0.3142857142857143
 40
0.3142857142857143
 40
0.3142857142857143
 40
0.3142857142857143
 40
0.3428571428571429
 40
0.3428571428571429
 40
0.3428571428571429
 40
0.3428571428571429
 40
0.3714285714285714
 40
0.3714285714285714
 40
0.3714285714285714
 40
0.3714285714285714
 40
0.4
 40
0.4
 40
0.4
 40
0.4
 40
0.4285714285714285
 40
0.4285714285714285
 40
0.4285714285714285
 40
0.4285714285714285
 40
0.4571428571428571
 40
0.4571428571428571
 40
0.4571428571428571
 40
0.4571428571428571
 40
0.4857142857142857
 40
0.4857142857142857
 40
0.4857142857142857
 40
0.4857142857142857
 40
0.5142857142857142
 40
0.5142857142857142
 40
0.5142857142857142
 40
0.5142857142857142
 40
0.5428571428571428
 40
0.5428571428571428
 40
0.5428571428571428
 40
0.5428571428571428
 40
0.5714285714285714
 40
0.5714285714285714
 40
0.5714285714285714
 40
0.5714285714285714
 40
0.6
 40
0.6
 40
0.6
 40
0.6
 40
0.6285714285714286
 40
0.6285714285714286
 40
0.6285714285714286
 40
0.6285714285714286
 40
0.6571428571428571
 40
0.6571428571428571
 40
0.6571428571428571
 40
0.6571428571428571
 40
0.6857142857142857
 40
0.6857142857142857
 40
0.6857142857142857
 40
0.6857142857142857
 40
0.7142857142857143
 40
0.7142857142857143
 40
0.7142857142857143
 40
0.7142857142857143
 40
0.7428571428571429
 40
0.7428571428571429
 40
0.7428571428571429
 40
0.7428571428571429
 40
0.7714285714285715
 40
0.7714285714285715
 40
0.7714285714285715
 40
0.7714285714285715
 40
0.8
 40
0.8
 40
0.8
 40
0.8
 40
0.8285714285714286
 40
0.8285714285714286
 40
0.8285714285714286
 40
0.8285714285714286
 40
0.8571428571428571
 40
0.8571428571428571
 40
0.8571428571428571
 40
0.8571428571428571
 40
0.8857142857142857
 40
0.8857142857142857
 40
0.8857142857142857
 40
0.8857142857142857
 40
0.9142857142857143
 40
0.9142857142857143
 40
0.9142857142857143
 40
0.9142857142857143
 40
0.9428571428571428
 40
0.9428571428571428
 40
0.9428571428571428
 40
0.9428571428571428
 40
1.0
 40
1.0
 40
1.0
 40
1.0
 10
-3.44
 20
8.3394
 30
0.0
 10
-3.44
 20
8.3394
 30
0.0
 10
-3.4284
 20
8.3567
 30
0.0
 10
-3.4284
 20
8.3567
 30
0.0
 10
-3.4284
 20
8.3567
 30
0.0
 10
-3.4284
 20
8.3567
 30
0.0
 10
-3.393
 20
8.4095
 30
0.0
 10
-3.393
 20
8.4095
 30
0.0
 10
-3.393
 20
8.4095
 30
0.0
 10
-3.393
 20
8.4095
 30
0.0
 10
-3.3368
 20
8.4926
 30
0.0
 10
-3.3368
 20
8.4926
 30
0.0
 10
-3.3368
 20
8.4926
 30
0.0
 10
-3.3368
 20
8.4926
 30
0.0
 10
-3.2643
 20
8.5978
 30
0.0
 10
-3.2643
 20
8.5978
 30
0.0
 10
-3.2643
 20
8.5978
 30
0.0
 10
-3.2643
 20
8.5978
 30
0.0
 10
-3.1832
 20
8.713
 30
0.0
 10
-3.1832
 20
8.713
 30
0.0
 10
-3.1832
 20
8.713
 30
0.0
 10
-3.1832
 20
8.713
 30
0.0
 10
-3.1002
 20
8.8283
 30
0.0
 10
-3.1002
 20
8.8283
 30
0.0
 10
-3.1002
 20
8.8283
 30
0.0
 10
-3.1002
 20
8.8283
 30
0.0
 10
-3.0193
 20
8.937
 30
0.0
 10
-3.0193
 20
8.937
 30
0.0
 10
-3.0193
 20
8.937
 30
0.0
 10
-3.0193
 20
8.937
 30
0.0
 10
-2.942
 20
9.0373
 30
0.0
 10
-2.942
 20
9.0373
 30
0.0
 10
-2.942
 20
9.0373
 30
0.0
 10
-2.942
 20
9.0373
 30
0.0
 10
-2.8691
 20
9.1281
 30
0.0
 10
-2.8691
 20
9.1281
 30
0.0
 10
-2.8691
 20
9.1281
 30
0.0
 10
-2.8691
 20
9.1281
 30
0.0
 10
-2.8005
 20
9.2098
 30
0.0
 10
-2.8005
 20
9.2098
 30
0.0
 10
-2.8005
 20
9.2098
 30
0.0
 10
-2.8005
 20
9.2098
 30
0.0
 10
-2.7352
 20
9.284
 30
0.0
 10
-2.7352
 20
9.284
 30
0.0
 10
-2.7352
 20
9.284
 30
0.0
 10
-2.7352
 20
9.284
 30
0.0
 10
-2.6724
 20
9.3516
 30
0.0
 10
-2.6724
 20
9.3516
 30
0.0
 10
-2.6724
 20
9.3516
 30
0.0
 10
-2.6724
 20
9.3516
 30
0.0
 10
-2.6106
 20
9.4141
 30
0.0
 10
-2.6106
 20
9.4141
 30
0.0
 10
-2.6106
 20
9.4141
 30
0.0
 10
-2.6106
 20
9.4141
 30
0.0
 10
-2.5484
 20
9.4729
 30
0.0
 10
-2.5484
 20
9.4729
 30
0.0
 10
-2.5484
 20
9.4729
 30
0.0
 10
-2.5484
 20
9.4729
 30
0.0
 10
-2.4837
 20
9.5293
 30
0.0
 10
-2.4837
 20
9.5293
 30
0.0
 10
-2.4837
 20
9.5293
 30
0.0
 10
-2.4837
 20
9.5293
 30
0.0
 10
-2.4153
 20
9.5833
 30
0.0
 10
-2.4153
 20
9.5833
 30
0.0
 10
-2.4153
 20
9.5833
 30
0.0
 10
-2.4153
 20
9.5833
 30
0.0
 10
-2.3431
 20
9.6338
 30
0.0
 10
-2.3431
 20
9.6338
 30
0.0
 10
-2.3431
 20
9.6338
 30
0.0
 10
-2.3431
 20
9.6338
 30
0.0
 10
-2.2673
 20
9.6792
 30
0.0
 10
-2.2673
 20
9.6792
 30
0.0
 10
-2.2673
 20
9.6792
 30
0.0
 10
-2.2673
 20
9.6792
 30
0.0
 10
-1.7838
 20
9.9322
 30
0.0
 10
-1.7838
 20
9.9322
 30
0.0
 10
-1.7838
 20
9.9322
 30
0.0
 10
-1.7838
 20
9.9322
 30
0.0
 10
-1.208
 20
10.3242
 30
0.0
 10
-1.208
 20
10.3242
 30
0.0
 10
-1.208
 20
10.3242
 30
0.0
 10
-1.208
 20
10.3242
 30
0.0
 10
-0.8711
 20
10.6181
 30
0.0
 10
-0.8711
 20
10.6181
 30
0.0
 10
-0.8711
 20
10.6181
 30
0.0
 10
-0.8711
 20
10.6181
 30
0.0
 10
-0.6538
 20
10.8686
 30
0.0
 10
-0.6538
 20
10.8686
 30
0.0
 10
-0.6538
 20
10.8686
 30
0.0
 10
-0.6538
 20
10.8686
 30
0.0
 10
-0.5936
 20
10.9892
 30
0.0
 10
-0.5936
 20
10.9892
 30
0.0
 10
-0.5936
 20
10.9892
 30
0.0
 10
-0.5936
 20
10.9892
 30
0.0
 10
-0.5777
 20
11.021
 30
0.0
 10
-0.5777
 20
11.021
 30
0.0
 10
-0.5777
 20
11.021
 30
0.0
 10
-0.5777
 20
11.021
 30
0.0
 10
-0.7733
 20
11.5111
 30
0.0
 10
-0.7733
 20
11.5111
 30
0.0
 10
-0.7733
 20
11.5111
 30
0.0
 10
-0.7733
 20
11.5111
 30
0.0
 10
-1.0885
 20
11.9466
 30
0.0
 10
-1.0885
 20
11.9466
 30
0.0
 10
-1.0885
 20
11.9466
 30
0.0
 10
-1.0885
 20
11.9466
 30
0.0
 10
-1.4796
 20
12.2624
 30
0.0
 10
-1.4796
 20
12.2624
 30
0.0
 10
-1.4796
 20
12.2624
 30
0.0
 10
-1.4796
 20
12.2624
 30
0.0
 10
-1.8707
 20
12.4693
 30
0.0
 10
-1.8707
 20
12.4693
 30
0.0
 10
-1.8707
 20
12.4693
 30
0.0
 10
-1.8707
 20
12.4693
 30
0.0
 10
-2.3706
 20
12.5782
 30
0.0
 10
-2.3706
 20
12.5782
 30
0.0
 10
-2.3706
 20
12.5782
 30
0.0
 10
-2.3706
 20
12.5782
 30
0.0
 10
-2.6748
 20
12.5672
 30
0.0
 10
-2.6748
 20
12.5672
 30
0.0
 10
-2.6748
 20
12.5672
 30
0.0
 10
-2.6748
 20
12.5672
 30
0.0
 10
-5.3371
 20
11.8594
 30
0.0
 10
-5.3371
 20
11.8594
 30
0.0
 10
-5.3371
 20
11.8594
 30
0.0
 10
-5.3371
 20
11.8594
 30
0.0
 10
-5.3199
 20
11.7971
 30
0.0
 10
-5.3199
 20
11.7971
 30
0.0
 10
-5.3199
 20
11.7971
 30
0.0
 10
-5.3199
 20
11.7971
 30
0.0
 10
-4.294
 20
8.0811
 30
0.0
 10
-4.294
 20
8.0811
 30
0.0
 10
-4.294
 20
8.0811
 30
0.0
 10
-4.294
 20
8.0811
 30
0.0
 10
-3.44
 20
8.3394
 30
0.0
 10
-3.44
 20
8.3394
 30
0.0
  0
SPLINE
  5
A8
330
1F
100
AcDbEntity
  8
DEFAULT_1
 62
   250
100
AcDbSpline
210
0.0
220
0.0
230
1.0
 70
    11
 71
     3
 72
    44
 73
    40
 74
     0
 42
0.0000000001
 43
0.0000000001
 40
0.0
 40
0.0
 40
0.0
 40
0.0
 40
0.0909090909090909
 40
0.0909090909090909
 40
0.0909090909090909
 40
0.0909090909090909
 40
0.1818181818181818
 40
0.1818181818181818
 40
0.1818181818181818
 40
0.1818181818181818
 40
0.2727272727272727
 40
0.2727272727272727
 40
0.2727272727272727
 40
0.2727272727272727
 40
0.3636363636363636
 40
0.3636363636363636
 40
0.3636363636363636
 40
0.3636363636363636
 40
0.4545454545454545
 40
0.4545454545454545
 40
0.4545454545454545
 40
0.4545454545454545
 40
0.5454545454545454
 40
0.5454545454545454
 40
0.5454545454545454
 40
0.5454545454545454
 40
0.6363636363636364
 40
0.6363636363636364
 40
0.6363636363636364
 40
0.6363636363636364
 40
0.7272727272727273
 40
0.7272727272727273
 40
0.7272727272727273
 40
0.7272727272727273
 40
0.8181818181818182
 40
0.8181818181818182
 40
0.8181818181818182
 40
0.8181818181818182
 40
1.0
 40
1.0
 40
1.0
 40
1.0
 10
-3.112
 20
6.4906
 30
0.0
 10
-3.112
 20
6.4906
 30
0.0
 10
-2.941
 20
6.5363
 30
0.0
 10
-2.941
 20
6.5363
 30
0.0
 10
-2.941
 20
6.5363
 30
0.0
 10
-2.941
 20
6.5363
 30
0.0
 10
-3.4748
 20
7.5832
 30
0.0
 10
-3.4748
 20
7.5832
 30
0.0
 10
-3.4748
 20
7.5832
 30
0.0
 10
-3.4748
 20
7.5832
 30
0.0
 10
-2.941
 20
6.5363
 30
0.0
 10
-2.941
 20
6.5363
 30
0.0
 10
-2.941
 20
6.5363
 30
0.0
 10
-2.941
 20
6.5363
 30
0.0
 10
0.3476
 20
7.4175
 30
0.0
 10
0.3476
 20
7.4175
 30
0.0
 10
0.3476
 20
7.4175
 30
0.0
 10
0.3476
 20
7.4175
 30
0.0
 10
0.2863
 20
8.5911
 30
0.0
 10
0.2863
 20
8.5911
 30
0.0
 10
0.2863
 20
8.5911
 30
0.0
 10
0.2863
 20
8.5911
 30
0.0
 10
0.3476
 20
7.4175
 30
0.0
 10
0.3476
 20
7.4175
 30
0.0
 10
0.3476
 20
7.4175
 30
0.0
 10
0.3476
 20
7.4175
 30
0.0
 10
0.5185
 20
7.4634
 30
0.0
 10
0.5185
 20
7.4634
 30
0.0
 10
0.5185
 20
7.4634
 30
0.0
 10
0.5185
 20
7.4634
 30
0.0
 10
0.3476
 20
7.4175
 30
0.0
 10
0.3476
 20
7.4175
 30
0.0
 10
0.3476
 20
7.4175
 30
0.0
 10
0.3476
 20
7.4175
 30
0.0
 10
-2.941
 20
6.5363
 30
0.0
 10
-2.941
 20
6.5363
 30
0.0
 10
-2.941
 20
6.5363
 30
0.0
 10
-2.941
 20
6.5363
 30
0.0
 10
-3.112
 20
6.4906
 30
0.0
 10
-3.112
 20
6.4906
 30
0.0
  0
SPLINE
  5
A9
330
1F
100
AcDbEntity
  8
DEFAULT_1
 62
   250
100
AcDbSpline
210
0.0
220
0.0
230
1.0
 70
    11
 71
     3
 72
    16
 73
    12
 74
     0
 42
0.0000000001
 43
0.0000000001
 40
0.0
 40
0.0
 40
0.0
 40
0.0
 40
0.25
 40
0.25
 40
0.25
 40
0.25
 40
0.5
 40
0.5
 40
0.5
 40
0.5
 40
1.0
 40
1.0
 40
1.0
 40
1.0
 10
-5.3009
 20
11.8022
 30
0.0
 10
-5.3009
 20
11.8022
 30
0.0
 10
-5.3199
 20
11.7971
 30
0.0
 10
-5.3199
 20
11.7971
 30
0.0
 10
-5.3199
 20
11.7971
 30
0.0
 10
-5.3199
 20
11.7971
 30
0.0
 10
-5.6294
 20
11.7141
 30
0.0
 10
-5.6294
 20
11.7141
 30
0.0
 10
-5.6294
 20
11.7141
 30
0.0
 10
-5.6294
 20
11.7141
 30
0.0
 10
-5.3009
 20
11.8022
 30
0.0
 10
-5.3009
 20
11.8022
 30
0.0
  0
SPLINE
  5
AA
330
1F
100
AcDbEntity
  8
DEFAULT_1
 62
   250
100
AcDbSpline
210
0.0
220
0.0
230
1.0
 70
    11
 71
     3
 72
    28
 73
    24
 74
     0
 42
0.0000000001
 43
0.0000000001
 40
0.0
 40
0.0
 40
0.0
 40
0.0
 40
0.1428571428571428
 40
0.1428571428571428
 40
0.1428571428571428
 40
0.1428571428571428
 40
0.2857142857142857
 40
0.2857142857142857
 40
0.2857142857142857
 40
0.2857142857142857
 40
0.4285714285714285
 40
0.4285714285714285
 40
0.4285714285714285
 40
0.4285714285714285
 40
0.5714285714285714
 40
0.5714285714285714
 40
0.5714285714285714
 40
0.5714285714285714
 40
0.7142857142857143
 40
0.7142857142857143
 40
0.7142857142857143
 40
0.7142857142857143
 40
1.0
 40
1.0
 40
1.0
 40
1.0
 10
0.0543
 20
8.5715
 30
0.0
 10
0.0543
 20
8.5715
 30
0.0
 10
-0.5936
 20
10.9892
 30
0.0
 10
-0.5936
 20
10.9892
 30
0.0
 10
-0.5936
 20
10.9892
 30
0.0
 10
-0.5936
 20
10.9892
 30
0.0
 10
-0.628
 20
11.1176
 30
0.0
 10
-0.628
 20
11.1176
 30
0.0
 10
-0.628
 20
11.1176
 30
0.0
 10
-0.628
 20
11.1176
 30
0.0
 10
-0.5936
 20
10.9892
 30
0.0
 10
-0.5936
 20
10.9892
 30
0.0
 10
-0.5936
 20
10.9892
 30
0.0
 10
-0.5936
 20
10.9892
 30
0.0
 10
0.0543
 20
8.5715
 30
0.0
 10
0.0543
 20
8.5715
 30
0.0
 10
0.0543
 20
8.5715
 30
0.0
 10
0.0543
 20
8.5715
 30
0.0
 10
0.2436
 20
8.6222
 30
0.0
 10
0.2436
 20
8.6222
 30
0.0
 10
0.2436
 20
8.6222
 30
0.0
 10
0.2436
 20
8.6222
 30
0.0
 10
0.0543
 20
8.5715
 30
0.0
 10
0.0543
 20
8.5715
 30
0.0
  0
SPLINE
  5
AB
330
1F
100
AcDbEntity
  8
DEFAULT_1
 62
   250
100
AcDbSpline
210
0.0
220
0.0
230
1.0
 70
    27
 71
     3
 72
    12
 73
     8
 74
     0
 42
0.0000000001
 43
0.0000000001
 40
0.0
 40
0.0
 40
0.0
 40
0.0
 40
0.3333333333333333
 40
0.3333333333333333
 40
0.3333333333333333
 40
0.3333333333333333
 40
1.0
 40
1.0
 40
1.0
 40
1.0
 10
-3.2639
 20
7.6824
 30
0.0
 10
-3.2639
 20
7.6824
 30
0.0
 10
-3.44
 20
8.3394
 30
0.0
 10
-3.44
 20
8.3394
 30
0.0
 10
-3.44
 20
8.3394
 30
0.0
 10
-3.44
 20
8.3394
 30
0.0
 10
-3.2639
 20
7.6824
 30
0.0
 10
-3.2639
 20
7.6824
 30
0.0
  0
SPLINE
  5
AC
330
1F
100
AcDbEntity
  8
DEFAULT_1
 62
   250
100
AcDbSpline
210
0.0
220
0.0
230
1.0
 70
    27
 71
     3
 72
    12
 73
     8
 74
     0
 42
0.0000000001
 43
0.0000000001
 40
0.0
 40
0.0
 40
0.0
 40
0.0
 40
0.3333333333333333
 40
0.3333333333333333
 40
0.3333333333333333
 40
0.3333333333333333
 40
1.0
 40
1.0
 40
1.0
 40
1.0
 10
-4.3326
 20
8.1882
 30
0.0
 10
-4.3326
 20
8.1882
 30
0.0
 10
-4.6611
 20
8.1002
 30
0.0
 10
-4.6611
 20
8.1002
 30
0.0
 10
-4.6611
 20
8.1002
 30
0.0
 10
-4.6611
 20
8.1002
 30
0.0
 10
-4.3326
 20
8.1882
 30
0.0
 10
-4.3326
 20
8.1882
 30
0.0
  0
SPLINE
  5
AD
330
1F
100
AcDbEntity
  8
DEFAULT_1
 62
   250
100
AcDbSpline
210
0.0
220
0.0
230
1.0
 70
    11
 71
     3
 72
    68
 73
    64
 74
     0
 42
0.0000000001
 43
0.0000000001
 40
0.0
 40
0.0
 40
0.0
 40
0.0
 40
0.0588235294117647
 40
0.0588235294117647
 40
0.0588235294117647
 40
0.0588235294117647
 40
0.1176470588235294
 40
0.1176470588235294
 40
0.1176470588235294
 40
0.1176470588235294
 40
0.1764705882352941
 40
0.1764705882352941
 40
0.1764705882352941
 40
0.1764705882352941
 40
0.2352941176470588
 40
0.2352941176470588
 40
0.2352941176470588
 40
0.2352941176470588
 40
0.2941176470588235
 40
0.2941176470588235
 40
0.2941176470588235
 40
0.2941176470588235
 40
0.3529411764705883
 40
0.3529411764705883
 40
0.3529411764705883
 40
0.3529411764705883
 40
0.4117647058823529
 40
0.4117647058823529
 40
0.4117647058823529
 40
0.4117647058823529
 40
0.4705882352941176
 40
0.4705882352941176
 40
0.4705882352941176
 40
0.4705882352941176
 40
0.5294117647058824
 40
0.5294117647058824
 40
0.5294117647058824
 40
0.5294117647058824
 40
0.5882352941176471
 40
0.5882352941176471
 40
0.5882352941176471
 40
0.5882352941176471
 40
0.6470588235294118
 40
0.6470588235294118
 40
0.6470588235294118
 40
0.6470588235294118
 40
0.7058823529411765
 40
0.7058823529411765
 40
0.7058823529411765
 40
0.7058823529411765
 40
0.7647058823529411
 40
0.7647058823529411
 40
0.7647058823529411
 40
0.7647058823529411
 40
0.8235294117647058
 40
0.8235294117647058
 40
0.8235294117647058
 40
0.8235294117647058
 40
0.8823529411764706
 40
0.8823529411764706
 40
0.8823529411764706
 40
0.8823529411764706
 40
1.0
 40
1.0
 40
1.0
 40
1.0
 10
1.3955
 20
2.5885
 30
0.0
 10
1.3955
 20
2.5885
 30
0.0
 10
1.3932
 20
2.5986
 30
0.0
 10
1.3932
 20
2.5986
 30
0.0
 10
1.3932
 20
2.5986
 30
0.0
 10
1.3932
 20
2.5986
 30
0.0
 10
1.0895
 20
3.9191
 30
0.0
 10
1.0895
 20
3.9191
 30
0.0
 10
1.0895
 20
3.9191
 30
0.0
 10
1.0895
 20
3.9191
 30
0.0
 10
1.0666
 20
3.9129
 30
0.0
 10
1.0666
 20
3.9129
 30
0.0
 10
1.0666
 20
3.9129
 30
0.0
 10
1.0666
 20
3.9129
 30
0.0
 10
0.88
 20
5.0954
 30
0.0
 10
0.88
 20
5.0954
 30
0.0
 10
0.88
 20
5.0954
 30
0.0
 10
0.88
 20
5.0954
 30
0.0
 10
0.7994
 20
5.0738
 30
0.0
 10
0.7994
 20
5.0738
 30
0.0
 10
0.7994
 20
5.0738
 30
0.0
 10
0.7994
 20
5.0738
 30
0.0
 10
0.695
 20
6.2782
 30
0.0
 10
0.695
 20
6.2782
 30
0.0
 10
0.695
 20
6.2782
 30
0.0
 10
0.695
 20
6.2782
 30
0.0
 10
0.613
 20
6.2562
 30
0.0
 10
0.613
 20
6.2562
 30
0.0
 10
0.613
 20
6.2562
 30
0.0
 10
0.613
 20
6.2562
 30
0.0
 10
0.5613
 20
7.4321
 30
0.0
 10
0.5613
 20
7.4321
 30
0.0
 10
0.5613
 20
7.4321
 30
0.0
 10
0.5613
 20
7.4321
 30
0.0
 10
0.613
 20
6.2562
 30
0.0
 10
0.613
 20
6.2562
 30
0.0
 10
0.613
 20
6.2562
 30
0.0
 10
0.613
 20
6.2562
 30
0.0
 10
0.695
 20
6.2782
 30
0.0
 10
0.695
 20
6.2782
 30
0.0
 10
0.695
 20
6.2782
 30
0.0
 10
0.695
 20
6.2782
 30
0.0
 10
0.7994
 20
5.0738
 30
0.0
 10
0.7994
 20
5.0738
 30
0.0
 10
0.7994
 20
5.0738
 30
0.0
 10
0.7994
 20
5.0738
 30
0.0
 10
0.88
 20
5.0954
 30
0.0
 10
0.88
 20
5.0954
 30
0.0
 10
0.88
 20
5.0954
 30
0.0
 10
0.88
 20
5.0954
 30
0.0
 10
1.0666
 20
3.9129
 30
0.0
 10
1.0666
 20
3.9129
 30
0.0
 10
1.0666
 20
3.9129
 30
0.0
 10
1.0666
 20
3.9129
 30
0.0
 10
1.0895
 20
3.9191
 30
0.0
 10
1.0895
 20
3.9191
 30
0.0
 10
1.0895
 20
3.9191
 30
0.0
 10
1.0895
 20
3.9191
 30
0.0
 10
1.3932
 20
2.5986
 30
0.0
 10
1.3932
 20
2.5986
 30
0.0
 10
1.3932
 20
2.5986
 30
0.0
 10
1.3932
 20
2.5986
 30
0.0
 10
1.3955
 20
2.5885
 30
0.0
 10
1.3955
 20
2.5885
 30
0.0
  0
SPLINE
  5
AE
330
1F
100
AcDbEntity
  8
DEFAULT_1
 62
   250
100
AcDbSpline
210
0.0
220
0.0
230
1.0
 70
    27
 71
     3
 72
    12
 73
     8
 74
     0
 42
0.0000000001
 43
0.0000000001
 40
0.0
 40
0.0
 40
0.0
 40
0.0
 40
0.3333333333333333
 40
0.3333333333333333
 40
0.3333333333333333
 40
0.3333333333333333
 40
1.0
 40
1.0
 40
1.0
 40
1.0
 10
-3.4533
 20
7.6315
 30
0.0
 10
-3.4533
 20
7.6315
 30
0.0
 10
0.0543
 20
8.5715
 30
0.0
 10
0.0543
 20
8.5715
 30
0.0
 10
0.0543
 20
8.5715
 30
0.0
 10
0.0543
 20
8.5715
 30
0.0
 10
-3.4533
 20
7.6315
 30
0.0
 10
-3.4533
 20
7.6315
 30
0.0
  0
SPLINE
  5
AF
330
1F
100
AcDbEntity
  8
DEFAULT_1
 62
   250
100
AcDbSpline
210
0.0
220
0.0
230
1.0
 70
    11
 71
     3
 72
    20
 73
    16
 74
     0
 42
0.0000000001
 43
0.0000000001
 40
0.0
 40
0.0
 40
0.0
 40
0.0
 40
0.2
 40
0.2
 40
0.2
 40
0.2
 40
0.4
 40
0.4
 40
0.4
 40
0.4
 40
0.6
 40
0.6
 40
0.6
 40
0.6
 40
1.0
 40
1.0
 40
1.0
 40
1.0
 10
-2.5903
 20
5.3979
 30
0.0
 10
-2.5903
 20
5.3979
 30
0.0
 10
-3.1334
 20
6.442
 30
0.0
 10
-3.1334
 20
6.442
 30
0.0
 10
-3.1334
 20
6.442
 30
0.0
 10
-3.1334
 20
6.442
 30
0.0
 10
-2.5903
 20
5.3979
 30
0.0
 10
-2.5903
 20
5.3979
 30
0.0
 10
-2.5903
 20
5.3979
 30
0.0
 10
-2.5903
 20
5.3979
 30
0.0
 10
0.613
 20
6.2562
 30
0.0
 10
0.613
 20
6.2562
 30
0.0
 10
0.613
 20
6.2562
 30
0.0
 10
0.613
 20
6.2562
 30
0.0
 10
-2.5903
 20
5.3979
 30
0.0
 10
-2.5903
 20
5.3979
 30
0.0
  0
SPLINE
  5
B0
330
1F
100
AcDbEntity
  8
DEFAULT_1
 62
   250
100
AcDbSpline
210
0.0
220
0.0
230
1.0
 70
    11
 71
     3
 72
    20
 73
    16
 74
     0
 42
0.0000000001
 43
0.0000000001
 40
0.0
 40
0.0
 40
0.0
 40
0.0
 40
0.2
 40
0.2
 40
0.2
 40
0.2
 40
0.4
 40
0.4
 40
0.4
 40
0.4
 40
0.6
 40
0.6
 40
0.6
 40
0.6
 40
1.0
 40
1.0
 40
1.0
 40
1.0
 10
-2.1605
 20
4.2807
 30
0.0
 10
-2.1605
 20
4.2807
 30
0.0
 10
-2.6724
 20
5.3759
 30
0.0
 10
-2.6724
 20
5.3759
 30
0.0
 10
-2.6724
 20
5.3759
 30
0.0
 10
-2.6724
 20
5.3759
 30
0.0
 10
-2.5903
 20
5.3979
 30
0.0
 10
-2.5903
 20
5.3979
 30
0.0
 10
-2.5903
 20
5.3979
 30
0.0
 10
-2.5903
 20
5.3979
 30
0.0
 10
-2.6724
 20
5.3759
 30
0.0
 10
-2.6724
 20
5.3759
 30
0.0
 10
-2.6724
 20
5.3759
 30
0.0
 10
-2.6724
 20
5.3759
 30
0.0
 10
-2.1605
 20
4.2807
 30
0.0
 10
-2.1605
 20
4.2807
 30
0.0
  0
SPLINE
  5
B1
330
1F
100
AcDbEntity
  8
DEFAULT_1
 62
   250
100
AcDbSpline
210
0.0
220
0.0
230
1.0
 70
    11
 71
     3
 72
    20
 73
    16
 74
     0
 42
0.0000000001
 43
0.0000000001
 40
0.0
 40
0.0
 40
0.0
 40
0.0
 40
0.2
 40
0.2
 40
0.2
 40
0.2
 40
0.4
 40
0.4
 40
0.4
 40
0.4
 40
0.6
 40
0.6
 40
0.6
 40
0.6
 40
1.0
 40
1.0
 40
1.0
 40
1.0
 10
-1.8114
 20
3.1418
 30
0.0
 10
-1.8114
 20
3.1418
 30
0.0
 10
-2.2411
 20
4.2591
 30
0.0
 10
-2.2411
 20
4.2591
 30
0.0
 10
-2.2411
 20
4.2591
 30
0.0
 10
-2.2411
 20
4.2591
 30
0.0
 10
0.7994
 20
5.0738
 30
0.0
 10
0.7994
 20
5.0738
 30
0.0
 10
0.7994
 20
5.0738
 30
0.0
 10
0.7994
 20
5.0738
 30
0.0
 10
-2.2411
 20
4.2591
 30
0.0
 10
-2.2411
 20
4.2591
 30
0.0
 10
-2.2411
 20
4.2591
 30
0.0
 10
-2.2411
 20
4.2591
 30
0.0
 10
-1.8114
 20
3.1418
 30
0.0
 10
-1.8114
 20
3.1418
 30
0.0
  0
SPLINE
  5
B2
330
1F
100
AcDbEntity
  8
DEFAULT_1
 62
   250
100
AcDbSpline
210
0.0
220
0.0
230
1.0
 70
    11
 71
     3
 72
    20
 73
    16
 74
     0
 42
0.0000000001
 43
0.0000000001
 40
0.0
 40
0.0
 40
0.0
 40
0.0
 40
0.2
 40
0.2
 40
0.2
 40
0.2
 40
0.4
 40
0.4
 40
0.4
 40
0.4
 40
0.6
 40
0.6
 40
0.6
 40
0.6
 40
1.0
 40
1.0
 40
1.0
 40
1.0
 10
-1.4445
 20
1.864
 30
0.0
 10
-1.4445
 20
1.864
 30
0.0
 10
-1.8344
 20
3.1356
 30
0.0
 10
-1.8344
 20
3.1356
 30
0.0
 10
-1.8344
 20
3.1356
 30
0.0
 10
-1.8344
 20
3.1356
 30
0.0
 10
1.0666
 20
3.9129
 30
0.0
 10
1.0666
 20
3.9129
 30
0.0
 10
1.0666
 20
3.9129
 30
0.0
 10
1.0666
 20
3.9129
 30
0.0
 10
-1.8344
 20
3.1356
 30
0.0
 10
-1.8344
 20
3.1356
 30
0.0
 10
-1.8344
 20
3.1356
 30
0.0
 10
-1.8344
 20
3.1356
 30
0.0
 10
-1.4445
 20
1.864
 30
0.0
 10
-1.4445
 20
1.864
 30
0.0
  0
SPLINE
  5
B3
330
1F
100
AcDbEntity
  8
DEFAULT_1
 62
   250
100
AcDbSpline
210
0.0
220
0.0
230
1.0
 70
     8
 71
     3
 72
    48
 73
    44
 74
     0
 42
0.0000000001
 43
0.0000000001
 40
0.0
 40
0.0
 40
0.0
 40
0.0
 40
0.0833333333333333
 40
0.0833333333333333
 40
0.0833333333333333
 40
0.0833333333333333
 40
0.1666666666666667
 40
0.1666666666666667
 40
0.1666666666666667
 40
0.1666666666666667
 40
0.25
 40
0.25
 40
0.25
 40
0.25
 40
0.3333333333333333
 40
0.3333333333333333
 40
0.3333333333333333
 40
0.3333333333333333
 40
0.4166666666666667
 40
0.4166666666666667
 40
0.4166666666666667
 40
0.4166666666666667
 40
0.5
 40
0.5
 40
0.5
 40
0.5
 40
0.5833333333333334
 40
0.5833333333333334
 40
0.5833333333333334
 40
0.5833333333333334
 40
0.6666666666666666
 40
0.6666666666666666
 40
0.6666666666666666
 40
0.6666666666666666
 40
0.75
 40
0.75
 40
0.75
 40
0.75
 40
0.8333333333333334
 40
0.8333333333333334
 40
0.8333333333333334
 40
0.8333333333333334
 40
1.0
 40
1.0
 40
1.0
 40
1.0
 10
-6.3101
 20
12.9403
 30
0.0
 10
-6.1286
 20
12.9889
 30
0.0
 10
-5.9422
 20
12.8812
 30
0.0
 10
-5.8936
 20
12.6997
 30
0.0
 10
-5.8936
 20
12.6997
 30
0.0
 10
-5.8936
 20
12.6997
 30
0.0
 10
-4.4115
 20
7.079
 30
0.0
 10
-4.4115
 20
7.079
 30
0.0
 10
-4.4115
 20
7.079
 30
0.0
 10
-4.4115
 20
7.079
 30
0.0
 10
-4.4115
 20
6.965
 30
0.0
 10
-4.4115
 20
6.965
 30
0.0
 10
-4.4115
 20
6.965
 30
0.0
 10
-4.4115
 20
6.965
 30
0.0
 10
-4.4529
 20
6.8718
 30
0.0
 10
-4.4529
 20
6.8718
 30
0.0
 10
-4.4529
 20
6.8718
 30
0.0
 10
-4.4529
 20
6.8718
 30
0.0
 10
-4.546
 20
6.7578
 30
0.0
 10
-4.546
 20
6.7578
 30
0.0
 10
-4.546
 20
6.7578
 30
0.0
 10
-4.546
 20
6.7578
 30
0.0
 10
-4.6081
 20
6.7474
 30
0.0
 10
-4.6081
 20
6.7474
 30
0.0
 10
-4.6081
 20
6.7474
 30
0.0
 10
-4.6081
 20
6.7474
 30
0.0
 10
-4.546
 20
6.623
 30
0.0
 10
-4.546
 20
6.623
 30
0.0
 10
-4.546
 20
6.623
 30
0.0
 10
-4.546
 20
6.623
 30
0.0
 10
-7.0389
 20
5.9285
 30
0.0
 10
-7.0389
 20
5.9285
 30
0.0
 10
-7.0389
 20
5.9285
 30
0.0
 10
-7.0389
 20
5.9285
 30
0.0
 10
-8.7973
 20
12.3654
 30
0.0
 10
-8.7973
 20
12.3654
 30
0.0
 10
-8.7973
 20
12.3654
 30
0.0
 10
-8.7973
 20
12.3654
 30
0.0
 10
-6.2424
 20
13.0288
 30
0.0
 10
-6.2424
 20
13.0288
 30
0.0
 10
-6.2424
 20
13.0288
 30
0.0
 10
-6.2424
 20
13.0288
 30
0.0
 10
-6.2113
 20
12.9044
 30
0.0
 10
-6.2113
 20
12.9044
 30
0.0
  0
SPLINE
  5
B4
330
1F
100
AcDbEntity
  8
DEFAULT_1
 62
   250
100
AcDbSpline
210
0.0
220
0.0
230
1.0
 70
     8
 71
     3
 72
   132
 73
   128
 74
     0
 42
0.0000000001
 43
0.0000000001
 40
0.0
 40
0.0
 40
0.0
 40
0.0
 40
0.0303030303030303
 40
0.0303030303030303
 40
0.0303030303030303
 40
0.0303030303030303
 40
0.0606060606060606
 40
0.0606060606060606
 40
0.0606060606060606
 40
0.0606060606060606
 40
0.0909090909090909
 40
0.0909090909090909
 40
0.0909090909090909
 40
0.0909090909090909
 40
0.1212121212121212
 40
0.1212121212121212
 40
0.1212121212121212
 40
0.1212121212121212
 40
0.1515151515151515
 40
0.1515151515151515
 40
0.1515151515151515
 40
0.1515151515151515
 40
0.1818181818181818
 40
0.1818181818181818
 40
0.1818181818181818
 40
0.1818181818181818
 40
0.2121212121212121
 40
0.2121212121212121
 40
0.2121212121212121
 40
0.2121212121212121
 40
0.2424242424242424
 40
0.2424242424242424
 40
0.2424242424242424
 40
0.2424242424242424
 40
0.2727272727272727
 40
0.2727272727272727
 40
0.2727272727272727
 40
0.2727272727272727
 40
0.303030303030303
 40
0.303030303030303
 40
0.303030303030303
 40
0.303030303030303
 40
0.3333333333333333
 40
0.3333333333333333
 40
0.3333333333333333
 40
0.3333333333333333
 40
0.3636363636363636
 40
0.3636363636363636
 40
0.3636363636363636
 40
0.3636363636363636
 40
0.3939393939393939
 40
0.3939393939393939
 40
0.3939393939393939
 40
0.3939393939393939
 40
0.4242424242424243
 40
0.4242424242424243
 40
0.4242424242424243
 40
0.4242424242424243
 40
0.4545454545454545
 40
0.4545454545454545
 40
0.4545454545454545
 40
0.4545454545454545
 40
0.4848484848484849
 40
0.4848484848484849
 40
0.4848484848484849
 40
0.4848484848484849
 40
0.5151515151515151
 40
0.5151515151515151
 40
0.5151515151515151
 40
0.5151515151515151
 40
0.5454545454545454
 40
0.5454545454545454
 40
0.5454545454545454
 40
0.5454545454545454
 40
0.5757575757575758
 40
0.5757575757575758
 40
0.5757575757575758
 40
0.5757575757575758
 40
0.6060606060606061
 40
0.6060606060606061
 40
0.6060606060606061
 40
0.6060606060606061
 40
0.6363636363636364
 40
0.6363636363636364
 40
0.6363636363636364
 40
0.6363636363636364
 40
0.6666666666666666
 40
0.6666666666666666
 40
0.6666666666666666
 40
0.6666666666666666
 40
0.696969696969697
 40
0.696969696969697
 40
0.696969696969697
 40
0.696969696969697
 40
0.7272727272727273
 40
0.7272727272727273
 40
0.7272727272727273
 40
0.7272727272727273
 40
0.7575757575757576
 40
0.7575757575757576
 40
0.7575757575757576
 40
0.7575757575757576
 40
0.7878787878787878
 40
0.7878787878787878
 40
0.7878787878787878
 40
0.7878787878787878
 40
0.8181818181818182
 40
0.8181818181818182
 40
0.8181818181818182
 40
0.8181818181818182
 40
0.8484848484848485
 40
0.8484848484848485
 40
0.8484848484848485
 40
0.8484848484848485
 40
0.8787878787878788
 40
0.8787878787878788
 40
0.8787878787878788
 40
0.8787878787878788
 40
0.9090909090909091
 40
0.9090909090909091
 40
0.9090909090909091
 40
0.9090909090909091
 40
0.9393939393939394
 40
0.9393939393939394
 40
0.9393939393939394
 40
0.9393939393939394
 40
1.0
 40
1.0
 40
1.0
 40
1.0
 10
-8.3046
 20
12.5027
 30
0.0
 10
-8.3046
 20
12.5027
 30
0.0
 10
-8.1118
 20
11.7592
 30
0.0
 10
-8.1118
 20
11.7592
 30
0.0
 10
-8.1118
 20
11.7592
 30
0.0
 10
-8.1118
 20
11.7592
 30
0.0
 10
-6.4683
 20
12.2166
 30
0.0
 10
-6.4683
 20
12.2166
 30
0.0
 10
-6.4683
 20
12.2166
 30
0.0
 10
-6.4683
 20
12.2166
 30
0.0
 10
-6.3882
 20
12.2315
 30
0.0
 10
-6.3882
 20
12.2315
 30
0.0
 10
-6.3882
 20
12.2315
 30
0.0
 10
-6.3882
 20
12.2315
 30
0.0
 10
-6.3094
 20
12.2334
 30
0.0
 10
-6.3094
 20
12.2334
 30
0.0
 10
-6.3094
 20
12.2334
 30
0.0
 10
-6.3094
 20
12.2334
 30
0.0
 10
-6.2363
 20
12.2218
 30
0.0
 10
-6.2363
 20
12.2218
 30
0.0
 10
-6.2363
 20
12.2218
 30
0.0
 10
-6.2363
 20
12.2218
 30
0.0
 10
-6.1731
 20
12.1967
 30
0.0
 10
-6.1731
 20
12.1967
 30
0.0
 10
-6.1731
 20
12.1967
 30
0.0
 10
-6.1731
 20
12.1967
 30
0.0
 10
-6.1236
 20
12.1592
 30
0.0
 10
-6.1236
 20
12.1592
 30
0.0
 10
-6.1236
 20
12.1592
 30
0.0
 10
-6.1236
 20
12.1592
 30
0.0
 10
-6.0906
 20
12.1113
 30
0.0
 10
-6.0906
 20
12.1113
 30
0.0
 10
-6.0906
 20
12.1113
 30
0.0
 10
-6.0906
 20
12.1113
 30
0.0
 10
-6.0807
 20
12.0842
 30
0.0
 10
-6.0807
 20
12.0842
 30
0.0
 10
-6.0807
 20
12.0842
 30
0.0
 10
-6.0807
 20
12.0842
 30
0.0
 10
-6.0879
 20
11.9427
 30
0.0
 10
-6.0879
 20
11.9427
 30
0.0
 10
-6.0879
 20
11.9427
 30
0.0
 10
-6.0879
 20
11.9427
 30
0.0
 10
-6.1746
 20
11.8557
 30
0.0
 10
-6.1746
 20
11.8557
 30
0.0
 10
-6.1746
 20
11.8557
 30
0.0
 10
-6.1746
 20
11.8557
 30
0.0
 10
-6.2998
 20
11.7688
 30
0.0
 10
-6.2998
 20
11.7688
 30
0.0
 10
-6.2998
 20
11.7688
 30
0.0
 10
-6.2998
 20
11.7688
 30
0.0
 10
-7.9864
 20
11.3149
 30
0.0
 10
-7.9864
 20
11.3149
 30
0.0
 10
-7.9864
 20
11.3149
 30
0.0
 10
-7.9864
 20
11.3149
 30
0.0
 10
-7.5335
 20
9.5957
 30
0.0
 10
-7.5335
 20
9.5957
 30
0.0
 10
-7.5335
 20
9.5957
 30
0.0
 10
-7.5335
 20
9.5957
 30
0.0
 10
-5.789
 20
10.069
 30
0.0
 10
-5.789
 20
10.069
 30
0.0
 10
-5.789
 20
10.069
 30
0.0
 10
-5.789
 20
10.069
 30
0.0
 10
-5.5771
 20
9.9917
 30
0.0
 10
-5.5771
 20
9.9917
 30
0.0
 10
-5.5771
 20
9.9917
 30
0.0
 10
-5.5771
 20
9.9917
 30
0.0
 10
-5.4903
 20
9.8758
 30
0.0
 10
-5.4903
 20
9.8758
 30
0.0
 10
-5.4903
 20
9.8758
 30
0.0
 10
-5.4903
 20
9.8758
 30
0.0
 10
-5.4613
 20
9.7406
 30
0.0
 10
-5.4613
 20
9.7406
 30
0.0
 10
-5.4613
 20
9.7406
 30
0.0
 10
-5.4613
 20
9.7406
 30
0.0
 10
-5.4903
 20
9.615
 30
0.0
 10
-5.4903
 20
9.615
 30
0.0
 10
-5.4903
 20
9.615
 30
0.0
 10
-5.4903
 20
9.615
 30
0.0
 10
-5.4999
 20
9.4991
 30
0.0
 10
-5.4999
 20
9.4991
 30
0.0
 10
-5.4999
 20
9.4991
 30
0.0
 10
-5.4999
 20
9.4991
 30
0.0
 10
-5.5771
 20
9.4315
 30
0.0
 10
-5.5771
 20
9.4315
 30
0.0
 10
-5.5771
 20
9.4315
 30
0.0
 10
-5.5771
 20
9.4315
 30
0.0
 10
-7.3504
 20
8.9486
 30
0.0
 10
-7.3504
 20
8.9486
 30
0.0
 10
-7.3504
 20
8.9486
 30
0.0
 10
-7.3504
 20
8.9486
 30
0.0
 10
-6.8974
 20
7.2487
 30
0.0
 10
-6.8974
 20
7.2487
 30
0.0
 10
-6.8974
 20
7.2487
 30
0.0
 10
-6.8974
 20
7.2487
 30
0.0
 10
-5.2108
 20
7.7318
 30
0.0
 10
-5.2108
 20
7.7318
 30
0.0
 10
-5.2108
 20
7.7318
 30
0.0
 10
-5.2108
 20
7.7318
 30
0.0
 10
-5.0566
 20
7.722
 30
0.0
 10
-5.0566
 20
7.722
 30
0.0
 10
-5.0566
 20
7.722
 30
0.0
 10
-5.0566
 20
7.722
 30
0.0
 10
-4.9312
 20
7.6835
 30
0.0
 10
-4.9312
 20
7.6835
 30
0.0
 10
-4.9312
 20
7.6835
 30
0.0
 10
-4.9312
 20
7.6835
 30
0.0
 10
-4.8445
 20
7.6061
 30
0.0
 10
-4.8445
 20
7.6061
 30
0.0
 10
-4.8445
 20
7.6061
 30
0.0
 10
-4.8445
 20
7.6061
 30
0.0
 10
-4.8445
 20
7.4805
 30
0.0
 10
-4.8445
 20
7.4805
 30
0.0
 10
-4.8445
 20
7.4805
 30
0.0
 10
-4.8445
 20
7.4805
 30
0.0
 10
-4.9023
 20
7.3453
 30
0.0
 10
-4.9023
 20
7.3453
 30
0.0
 10
-4.9023
 20
7.3453
 30
0.0
 10
-4.9023
 20
7.3453
 30
0.0
 10
-5.1433
 20
7.2392
 30
0.0
 10
-5.1433
 20
7.2392
 30
0.0
 10
-5.1433
 20
7.2392
 30
0.0
 10
-5.1433
 20
7.2392
 30
0.0
 10
-6.7913
 20
6.7851
 30
0.0
 10
-6.7913
 20
6.7851
 30
0.0
 10
-6.7913
 20
6.7851
 30
0.0
 10
-6.7913
 20
6.7851
 30
0.0
 10
-6.6045
 20
6.0943
 30
0.0
 10
-6.6045
 20
6.0943
 30
0.0
  0
ENDSEC
  0
SECTION
  2
OBJECTS
  0
DICTIONARY
  5
C
330
0
100
AcDbDictionary
  3
ACAD_GROUP
350
D
  3
ACAD_LAYOUT
350
1A
  3
ACAD_MATERIAL
350
3B
  3
ACAD_MLEADERSTYLE
350
D7
  3
ACAD_MLINESTYLE
350
17
  3
ACAD_PLOTSETTINGS
350
19
  3
ACAD_VISUALSTYLE
350
2A
  3
ACDBHEADERROUNDTRIPXREC
350
B5
  3
ACDBVARIABLEDICTIONARY
350
D5
  0
DICTIONARY
  5
D
102
{ACAD_REACTORS
330
C
102
}
330
C
100
AcDbDictionary
  0
DICTIONARY
  5
1A
102
{ACAD_REACTORS
330
C
102
}
330
C
100
AcDbDictionary
  0
DICTIONARY
  5
3B
102
{ACAD_REACTORS
330
C
102
}
330
C
100
AcDbDictionary
  3
BYBLOCK
350
3D
  3
BYLAYER
350
3C
  3
GLOBAL
350
3E
  0
DICTIONARY
  5
D7
102
{ACAD_REACTORS
330
C
102
}
330
C
100
AcDbDictionary
  0
DICTIONARY
  5
17
102
{ACAD_REACTORS
330
C
102
}
330
C
100
AcDbDictionary
  3
STANDARD
350
18
  0
DICTIONARY
  5
19
102
{ACAD_REACTORS
330
C
102
}
330
C
100
AcDbDictionary
  0
DICTIONARY
  5
2A
102
{ACAD_REACTORS
330
C
102
}
330
C
100
AcDbDictionary
  3
2DWIREFRAME
350
2F
  3
3D_HIDDEN
350
31
  3
3DWIREFRAME
350
30
  3
BASIC
350
32
  3
BRIGHTEN
350
36
  3
COLORCHANGE
350
3A
  3
CONCEPTUAL
350
34
  3
DIM
350
35
  3
FACEPATTERN
350
39
  3
FLAT
350
2B
  3
FLATWITHEDGES
350
2C
  3
GOURAUD
350
2D
  3
GOURAUDWITHEDGES
350
2E
  3
LINEPATTERN
350
38
  3
REALISTIC
350
33
  3
THICKEN
350
37
  0
DICTIONARY
  5
B5
102
{ACAD_REACTORS
330
C
102
}
330
C
100
AcDbDictionary
  3
CEPSNTYPE
350
BE
  3
DIMSTYLEDATA
350
D4
  3
FINGERPRINTGUID
350
BF
  3
HYPERLINKBASE
350
B8
  3
INSUNITS
350
BD
  3
LAYOUTDICT
350
BA
  3
LWETCUNION
350
BC
  3
PLOTSETDICT
350
BB
  3
PSVPSCALE
350
C1
  3
PUCSBASE
350
C4
  3
PUCSORGBACK
350
CA
  3
PUCSORGBOTTOM
350
C6
  3
PUCSORGFRONT
350
C9
  3
PUCSORGLEFT
350
C7
  3
PUCSORGRIGHT
350
C8
  3
PUCSORGTOP
350
C5
  3
PUCSORTHOREF
350
C2
  3
PUCSORTHOVIEW
350
C3
  3
STYLESHEET
350
B9
  3
TSTACKALIGN
350
B6
  3
TSTACKSIZE
350
B7
  3
UCSBASE
350
CD
  3
UCSORGBACK
350
D3
  3
UCSORGBOTTOM
350
CF
  3
UCSORGFRONT
350
D2
  3
UCSORGLEFT
350
D0
  3
UCSORGRIGHT
350
D1
  3
UCSORGTOP
350
CE
  3
UCSORTHOREF
350
CB
  3
UCSORTHOVIEW
350
CC
  3
VERSIONGUID
350
C0
  0
DICTIONARY
  5
D5
102
{ACAD_REACTORS
330
C
102
}
330
C
100
AcDbDictionary
  3
DIMASSOC
350
D8
  3
HIDETEXT
350
D9
  0
MATERIAL
  5
3D
102
{ACAD_REACTORS
330
3B
102
}
102
{ACAD_XDICTIONARY
360
DC
102
}
330
3B
100
AcDbMaterial
  1
ByBlock
  0
MATERIAL
  5
3C
102
{ACAD_REACTORS
330
3B
102
}
102
{ACAD_XDICTIONARY
360
DA
102
}
330
3B
100
AcDbMaterial
  1
ByLayer
  0
MATERIAL
  5
3E
102
{ACAD_REACTORS
330
3B
102
}
102
{ACAD_XDICTIONARY
360
DE
102
}
330
3B
100
AcDbMaterial
  1
Global
  0
MLINESTYLE
  5
18
102
{ACAD_REACTORS
330
17
102
}
330
17
100
AcDbMlineStyle
  2
Standard
 70
     0
  3

 62
   256
 51
90.0
 52
90.0
 71
     2
 49
0.5
 62
   256
  6
BYLAYER
 49
-0.5
 62
   256
  6
BYLAYER
  0
ACAD_PROXY_OBJECT
  5
2F
102
{ACAD_REACTORS
330
2A
102
}
330
2A
100
AcDbProxyObject
 90
      499
 91
      501
 93
      436
310
42CC9915DA5C99599C985B595049028333333333333E3BF0000000000000FB0107901411070040501600405405064090741402480A0340
1001
ACAD
1000
AcDbSavedByObjectVersion
1070
     0
  0
ACAD_PROXY_OBJECT
  5
31
102
{ACAD_REACTORS
330
2A
102
}
330
2A
100
AcDbProxyObject
 90
      499
 91
      501
 93
      500
310
424CD108121A5919195B90640502408333333333333E3BF0000000000000FB01079024090700405020000000000001110200405405064090740C02480A0340
1001
ACAD
1000
AcDbSavedByObjectVersion
1070
     0
  0
ACAD_PROXY_OBJECT
  5
30
102
{ACAD_REACTORS
330
2A
102
}
330
2A
100
AcDbProxyObject
 90
      499
 91
      501
 93
      436
310
42CCD915DA5C99599C985B595059028333333333333E3BF0000000000000FB0107901411070040501600405405064090741402480A0340
1001
ACAD
1000
AcDbSavedByObjectVersion
1070
     0
  0
ACAD_PROXY_OBJECT
  5
32
102
{ACAD_REACTORS
330
2A
102
}
330
2A
100
AcDbProxyObject
 90
      499
 91
      501
 93
      388
310
4150985CDA58D07406404333333333333E3BF0000000000000FB0107A41107004050150841D405064090741402480A0350
1001
ACAD
1000
AcDbSavedByObjectVersion
1070
     0
  0
ACAD_PROXY_OBJECT
  5
36
102
{ACAD_REACTORS
330
2A
102
}
330
2A
100
AcDbProxyObject
 90
      499
 91
      501
 93
      428
310
42109C9A59DA1D195B90C409028333333333333E3BF0000000000000FB010790141107004050150841D405064090741402480A029950
1001
ACAD
1000
AcDbSavedByObjectVersion
1070
     0
  0
ACAD_PROXY_OBJECT
  5
3A
102
{ACAD_REACTORS
330
2A
102
}
330
2A
100
AcDbProxyObject
 90
      499
 91
      501
 93
      452
310
42D0DBDB1BDC90DA185B99D95104090240C333333333333E3BF0000000000000FB0108901411070040501508421405064090741402480A0350
1001
ACAD
1000
AcDbSavedByObjectVersion
1070
     0
  0
ACAD_PROXY_OBJECT
  5
34
102
{ACAD_REACTORS
330
2A
102
}
330
2A
100
AcDbProxyObject
 90
      499
 91
      501
 93
      500
310
4290DBDB98D95C1D1D585B10940D028333333333333E3BF0000000000000FB0107902409070040501000000000000111010841D405064090740C02480A0340
1001
ACAD
1000
AcDbSavedByObjectVersion
1070
     0
  0
ACAD_PROXY_OBJECT
  5
35
102
{ACAD_REACTORS
330
2A
102
}
330
2A
100
AcDbProxyObject
 90
      499
 91
      501
 93
      412
310
40D11A5B50B409028333333333333E3BF0000000000000FB010790141107004050150841D405064090741402480A02677FFFFFD0
1001
ACAD
1000
AcDbSavedByObjectVersion
1070
     0
  0
ACAD_PROXY_OBJECT
  5
39
102
{ACAD_REACTORS
330
2A
102
}
330
2A
100
AcDbProxyObject
 90
      499
 91
      501
 93
      444
310
42D19858D95C185D1D195C9B90F409028333333333333E3BF0000000000000FB010790141107004050150841D405064090741402480A0350
1001
ACAD
1000
AcDbSavedByObjectVersion
1070
     0
  0
ACAD_PROXY_OBJECT
  5
2B
102
{ACAD_REACTORS
330
2A
102
}
330
2A
100
AcDbProxyObject
 90
      499
 91
      501
 93
      388
310
41119B185D240901404333333333333E3BF0000000000000F9010740A41107004050150841D405064090741402480A1B50
1001
ACAD
1000
AcDbSavedByObjectVersion
1070
     0
  0
ACAD_PROXY_OBJECT
  5
2C
102
{ACAD_REACTORS
330
2A
102
}
330
2A
100
AcDbProxyObject
 90
      499
 91
      501
 93
      476
310
43519B185D15DA5D1A115919D95CD0140901404333333333333E3BF0000000000000F9010740901411070040501600405405064090741402480A1B50
1001
ACAD
1000
AcDbSavedByObjectVersion
1070
     0
  0
ACAD_PROXY_OBJECT
  5
2D
102
{ACAD_REACTORS
330
2A
102
}
330
2A
100
AcDbProxyObject
 90
      499
 91
      501
 93
      412
310
41D1DBDD5C985D5910240902404333333333333E3BF0000000000000F9010740A411070040501641D405064090741402480A1B50
1001
ACAD
1000
AcDbSavedByObjectVersion
1070
     0
  0
ACAD_PROXY_OBJECT
  5
2E
102
{ACAD_REACTORS
330
2A
102
}
330
2A
100
AcDbProxyObject
 90
      499
 91
      501
 93
      500
310
4411DBDD5C985D5915DA5D1A115919D95CD0340902404333333333333E3BF0000000000000F9010740901411070040501600405405064090741402480A1B50
1001
ACAD
1000
AcDbSavedByObjectVersion
1070
     0
  0
ACAD_PROXY_OBJECT
  5
38
102
{ACAD_REACTORS
330
2A
102
}
330
2A
100
AcDbProxyObject
 90
      499
 91
      501
 93
      444
310
42D31A5B995C185D1D195C9B90E409028333333333333E3BF0000000000000FB010790141107004050750841D405064090741402483A0350
1001
ACAD
1000
AcDbSavedByObjectVersion
1070
     0
  0
ACAD_PROXY_OBJECT
  5
33
102
{ACAD_REACTORS
330
2A
102
}
330
2A
100
AcDbProxyObject
 90
      499
 91
      501
 93
      420
310
425499585B1A5CDD1A58D08409028333333333333E3BF0000000000000FB01079019070040501508421405064090741402480A1B40
1001
ACAD
1000
AcDbSavedByObjectVersion
1070
     0
  0
ACAD_PROXY_OBJECT
  5
37
102
{ACAD_REACTORS
330
2A
102
}
330
2A
100
AcDbProxyObject
 90
      499
 91
      501
 93
      412
310
41D51A1A58DAD95B90D409028333333333333E3BF0000000000000FB010790141107004050150C41D405064090741402480A0350
1001
ACAD
1000
AcDbSavedByObjectVersion
1070
     0
  0
XRECORD
  5
BE
102
{ACAD_REACTORS
330
B5
102
}
330
B5
100
AcDbXrecord
 90
        0
  0
XRECORD
  5
D4
102
{ACAD_REACTORS
330
B5
102
}
330
B5
100
AcDbXrecord
1000
DSTYLE
1002
{
1070
   340
340
11
1002
}
  0
XRECORD
  5
BF
102
{ACAD_REACTORS
330
B5
102
}
330
B5
100
AcDbXrecord
  1
{CD0C7F1E-D834-4630-9578-556132479895}
  0
XRECORD
  5
B8
102
{ACAD_REACTORS
330
B5
102
}
330
B5
100
AcDbXrecord
  1

  0
XRECORD
  5
BD
102
{ACAD_REACTORS
330
B5
102
}
330
B5
100
AcDbXrecord
 90
        4
  0
XRECORD
  5
BA
102
{ACAD_REACTORS
330
B5
102
}
330
B5
100
AcDbXrecord
340
1A
  0
XRECORD
  5
BC
102
{ACAD_REACTORS
330
B5
102
}
330
B5
100
AcDbXrecord
 90
    10781
  0
XRECORD
  5
BB
102
{ACAD_REACTORS
330
B5
102
}
330
B5
100
AcDbXrecord
340
19
  0
XRECORD
  5
C1
102
{ACAD_REACTORS
330
B5
102
}
330
B5
100
AcDbXrecord
 40
0.0
  0
XRECORD
  5
C4
102
{ACAD_REACTORS
330
B5
102
}
330
B5
100
AcDbXrecord
340
0
  0
XRECORD
  5
CA
102
{ACAD_REACTORS
330
B5
102
}
330
B5
100
AcDbXrecord
 10
0.0
 20
0.0
 30
0.0
  0
XRECORD
  5
C6
102
{ACAD_REACTORS
330
B5
102
}
330
B5
100
AcDbXrecord
 10
0.0
 20
0.0
 30
0.0
  0
XRECORD
  5
C9
102
{ACAD_REACTORS
330
B5
102
}
330
B5
100
AcDbXrecord
 10
0.0
 20
0.0
 30
0.0
  0
XRECORD
  5
C7
102
{ACAD_REACTORS
330
B5
102
}
330
B5
100
AcDbXrecord
 10
0.0
 20
0.0
 30
0.0
  0
XRECORD
  5
C8
102
{ACAD_REACTORS
330
B5
102
}
330
B5
100
AcDbXrecord
 10
0.0
 20
0.0
 30
0.0
  0
XRECORD
  5
C5
102
{ACAD_REACTORS
330
B5
102
}
330
B5
100
AcDbXrecord
 10
0.0
 20
0.0
 30
0.0
  0
XRECORD
  5
C2
102
{ACAD_REACTORS
330
B5
102
}
330
B5
100
AcDbXrecord
340
0
  0
XRECORD
  5
C3
102
{ACAD_REACTORS
330
B5
102
}
330
B5
100
AcDbXrecord
 70
     0
  0
XRECORD
  5
B9
102
{ACAD_REACTORS
330
B5
102
}
330
B5
100
AcDbXrecord
  1

  0
XRECORD
  5
B6
102
{ACAD_REACTORS
330
B5
102
}
330
B5
100
AcDbXrecord
 90
        1
  0
XRECORD
  5
B7
102
{ACAD_REACTORS
330
B5
102
}
330
B5
100
AcDbXrecord
 90
       70
  0
XRECORD
  5
CD
102
{ACAD_REACTORS
330
B5
102
}
330
B5
100
AcDbXrecord
340
0
  0
XRECORD
  5
D3
102
{ACAD_REACTORS
330
B5
102
}
330
B5
100
AcDbXrecord
 10
0.0
 20
0.0
 30
0.0
  0
XRECORD
  5
CF
102
{ACAD_REACTORS
330
B5
102
}
330
B5
100
AcDbXrecord
 10
0.0
 20
0.0
 30
0.0
  0
XRECORD
  5
D2
102
{ACAD_REACTORS
330
B5
102
}
330
B5
100
AcDbXrecord
 10
0.0
 20
0.0
 30
0.0
  0
XRECORD
  5
D0
102
{ACAD_REACTORS
330
B5
102
}
330
B5
100
AcDbXrecord
 10
0.0
 20
0.0
 30
0.0
  0
XRECORD
  5
D1
102
{ACAD_REACTORS
330
B5
102
}
330
B5
100
AcDbXrecord
 10
0.0
 20
0.0
 30
0.0
  0
XRECORD
  5
CE
102
{ACAD_REACTORS
330
B5
102
}
330
B5
100
AcDbXrecord
 10
0.0
 20
0.0
 30
0.0
  0
XRECORD
  5
CB
102
{ACAD_REACTORS
330
B5
102
}
330
B5
100
AcDbXrecord
340
0
  0
XRECORD
  5
CC
102
{ACAD_REACTORS
330
B5
102
}
330
B5
100
AcDbXrecord
 70
     0
  0
XRECORD
  5
C0
102
{ACAD_REACTORS
330
B5
102
}
330
B5
100
AcDbXrecord
  1
{FAEB1C32-E019-11D5-929B-00C0DF256EC4}
  0
DICTIONARYVAR
  5
D8
102
{ACAD_REACTORS
330
D5
102
}
330
D5
100
DictionaryVariables
280
     0
  1
2
  0
DICTIONARYVAR
  5
D9
102
{ACAD_REACTORS
330
D5
102
}
330
D5
100
DictionaryVariables
280
     0
  1
1
  0
DICTIONARY
  5
DC
330
3D
100
AcDbDictionary
280
     1
  3
ACAD_XREC_ROUNDTRIP
360
DD
  0
DICTIONARY
  5
DA
330
3C
100
AcDbDictionary
280
     1
  3
ACAD_XREC_ROUNDTRIP
360
DB
  0
DICTIONARY
  5
DE
330
3E
100
AcDbDictionary
280
     1
  3
ACAD_XREC_ROUNDTRIP
360
DF
  0
XRECORD
  5
DD
102
{ACAD_REACTORS
330
DC
102
}
330
DC
100
AcDbXrecord
102
MATERIAL
148
0.0
149
0.0
149
0.0
 93
        0
 94
      127
282
     0
 72
     1
 77
     1
171
     1
175
     1
179
     1
273
     0
  0
XRECORD
  5
DB
102
{ACAD_REACTORS
330
DA
102
}
330
DA
100
AcDbXrecord
102
MATERIAL
148
0.0
149
0.0
149
0.0
 93
        0
 94
      127
282
     0
 72
     1
 77
     1
171
     1
175
     1
179
     1
273
     0
  0
XRECORD
  5
DF
102
{ACAD_REACTORS
330
DE
102
}
330
DE
100
AcDbXrecord
102
MATERIAL
148
0.0
149
0.0
149
0.0
 93
        0
 94
      127
282
     0
 72
     1
 77
     1
171
     1
175
     1
179
     1
273
     0
  0
ENDSEC
  0
EOF
