  0
SECTION
  2
HEADER
  9
$ACADVER
  1
AC1015
  9
$ACADMAINTVER
 70
     6
  9
$DWGCODEPAGE
  3
ANSI_1250
  9
$INSBASE
 10
0.0
 20
0.0
 30
0.0
  9
$EXTMIN
 10
-22.4972
 20
-35.8415
 30
0.0
  9
$EXTMAX
 10
22.4973
 20
35.8414
 30
0.0
  9
$LIMMIN
 10
0.0
 20
0.0
  9
$LIMMAX
 10
12.0
 20
9.0
  9
$ORTHOMODE
 70
     0
  9
$REGENMODE
 70
     1
  9
$FILLMODE
 70
     1
  9
$QTEXTMODE
 70
     0
  9
$MIRRTEXT
 70
     1
  9
$LTSCALE
 40
1.0
  9
$ATTMODE
 70
     1
  9
$TEXTSIZE
 40
0.2
  9
$TRACEWID
 40
0.05
  9
$TEXTSTYLE
  7
Standard
  9
$CLAYER
  8
0
  9
$CELTYPE
  6
ByLayer
  9
$CECOLOR
 62
   256
  9
$CELTSCALE
 40
1.0
  9
$DISPSILH
 70
     0
  9
$DIMSCALE
 40
1.0
  9
$DIMASZ
 40
0.18
  9
$DIMEXO
 40
0.0625
  9
$DIMDLI
 40
0.38
  9
$DIMRND
 40
0.0
  9
$DIMDLE
 40
0.0
  9
$DIMEXE
 40
0.18
  9
$DIMTP
 40
0.0
  9
$DIMTM
 40
0.0
  9
$DIMTXT
 40
0.18
  9
$DIMCEN
 40
0.09
  9
$DIMTSZ
 40
0.0
  9
$DIMTOL
 70
     0
  9
$DIMLIM
 70
     0
  9
$DIMTIH
 70
     1
  9
$DIMTOH
 70
     1
  9
$DIMSE1
 70
     0
  9
$DIMSE2
 70
     0
  9
$DIMTAD
 70
     0
  9
$DIMZIN
 70
     0
  9
$DIMBLK
  1

  9
$DIMASO
 70
     1
  9
$DIMSHO
 70
     1
  9
$DIMPOST
  1

  9
$DIMAPOST
  1

  9
$DIMALT
 70
     0
  9
$DIMALTD
 70
     2
  9
$DIMALTF
 40
25.4
  9
$DIMLFAC
 40
1.0
  9
$DIMTOFL
 70
     0
  9
$DIMTVP
 40
0.0
  9
$DIMTIX
 70
     0
  9
$DIMSOXD
 70
     0
  9
$DIMSAH
 70
     0
  9
$DIMBLK1
  1

  9
$DIMBLK2
  1

  9
$DIMSTYLE
  2
Standard
  9
$DIMCLRD
 70
     0
  9
$DIMCLRE
 70
     0
  9
$DIMCLRT
 70
     0
  9
$DIMTFAC
 40
1.0
  9
$DIMGAP
 40
0.09
  9
$DIMJUST
 70
     0
  9
$DIMSD1
 70
     0
  9
$DIMSD2
 70
     0
  9
$DIMTOLJ
 70
     1
  9
$DIMTZIN
 70
     0
  9
$DIMALTZ
 70
     0
  9
$DIMALTTZ
 70
     0
  9
$DIMUPT
 70
     0
  9
$DIMDEC
 70
     4
  9
$DIMTDEC
 70
     4
  9
$DIMALTU
 70
     2
  9
$DIMALTTD
 70
     2
  9
$DIMTXSTY
  7
Standard
  9
$DIMAUNIT
 70
     0
  9
$DIMADEC
 70
     0
  9
$DIMALTRND
 40
0.0
  9
$DIMAZIN
 70
     0
  9
$DIMDSEP
 70
    46
  9
$DIMATFIT
 70
     3
  9
$DIMFRAC
 70
     0
  9
$DIMLDRBLK
  1

  9
$DIMLUNIT
 70
     2
  9
$DIMLWD
 70
    -2
  9
$DIMLWE
 70
    -2
  9
$DIMTMOVE
 70
     0
  9
$LUNITS
 70
     2
  9
$LUPREC
 70
     4
  9
$SKETCHINC
 40
0.1
  9
$FILLETRAD
 40
0.5
  9
$AUNITS
 70
     0
  9
$AUPREC
 70
     0
  9
$MENU
  1
.
  9
$ELEVATION
 40
0.0
  9
$PELEVATION
 40
0.0
  9
$THICKNESS
 40
0.0
  9
$LIMCHECK
 70
     0
  9
$CHAMFERA
 40
0.5
  9
$CHAMFERB
 40
0.5
  9
$CHAMFERC
 40
1.0
  9
$CHAMFERD
 40
0.0
  9
$SKPOLY
 70
     0
  9
$TDCREATE
 40
2459416.625918588
  9
$TDUCREATE
 40
2459416.542585255
  9
$TDUPDATE
 40
2459416.625918599
  9
$TDUUPDATE
 40
2459416.542585266
  9
$TDINDWG
 40
0.0000000116
  9
$TDUSRTIMER
 40
0.0000000116
  9
$USRTIMER
 70
     1
  9
$ANGBASE
 50
0.0
  9
$ANGDIR
 70
     0
  9
$PDMODE
 70
     0
  9
$PDSIZE
 40
0.0
  9
$PLINEWID
 40
0.0
  9
$SPLFRAME
 70
     0
  9
$SPLINETYPE
 70
     6
  9
$SPLINESEGS
 70
     8
  9
$HANDSEED
  5
E6
  9
$SURFTAB1
 70
     6
  9
$SURFTAB2
 70
     6
  9
$SURFTYPE
 70
     6
  9
$SURFU
 70
     6
  9
$SURFV
 70
     6
  9
$UCSBASE
  2

  9
$UCSNAME
  2

  9
$UCSORG
 10
0.0
 20
0.0
 30
0.0
  9
$UCSXDIR
 10
1.0
 20
0.0
 30
0.0
  9
$UCSYDIR
 10
0.0
 20
1.0
 30
0.0
  9
$UCSORTHOREF
  2

  9
$UCSORTHOVIEW
 70
     0
  9
$UCSORGTOP
 10
0.0
 20
0.0
 30
0.0
  9
$UCSORGBOTTOM
 10
0.0
 20
0.0
 30
0.0
  9
$UCSORGLEFT
 10
0.0
 20
0.0
 30
0.0
  9
$UCSORGRIGHT
 10
0.0
 20
0.0
 30
0.0
  9
$UCSORGFRONT
 10
0.0
 20
0.0
 30
0.0
  9
$UCSORGBACK
 10
0.0
 20
0.0
 30
0.0
  9
$PUCSBASE
  2

  9
$PUCSNAME
  2

  9
$PUCSORG
 10
0.0
 20
0.0
 30
0.0
  9
$PUCSXDIR
 10
1.0
 20
0.0
 30
0.0
  9
$PUCSYDIR
 10
0.0
 20
1.0
 30
0.0
  9
$PUCSORTHOREF
  2

  9
$PUCSORTHOVIEW
 70
     0
  9
$PUCSORGTOP
 10
0.0
 20
0.0
 30
0.0
  9
$PUCSORGBOTTOM
 10
0.0
 20
0.0
 30
0.0
  9
$PUCSORGLEFT
 10
0.0
 20
0.0
 30
0.0
  9
$PUCSORGRIGHT
 10
0.0
 20
0.0
 30
0.0
  9
$PUCSORGFRONT
 10
0.0
 20
0.0
 30
0.0
  9
$PUCSORGBACK
 10
0.0
 20
0.0
 30
0.0
  9
$USERI1
 70
     0
  9
$USERI2
 70
     0
  9
$USERI3
 70
     0
  9
$USERI4
 70
     0
  9
$USERI5
 70
     0
  9
$USERR1
 40
0.0
  9
$USERR2
 40
0.0
  9
$USERR3
 40
0.0
  9
$USERR4
 40
0.0
  9
$USERR5
 40
0.0
  9
$WORLDVIEW
 70
     1
  9
$SHADEDGE
 70
     3
  9
$SHADEDIF
 70
    70
  9
$TILEMODE
 70
     1
  9
$MAXACTVP
 70
    64
  9
$PINSBASE
 10
0.0
 20
0.0
 30
0.0
  9
$PLIMCHECK
 70
     0
  9
$PEXTMIN
 10
1.000000000000000E+20
 20
1.000000000000000E+20
 30
1.000000000000000E+20
  9
$PEXTMAX
 10
-1.000000000000000E+20
 20
-1.000000000000000E+20
 30
-1.000000000000000E+20
  9
$PLIMMIN
 10
0.0
 20
0.0
  9
$PLIMMAX
 10
12.0
 20
9.0
  9
$UNITMODE
 70
     0
  9
$VISRETAIN
 70
     1
  9
$PLINEGEN
 70
     0
  9
$PSLTSCALE
 70
     1
  9
$TREEDEPTH
 70
  3020
  9
$CMLSTYLE
  2
Standard
  9
$CMLJUST
 70
     0
  9
$CMLSCALE
 40
1.0
  9
$PROXYGRAPHICS
 70
     1
  9
$MEASUREMENT
 70
     0
  9
$CELWEIGHT
370
    -1
  9
$ENDCAPS
280
     0
  9
$JOINSTYLE
280
     0
  9
$LWDISPLAY
290
     0
  9
$INSUNITS
 70
     4
  9
$HYPERLINKBASE
  1

  9
$STYLESHEET
  1

  9
$XEDIT
290
     1
  9
$CEPSNTYPE
380
     0
  9
$PSTYLEMODE
290
     1
  9
$FINGERPRINTGUID
  2
{C1D3906A-AD6D-4DD5-BD50-93BA2F9363E4}
  9
$VERSIONGUID
  2
{FAEB1C32-E019-11D5-929B-00C0DF256EC4}
  9
$EXTNAMES
290
     1
  9
$PSVPSCALE
 40
0.0
  9
$OLESTARTUP
290
     0
  0
ENDSEC
  0
SECTION
  2
CLASSES
  0
CLASS
  1
ACDBDICTIONARYWDFLT
  2
AcDbDictionaryWithDefault
  3
ObjectDBX Classes
 90
        0
280
     0
281
     0
  0
CLASS
  1
VISUALSTYLE
  2
AcDbVisualStyle
  3
ObjectDBX Classes
 90
     4095
280
     0
281
     0
  0
CLASS
  1
MATERIAL
  2
AcDbMaterial
  3
ObjectDBX Classes
 90
     1153
280
     0
281
     0
  0
CLASS
  1
DICTIONARYVAR
  2
AcDbDictionaryVar
  3
ObjectDBX Classes
 90
        0
280
     0
281
     0
  0
CLASS
  1
ACDBPLACEHOLDER
  2
AcDbPlaceHolder
  3
ObjectDBX Classes
 90
        0
280
     0
281
     0
  0
CLASS
  1
LAYOUT
  2
AcDbLayout
  3
ObjectDBX Classes
 90
        0
280
     0
281
     0
  0
ENDSEC
  0
SECTION
  2
TABLES
  0
TABLE
  2
VPORT
  5
8
330
0
100
AcDbSymbolTable
 70
     1
  0
VPORT
  5
29
330
8
100
AcDbSymbolTableRecord
100
AcDbViewportTableRecord
  2
*Active
 70
     0
 10
0.0
 20
0.0
 11
1.0
 21
1.0
 12
10.42990654205607
 22
4.5
 13
0.0
 23
0.0
 14
0.5
 24
0.5
 15
0.5
 25
0.5
 16
0.0
 26
0.0
 36
1.0
 17
0.0
 27
0.0
 37
0.0
 40
9.0
 41
1.972972972850329
 42
50.0
 43
0.0
 44
0.0
 50
0.0
 51
0.0
 71
     0
 72
   100
 73
     1
 74
     3
 75
     0
 76
     0
 77
     0
 78
     0
281
     0
 65
     1
110
0.0
120
0.0
130
0.0
111
1.0
121
0.0
131
0.0
112
0.0
122
1.0
132
0.0
 79
     0
146
0.0
  0
ENDTAB
  0
TABLE
  2
LTYPE
  5
5
330
0
100
AcDbSymbolTable
 70
     2
  0
LTYPE
  5
14
330
5
100
AcDbSymbolTableRecord
100
AcDbLinetypeTableRecord
  2
ByBlock
 70
     0
  3

 72
    65
 73
     0
 40
0.0
  0
LTYPE
  5
15
330
5
100
AcDbSymbolTableRecord
100
AcDbLinetypeTableRecord
  2
ByLayer
 70
     0
  3

 72
    65
 73
     0
 40
0.0
  0
LTYPE
  5
16
330
5
100
AcDbSymbolTableRecord
100
AcDbLinetypeTableRecord
  2
Continuous
 70
     0
  3
Solid line
 72
    65
 73
     0
 40
0.0
  0
LTYPE
  5
72
330
5
100
AcDbSymbolTableRecord
100
AcDbLinetypeTableRecord
  2
New Line1
 70
     0
  3

 72
    65
 73
     4
 40
1.2
 49
0.5
 74
     4
 75
     0
340
0
 46
1.0
 50
0.0
 44
0.0
 45
0.0
 49
-0.3
 74
     4
 75
     0
340
0
 46
1.0
 50
0.0
 44
0.0
 45
0.0
 49
0.1
 74
     4
 75
     0
340
0
 46
1.0
 50
0.0
 44
0.0
 45
0.0
 49
-0.3
 74
     4
 75
     0
340
0
 46
1.0
 50
0.0
 44
0.0
 45
0.0
  0
ENDTAB
  0
TABLE
  2
LAYER
  5
2
330
0
100
AcDbSymbolTable
 70
     2
  0
LAYER
  5
10
330
2
100
AcDbSymbolTableRecord
100
AcDbLayerTableRecord
  2
0
 70
     0
 62
     7
  6
Continuous
370
    -3
390
F
  0
LAYER
  5
40
330
2
100
AcDbSymbolTableRecord
100
AcDbLayerTableRecord
  2
DEFAULT_1
 70
     0
 62
     7
  6
Continuous
370
    -3
390
F
  0
ENDTAB
  0
TABLE
  2
STYLE
  5
3
330
0
100
AcDbSymbolTable
 70
     1
  0
STYLE
  5
11
330
3
100
AcDbSymbolTableRecord
100
AcDbTextStyleTableRecord
  2
Standard
 70
     0
 40
0.0
 41
1.0
 50
0.0
 71
     0
 42
0.2
  3
txt
  4

  0
ENDTAB
  0
TABLE
  2
VIEW
  5
6
330
0
100
AcDbSymbolTable
 70
     0
  0
ENDTAB
  0
TABLE
  2
UCS
  5
7
330
0
100
AcDbSymbolTable
 70
     0
  0
ENDTAB
  0
TABLE
  2
APPID
  5
9
330
0
100
AcDbSymbolTable
 70
     2
  0
APPID
  5
12
330
9
100
AcDbSymbolTableRecord
100
AcDbRegAppTableRecord
  2
ACAD
 70
     0
  0
APPID
  5
3F
330
9
100
AcDbSymbolTableRecord
100
AcDbRegAppTableRecord
  2
ODA
 70
     0
  0
ENDTAB
  0
TABLE
  2
DIMSTYLE
  5
A
330
0
100
AcDbSymbolTable
 70
     1
100
AcDbDimStyleTable
  0
DIMSTYLE
105
27
330
A
100
AcDbSymbolTableRecord
100
AcDbDimStyleTableRecord
  2
Standard
 70
     0
340
11
  0
ENDTAB
  0
TABLE
  2
BLOCK_RECORD
  5
1
330
0
100
AcDbSymbolTable
 70
     1
  0
BLOCK_RECORD
  5
1F
330
1
100
AcDbSymbolTableRecord
100
AcDbBlockTableRecord
  2
*Model_Space
340
22
  0
BLOCK_RECORD
  5
1B
330
1
100
AcDbSymbolTableRecord
100
AcDbBlockTableRecord
  2
*Paper_Space
340
1E
  0
BLOCK_RECORD
  5
23
330
1
100
AcDbSymbolTableRecord
100
AcDbBlockTableRecord
  2
*Paper_Space0
340
26
  0
ENDTAB
  0
ENDSEC
  0
SECTION
  2
BLOCKS
  0
BLOCK
  5
20
330
1F
100
AcDbEntity
  8
0
100
AcDbBlockBegin
  2
*Model_Space
 70
     0
 10
0.0
 20
0.0
 30
0.0
  3
*Model_Space
  1

  0
ENDBLK
  5
21
330
1F
100
AcDbEntity
  8
0
100
AcDbBlockEnd
  0
BLOCK
  5
1C
330
1B
100
AcDbEntity
 67
     1
  8
0
100
AcDbBlockBegin
  2
*Paper_Space
 70
     0
 10
0.0
 20
0.0
 30
0.0
  3
*Paper_Space
  1

  0
ENDBLK
  5
1D
330
1B
100
AcDbEntity
 67
     1
  8
0
100
AcDbBlockEnd
  0
BLOCK
  5
24
330
23
100
AcDbEntity
  8
0
100
AcDbBlockBegin
  2
*Paper_Space0
 70
     0
 10
0.0
 20
0.0
 30
0.0
  3
*Paper_Space0
  1

  0
ENDBLK
  5
25
330
23
100
AcDbEntity
  8
0
100
AcDbBlockEnd
  0
ENDSEC
  0
SECTION
  2
ENTITIES
  0
SPLINE
  5
41
330
1F
100
AcDbEntity
  8
DEFAULT_1
 62
   251
100
AcDbSpline
210
0.0
220
0.0
230
1.0
 70
    11
 71
     3
 72
    72
 73
    68
 74
     0
 42
0.0000000001
 43
0.0000000001
 40
0.0
 40
0.0
 40
0.0
 40
0.0
 40
0.0555555555555556
 40
0.0555555555555556
 40
0.0555555555555556
 40
0.0555555555555556
 40
0.1111111111111111
 40
0.1111111111111111
 40
0.1111111111111111
 40
0.1111111111111111
 40
0.1666666666666667
 40
0.1666666666666667
 40
0.1666666666666667
 40
0.1666666666666667
 40
0.2222222222222222
 40
0.2222222222222222
 40
0.2222222222222222
 40
0.2222222222222222
 40
0.2777777777777778
 40
0.2777777777777778
 40
0.2777777777777778
 40
0.2777777777777778
 40
0.3333333333333333
 40
0.3333333333333333
 40
0.3333333333333333
 40
0.3333333333333333
 40
0.3888888888888889
 40
0.3888888888888889
 40
0.3888888888888889
 40
0.3888888888888889
 40
0.4444444444444444
 40
0.4444444444444444
 40
0.4444444444444444
 40
0.4444444444444444
 40
0.5
 40
0.5
 40
0.5
 40
0.5
 40
0.5555555555555556
 40
0.5555555555555556
 40
0.5555555555555556
 40
0.5555555555555556
 40
0.6111111111111112
 40
0.6111111111111112
 40
0.6111111111111112
 40
0.6111111111111112
 40
0.6666666666666666
 40
0.6666666666666666
 40
0.6666666666666666
 40
0.6666666666666666
 40
0.7222222222222222
 40
0.7222222222222222
 40
0.7222222222222222
 40
0.7222222222222222
 40
0.7777777777777778
 40
0.7777777777777778
 40
0.7777777777777778
 40
0.7777777777777778
 40
0.8333333333333334
 40
0.8333333333333334
 40
0.8333333333333334
 40
0.8333333333333334
 40
0.8888888888888888
 40
0.8888888888888888
 40
0.8888888888888888
 40
0.8888888888888888
 40
1.0
 40
1.0
 40
1.0
 40
1.0
 10
-7.4689
 20
24.5039
 30
0.0
 10
-7.4689
 20
24.5039
 30
0.0
 10
-7.491
 20
27.7561
 30
0.0
 10
-7.491
 20
27.7561
 30
0.0
 10
-7.491
 20
27.7561
 30
0.0
 10
-7.491
 20
27.7561
 30
0.0
 10
-12.3526
 20
27.7121
 30
0.0
 10
-12.3526
 20
27.7121
 30
0.0
 10
-12.3526
 20
27.7121
 30
0.0
 10
-12.3526
 20
27.7121
 30
0.0
 10
-12.6503
 20
27.8444
 30
0.0
 10
-12.6503
 20
27.8444
 30
0.0
 10
-12.6503
 20
27.8444
 30
0.0
 10
-12.6503
 20
27.8444
 30
0.0
 10
-12.7274
 20
28.1089
 30
0.0
 10
-12.7274
 20
28.1089
 30
0.0
 10
-12.7274
 20
28.1089
 30
0.0
 10
-12.7274
 20
28.1089
 30
0.0
 10
-12.6723
 20
28.3074
 30
0.0
 10
-12.6723
 20
28.3074
 30
0.0
 10
-12.6723
 20
28.3074
 30
0.0
 10
-12.6723
 20
28.3074
 30
0.0
 10
-12.4188
 20
28.4066
 30
0.0
 10
-12.4188
 20
28.4066
 30
0.0
 10
-12.4188
 20
28.4066
 30
0.0
 10
-12.4188
 20
28.4066
 30
0.0
 10
-5.1646
 20
29.3546
 30
0.0
 10
-5.1646
 20
29.3546
 30
0.0
 10
-5.1646
 20
29.3546
 30
0.0
 10
-5.1646
 20
29.3546
 30
0.0
 10
2.5084
 20
29.7074
 30
0.0
 10
2.5084
 20
29.7074
 30
0.0
 10
2.5084
 20
29.7074
 30
0.0
 10
2.5084
 20
29.7074
 30
0.0
 10
10.2254
 20
29.3767
 30
0.0
 10
10.2254
 20
29.3767
 30
0.0
 10
10.2254
 20
29.3767
 30
0.0
 10
10.2254
 20
29.3767
 30
0.0
 10
17.744
 20
28.3405
 30
0.0
 10
17.744
 20
28.3405
 30
0.0
 10
17.744
 20
28.3405
 30
0.0
 10
17.744
 20
28.3405
 30
0.0
 10
17.8322
 20
28.1751
 30
0.0
 10
17.8322
 20
28.1751
 30
0.0
 10
17.8322
 20
28.1751
 30
0.0
 10
17.8322
 20
28.1751
 30
0.0
 10
17.7771
 20
27.9987
 30
0.0
 10
17.7771
 20
27.9987
 30
0.0
 10
17.7771
 20
27.9987
 30
0.0
 10
17.7771
 20
27.9987
 30
0.0
 10
17.6558
 20
27.8444
 30
0.0
 10
17.6558
 20
27.8444
 30
0.0
 10
17.6558
 20
27.8444
 30
0.0
 10
17.6558
 20
27.8444
 30
0.0
 10
17.2149
 20
27.6901
 30
0.0
 10
17.2149
 20
27.6901
 30
0.0
 10
17.2149
 20
27.6901
 30
0.0
 10
17.2149
 20
27.6901
 30
0.0
 10
8.3402
 20
27.7452
 30
0.0
 10
8.3402
 20
27.7452
 30
0.0
 10
8.3402
 20
27.7452
 30
0.0
 10
8.3402
 20
27.7452
 30
0.0
 10
8.3182
 20
24.4489
 30
0.0
 10
8.3182
 20
24.4489
 30
0.0
 10
8.3182
 20
24.4489
 30
0.0
 10
8.3182
 20
24.4489
 30
0.0
 10
-7.4689
 20
24.5039
 30
0.0
 10
-7.4689
 20
24.5039
 30
0.0
  0
SPLINE
  5
42
330
1F
100
AcDbEntity
  8
DEFAULT_1
 62
   251
100
AcDbSpline
210
0.0
220
0.0
230
1.0
 70
    11
 71
     3
 72
   132
 73
   128
 74
     0
 42
0.0000000001
 43
0.0000000001
 40
0.0
 40
0.0
 40
0.0
 40
0.0
 40
0.0303030303030303
 40
0.0303030303030303
 40
0.0303030303030303
 40
0.0303030303030303
 40
0.0606060606060606
 40
0.0606060606060606
 40
0.0606060606060606
 40
0.0606060606060606
 40
0.0909090909090909
 40
0.0909090909090909
 40
0.0909090909090909
 40
0.0909090909090909
 40
0.1212121212121212
 40
0.1212121212121212
 40
0.1212121212121212
 40
0.1212121212121212
 40
0.1515151515151515
 40
0.1515151515151515
 40
0.1515151515151515
 40
0.1515151515151515
 40
0.1818181818181818
 40
0.1818181818181818
 40
0.1818181818181818
 40
0.1818181818181818
 40
0.2121212121212121
 40
0.2121212121212121
 40
0.2121212121212121
 40
0.2121212121212121
 40
0.2424242424242424
 40
0.2424242424242424
 40
0.2424242424242424
 40
0.2424242424242424
 40
0.2727272727272727
 40
0.2727272727272727
 40
0.2727272727272727
 40
0.2727272727272727
 40
0.303030303030303
 40
0.303030303030303
 40
0.303030303030303
 40
0.303030303030303
 40
0.3333333333333333
 40
0.3333333333333333
 40
0.3333333333333333
 40
0.3333333333333333
 40
0.3636363636363636
 40
0.3636363636363636
 40
0.3636363636363636
 40
0.3636363636363636
 40
0.3939393939393939
 40
0.3939393939393939
 40
0.3939393939393939
 40
0.3939393939393939
 40
0.4242424242424243
 40
0.4242424242424243
 40
0.4242424242424243
 40
0.4242424242424243
 40
0.4545454545454545
 40
0.4545454545454545
 40
0.4545454545454545
 40
0.4545454545454545
 40
0.4848484848484849
 40
0.4848484848484849
 40
0.4848484848484849
 40
0.4848484848484849
 40
0.5151515151515151
 40
0.5151515151515151
 40
0.5151515151515151
 40
0.5151515151515151
 40
0.5454545454545454
 40
0.5454545454545454
 40
0.5454545454545454
 40
0.5454545454545454
 40
0.5757575757575758
 40
0.5757575757575758
 40
0.5757575757575758
 40
0.5757575757575758
 40
0.6060606060606061
 40
0.6060606060606061
 40
0.6060606060606061
 40
0.6060606060606061
 40
0.6363636363636364
 40
0.6363636363636364
 40
0.6363636363636364
 40
0.6363636363636364
 40
0.6666666666666666
 40
0.6666666666666666
 40
0.6666666666666666
 40
0.6666666666666666
 40
0.696969696969697
 40
0.696969696969697
 40
0.696969696969697
 40
0.696969696969697
 40
0.7272727272727273
 40
0.7272727272727273
 40
0.7272727272727273
 40
0.7272727272727273
 40
0.7575757575757576
 40
0.7575757575757576
 40
0.7575757575757576
 40
0.7575757575757576
 40
0.7878787878787878
 40
0.7878787878787878
 40
0.7878787878787878
 40
0.7878787878787878
 40
0.8181818181818182
 40
0.8181818181818182
 40
0.8181818181818182
 40
0.8181818181818182
 40
0.8484848484848485
 40
0.8484848484848485
 40
0.8484848484848485
 40
0.8484848484848485
 40
0.8787878787878788
 40
0.8787878787878788
 40
0.8787878787878788
 40
0.8787878787878788
 40
0.9090909090909091
 40
0.9090909090909091
 40
0.9090909090909091
 40
0.9090909090909091
 40
0.9393939393939394
 40
0.9393939393939394
 40
0.9393939393939394
 40
0.9393939393939394
 40
1.0
 40
1.0
 40
1.0
 40
1.0
 10
12.5904
 20
-17.0088
 30
0.0
 10
12.5904
 20
-17.0088
 30
0.0
 10
12.6124
 20
5.1282
 30
0.0
 10
12.6124
 20
5.1282
 30
0.0
 10
12.6124
 20
5.1282
 30
0.0
 10
12.6124
 20
5.1282
 30
0.0
 10
13.6597
 20
5.1061
 30
0.0
 10
13.6597
 20
5.1061
 30
0.0
 10
13.6597
 20
5.1061
 30
0.0
 10
13.6597
 20
5.1061
 30
0.0
 10
13.814
 20
5.2384
 30
0.0
 10
13.814
 20
5.2384
 30
0.0
 10
13.814
 20
5.2384
 30
0.0
 10
13.814
 20
5.2384
 30
0.0
 10
13.803
 20
8.215
 30
0.0
 10
13.803
 20
8.215
 30
0.0
 10
13.803
 20
8.215
 30
0.0
 10
13.803
 20
8.215
 30
0.0
 10
15.699
 20
8.7003
 30
0.0
 10
15.699
 20
8.7003
 30
0.0
 10
15.699
 20
8.7003
 30
0.0
 10
15.699
 20
8.7003
 30
0.0
 10
15.9966
 20
8.9759
 30
0.0
 10
15.9966
 20
8.9759
 30
0.0
 10
15.9966
 20
8.9759
 30
0.0
 10
15.9966
 20
8.9759
 30
0.0
 10
16.0297
 20
9.4279
 30
0.0
 10
16.0297
 20
9.4279
 30
0.0
 10
16.0297
 20
9.4279
 30
0.0
 10
16.0297
 20
9.4279
 30
0.0
 10
15.8974
 20
9.6594
 30
0.0
 10
15.8974
 20
9.6594
 30
0.0
 10
15.8974
 20
9.6594
 30
0.0
 10
15.8974
 20
9.6594
 30
0.0
 10
15.6328
 20
9.7696
 30
0.0
 10
15.6328
 20
9.7696
 30
0.0
 10
15.6328
 20
9.7696
 30
0.0
 10
15.6328
 20
9.7696
 30
0.0
 10
11.3002
 20
9.8361
 30
0.0
 10
11.3002
 20
9.8361
 30
0.0
 10
11.3002
 20
9.8361
 30
0.0
 10
11.3002
 20
9.8361
 30
0.0
 10
11.2672
 20
10.5417
 30
0.0
 10
11.2672
 20
10.5417
 30
0.0
 10
11.2672
 20
10.5417
 30
0.0
 10
11.2672
 20
10.5417
 30
0.0
 10
-7.265
 20
10.5198
 30
0.0
 10
-7.265
 20
10.5198
 30
0.0
 10
-7.265
 20
10.5198
 30
0.0
 10
-7.265
 20
10.5198
 30
0.0
 10
-7.287
 20
9.9025
 30
0.0
 10
-7.287
 20
9.9025
 30
0.0
 10
-7.287
 20
9.9025
 30
0.0
 10
-7.287
 20
9.9025
 30
0.0
 10
-11.5206
 20
9.8461
 30
0.0
 10
-11.5206
 20
9.8461
 30
0.0
 10
-11.5206
 20
9.8461
 30
0.0
 10
-11.5206
 20
9.8461
 30
0.0
 10
-11.697
 20
9.7248
 30
0.0
 10
-11.697
 20
9.7248
 30
0.0
 10
-11.697
 20
9.7248
 30
0.0
 10
-11.697
 20
9.7248
 30
0.0
 10
-11.9836
 20
9.4933
 30
0.0
 10
-11.9836
 20
9.4933
 30
0.0
 10
-11.9836
 20
9.4933
 30
0.0
 10
-11.9836
 20
9.4933
 30
0.0
 10
-11.9946
 20
9.2949
 30
0.0
 10
-11.9946
 20
9.2949
 30
0.0
 10
-11.9946
 20
9.2949
 30
0.0
 10
-11.9946
 20
9.2949
 30
0.0
 10
-11.9064
 20
8.9311
 30
0.0
 10
-11.9064
 20
8.9311
 30
0.0
 10
-11.9064
 20
8.9311
 30
0.0
 10
-11.9064
 20
8.9311
 30
0.0
 10
-11.719
 20
8.7437
 30
0.0
 10
-11.719
 20
8.7437
 30
0.0
 10
-11.719
 20
8.7437
 30
0.0
 10
-11.719
 20
8.7437
 30
0.0
 10
-11.3221
 20
8.5783
 30
0.0
 10
-11.3221
 20
8.5783
 30
0.0
 10
-11.3221
 20
8.5783
 30
0.0
 10
-11.3221
 20
8.5783
 30
0.0
 10
-9.7015
 20
8.1814
 30
0.0
 10
-9.7015
 20
8.1814
 30
0.0
 10
-9.7015
 20
8.1814
 30
0.0
 10
-9.7015
 20
8.1814
 30
0.0
 10
-9.7346
 20
5.2159
 30
0.0
 10
-9.7346
 20
5.2159
 30
0.0
 10
-9.7346
 20
5.2159
 30
0.0
 10
-9.7346
 20
5.2159
 30
0.0
 10
-9.6685
 20
5.0726
 30
0.0
 10
-9.6685
 20
5.0726
 30
0.0
 10
-9.6685
 20
5.0726
 30
0.0
 10
-9.6685
 20
5.0726
 30
0.0
 10
-8.4889
 20
5.0615
 30
0.0
 10
-8.4889
 20
5.0615
 30
0.0
 10
-8.4889
 20
5.0615
 30
0.0
 10
-8.4889
 20
5.0615
 30
0.0
 10
-8.5271
 20
-16.8986
 30
0.0
 10
-8.5271
 20
-16.8986
 30
0.0
 10
-8.5271
 20
-16.8986
 30
0.0
 10
-8.5271
 20
-16.8986
 30
0.0
 10
-7.6231
 20
-17.3837
 30
0.0
 10
-7.6231
 20
-17.3837
 30
0.0
 10
-7.6231
 20
-17.3837
 30
0.0
 10
-7.6231
 20
-17.3837
 30
0.0
 10
-7.568
 20
-21.9147
 30
0.0
 10
-7.568
 20
-21.9147
 30
0.0
 10
-7.568
 20
-21.9147
 30
0.0
 10
-7.568
 20
-21.9147
 30
0.0
 10
-7.0499
 20
-22.521
 30
0.0
 10
-7.0499
 20
-22.521
 30
0.0
 10
-7.0499
 20
-22.521
 30
0.0
 10
-7.0499
 20
-22.521
 30
0.0
 10
10.992
 20
-22.4934
 30
0.0
 10
10.992
 20
-22.4934
 30
0.0
 10
10.992
 20
-22.4934
 30
0.0
 10
10.992
 20
-22.4934
 30
0.0
 10
11.6039
 20
-22.0524
 30
0.0
 10
11.6039
 20
-22.0524
 30
0.0
 10
11.6039
 20
-22.0524
 30
0.0
 10
11.6039
 20
-22.0524
 30
0.0
 10
11.6092
 20
-17.3947
 30
0.0
 10
11.6092
 20
-17.3947
 30
0.0
 10
11.6092
 20
-17.3947
 30
0.0
 10
11.6092
 20
-17.3947
 30
0.0
 10
12.5904
 20
-17.0088
 30
0.0
 10
12.5904
 20
-17.0088
 30
0.0
  0
SPLINE
  5
43
330
1F
100
AcDbEntity
  8
DEFAULT_1
 62
   251
100
AcDbSpline
210
0.0
220
0.0
230
1.0
 70
    11
 71
     3
 72
    52
 73
    48
 74
     0
 42
0.0000000001
 43
0.0000000001
 40
0.0
 40
0.0
 40
0.0
 40
0.0
 40
0.0769230769230769
 40
0.0769230769230769
 40
0.0769230769230769
 40
0.0769230769230769
 40
0.1538461538461539
 40
0.1538461538461539
 40
0.1538461538461539
 40
0.1538461538461539
 40
0.2307692307692308
 40
0.2307692307692308
 40
0.2307692307692308
 40
0.2307692307692308
 40
0.3076923076923077
 40
0.3076923076923077
 40
0.3076923076923077
 40
0.3076923076923077
 40
0.3846153846153846
 40
0.3846153846153846
 40
0.3846153846153846
 40
0.3846153846153846
 40
0.4615384615384616
 40
0.4615384615384616
 40
0.4615384615384616
 40
0.4615384615384616
 40
0.5384615384615384
 40
0.5384615384615384
 40
0.5384615384615384
 40
0.5384615384615384
 40
0.6153846153846154
 40
0.6153846153846154
 40
0.6153846153846154
 40
0.6153846153846154
 40
0.6923076923076923
 40
0.6923076923076923
 40
0.6923076923076923
 40
0.6923076923076923
 40
0.7692307692307693
 40
0.7692307692307693
 40
0.7692307692307693
 40
0.7692307692307693
 40
0.8461538461538461
 40
0.8461538461538461
 40
0.8461538461538461
 40
0.8461538461538461
 40
1.0
 40
1.0
 40
1.0
 40
1.0
 10
-7.3213
 20
19.1963
 30
0.0
 10
-7.3213
 20
19.1963
 30
0.0
 10
-7.2551
 20
22.9446
 30
0.0
 10
-7.2551
 20
22.9446
 30
0.0
 10
-7.2551
 20
22.9446
 30
0.0
 10
-7.2551
 20
22.9446
 30
0.0
 10
-11.5326
 20
23.2753
 30
0.0
 10
-11.5326
 20
23.2753
 30
0.0
 10
-11.5326
 20
23.2753
 30
0.0
 10
-11.5326
 20
23.2753
 30
0.0
 10
-12.4145
 20
24.0029
 30
0.0
 10
-12.4145
 20
24.0029
 30
0.0
 10
-12.4145
 20
24.0029
 30
0.0
 10
-12.4145
 20
24.0029
 30
0.0
 10
-12.4367
 20
24.3889
 30
0.0
 10
-12.4367
 20
24.3889
 30
0.0
 10
-12.4367
 20
24.3889
 30
0.0
 10
-12.4367
 20
24.3889
 30
0.0
 10
0.0873
 20
24.3555
 30
0.0
 10
0.0873
 20
24.3555
 30
0.0
 10
0.0873
 20
24.3555
 30
0.0
 10
0.0873
 20
24.3555
 30
0.0
 10
3.7307
 20
24.5208
 30
0.0
 10
3.7307
 20
24.5208
 30
0.0
 10
3.7307
 20
24.5208
 30
0.0
 10
3.7307
 20
24.5208
 30
0.0
 10
16.3204
 20
24.3996
 30
0.0
 10
16.3204
 20
24.3996
 30
0.0
 10
16.3204
 20
24.3996
 30
0.0
 10
16.3204
 20
24.3996
 30
0.0
 10
16.2873
 20
24.0468
 30
0.0
 10
16.2873
 20
24.0468
 30
0.0
 10
16.2873
 20
24.0468
 30
0.0
 10
16.2873
 20
24.0468
 30
0.0
 10
15.5376
 20
23.2861
 30
0.0
 10
15.5376
 20
23.2861
 30
0.0
 10
15.5376
 20
23.2861
 30
0.0
 10
15.5376
 20
23.2861
 30
0.0
 10
11.205
 20
22.9003
 30
0.0
 10
11.205
 20
22.9003
 30
0.0
 10
11.205
 20
22.9003
 30
0.0
 10
11.205
 20
22.9003
 30
0.0
 10
11.2161
 20
19.2291
 30
0.0
 10
11.2161
 20
19.2291
 30
0.0
 10
11.2161
 20
19.2291
 30
0.0
 10
11.2161
 20
19.2291
 30
0.0
 10
-7.3213
 20
19.1963
 30
0.0
 10
-7.3213
 20
19.1963
 30
0.0
  0
SPLINE
  5
44
330
1F
100
AcDbEntity
  8
DEFAULT_1
 62
   251
100
AcDbSpline
210
0.0
220
0.0
230
1.0
 70
    11
 71
     3
 72
    28
 73
    24
 74
     0
 42
0.0000000001
 43
0.0000000001
 40
0.0
 40
0.0
 40
0.0
 40
0.0
 40
0.1428571428571428
 40
0.1428571428571428
 40
0.1428571428571428
 40
0.1428571428571428
 40
0.2857142857142857
 40
0.2857142857142857
 40
0.2857142857142857
 40
0.2857142857142857
 40
0.4285714285714285
 40
0.4285714285714285
 40
0.4285714285714285
 40
0.4285714285714285
 40
0.5714285714285714
 40
0.5714285714285714
 40
0.5714285714285714
 40
0.5714285714285714
 40
0.7142857142857143
 40
0.7142857142857143
 40
0.7142857142857143
 40
0.7142857142857143
 40
1.0
 40
1.0
 40
1.0
 40
1.0
 10
-7.1775
 20
18.3477
 30
0.0
 10
-7.1775
 20
18.3477
 30
0.0
 10
-7.1995
 20
11.4905
 30
0.0
 10
-7.1995
 20
11.4905
 30
0.0
 10
-7.1995
 20
11.4905
 30
0.0
 10
-7.1995
 20
11.4905
 30
0.0
 10
-4.0245
 20
11.4905
 30
0.0
 10
-4.0245
 20
11.4905
 30
0.0
 10
-4.0245
 20
11.4905
 30
0.0
 10
-4.0245
 20
11.4905
 30
0.0
 10
8.3448
 20
11.4905
 30
0.0
 10
8.3448
 20
11.4905
 30
0.0
 10
8.3448
 20
11.4905
 30
0.0
 10
8.3448
 20
11.4905
 30
0.0
 10
11.3876
 20
11.4244
 30
0.0
 10
11.3876
 20
11.4244
 30
0.0
 10
11.3876
 20
11.4244
 30
0.0
 10
11.3876
 20
11.4244
 30
0.0
 10
11.3876
 20
18.4359
 30
0.0
 10
11.3876
 20
18.4359
 30
0.0
 10
11.3876
 20
18.4359
 30
0.0
 10
11.3876
 20
18.4359
 30
0.0
 10
-7.1775
 20
18.3477
 30
0.0
 10
-7.1775
 20
18.3477
 30
0.0
  0
SPLINE
  5
45
330
1F
100
AcDbEntity
  8
DEFAULT_1
 62
   250
370
    30
100
AcDbSpline
210
0.0
220
0.0
230
1.0
 70
    24
 71
     3
 72
     8
 73
     4
 74
     0
 42
0.0000000001
 43
0.0000000001
 40
0.0
 40
0.0
 40
0.0
 40
0.0
 40
1.0
 40
1.0
 40
1.0
 40
1.0
 10
-12.7847
 20
28.1443
 30
0.0
 10
-12.7847
 20
28.1443
 30
0.0
 10
17.8394
 20
28.1443
 30
0.0
 10
17.8394
 20
28.1443
 30
0.0
  0
SPLINE
  5
46
330
1F
100
AcDbEntity
  8
DEFAULT_1
 62
   250
370
    30
100
AcDbSpline
210
0.0
220
0.0
230
1.0
 70
     8
 71
     3
 72
    20
 73
    16
 74
     0
 42
0.0000000001
 43
0.0000000001
 40
0.0
 40
0.0
 40
0.0
 40
0.0
 40
0.2
 40
0.2
 40
0.2
 40
0.2
 40
0.4
 40
0.4
 40
0.4
 40
0.4
 40
0.6
 40
0.6
 40
0.6
 40
0.6
 40
1.0
 40
1.0
 40
1.0
 40
1.0
 10
17.7152
 20
28.3616
 30
0.0
 10
17.7152
 20
28.3616
 30
0.0
 10
10.1497
 20
29.3552
 30
0.0
 10
10.1497
 20
29.3552
 30
0.0
 10
10.1497
 20
29.3552
 30
0.0
 10
10.1497
 20
29.3552
 30
0.0
 10
2.5222
 20
29.676
 30
0.0
 10
2.5222
 20
29.676
 30
0.0
 10
2.5222
 20
29.676
 30
0.0
 10
2.5222
 20
29.676
 30
0.0
 10
-5.1055
 20
29.3552
 30
0.0
 10
-5.1055
 20
29.3552
 30
0.0
 10
-5.1055
 20
29.3552
 30
0.0
 10
-5.1055
 20
29.3552
 30
0.0
 10
-12.6709
 20
28.3616
 30
0.0
 10
-12.6709
 20
28.3616
 30
0.0
  0
SPLINE
  5
47
330
1F
100
AcDbEntity
  8
DEFAULT_1
 62
   250
370
    30
100
AcDbSpline
210
0.0
220
0.0
230
1.0
 70
    24
 71
     3
 72
     8
 73
     4
 74
     0
 42
0.0000000001
 43
0.0000000001
 40
0.0
 40
0.0
 40
0.0
 40
0.0
 40
1.0
 40
1.0
 40
1.0
 40
1.0
 10
17.4565
 20
27.7613
 30
0.0
 10
17.4565
 20
27.7613
 30
0.0
 10
-12.4019
 20
27.7613
 30
0.0
 10
-12.4019
 20
27.7613
 30
0.0
  0
SPLINE
  5
48
330
1F
100
AcDbEntity
  8
DEFAULT_1
 62
   250
370
    30
100
AcDbSpline
210
0.0
220
0.0
230
1.0
 70
    24
 71
     3
 72
     8
 73
     4
 74
     0
 42
0.0000000001
 43
0.0000000001
 40
0.0
 40
0.0
 40
0.0
 40
0.0
 40
1.0
 40
1.0
 40
1.0
 40
1.0
 10
17.8394
 20
28.2168
 30
0.0
 10
17.8394
 20
28.2168
 30
0.0
 10
17.8394
 20
28.1443
 30
0.0
 10
17.8394
 20
28.1443
 30
0.0
  0
SPLINE
  5
49
330
1F
100
AcDbEntity
  8
DEFAULT_1
 62
   250
370
    30
100
AcDbSpline
210
0.0
220
0.0
230
1.0
 70
    24
 71
     3
 72
     8
 73
     4
 74
     0
 42
0.0000000001
 43
0.0000000001
 40
0.0
 40
0.0
 40
0.0
 40
0.0
 40
1.0
 40
1.0
 40
1.0
 40
1.0
 10
8.3075
 20
24.4185
 30
0.0
 10
8.3075
 20
24.4185
 30
0.0
 10
8.3075
 20
27.7613
 30
0.0
 10
8.3075
 20
27.7613
 30
0.0
  0
SPLINE
  5
4A
330
1F
100
AcDbEntity
  8
DEFAULT_1
 62
   250
370
    30
100
AcDbSpline
210
0.0
220
0.0
230
1.0
 70
    24
 71
     3
 72
     8
 73
     4
 74
     0
 42
0.0000000001
 43
0.0000000001
 40
0.0
 40
0.0
 40
0.0
 40
0.0
 40
1.0
 40
1.0
 40
1.0
 40
1.0
 10
6.755
 20
24.4185
 30
0.0
 10
6.755
 20
24.4185
 30
0.0
 10
6.755
 20
27.7613
 30
0.0
 10
6.755
 20
27.7613
 30
0.0
  0
SPLINE
  5
4B
330
1F
100
AcDbEntity
  8
DEFAULT_1
 62
   250
370
    30
100
AcDbSpline
210
0.0
220
0.0
230
1.0
 70
    24
 71
     3
 72
     8
 73
     4
 74
     0
 42
0.0000000001
 43
0.0000000001
 40
0.0
 40
0.0
 40
0.0
 40
0.0
 40
1.0
 40
1.0
 40
1.0
 40
1.0
 10
3.0396
 20
24.4185
 30
0.0
 10
3.0396
 20
24.4185
 30
0.0
 10
3.0396
 20
27.7613
 30
0.0
 10
3.0396
 20
27.7613
 30
0.0
  0
SPLINE
  5
4C
330
1F
100
AcDbEntity
  8
DEFAULT_1
 62
   250
370
    30
100
AcDbSpline
210
0.0
220
0.0
230
1.0
 70
    24
 71
     3
 72
     8
 73
     4
 74
     0
 42
0.0000000001
 43
0.0000000001
 40
0.0
 40
0.0
 40
0.0
 40
0.0
 40
1.0
 40
1.0
 40
1.0
 40
1.0
 10
-0.0238
 20
24.4185
 30
0.0
 10
-0.0238
 20
24.4185
 30
0.0
 10
-0.0238
 20
27.7613
 30
0.0
 10
-0.0238
 20
27.7613
 30
0.0
  0
SPLINE
  5
4D
330
1F
100
AcDbEntity
  8
DEFAULT_1
 62
   250
370
    30
100
AcDbSpline
210
0.0
220
0.0
230
1.0
 70
    24
 71
     3
 72
     8
 73
     4
 74
     0
 42
0.0000000001
 43
0.0000000001
 40
0.0
 40
0.0
 40
0.0
 40
0.0
 40
1.0
 40
1.0
 40
1.0
 40
1.0
 10
-7.4859
 20
24.4185
 30
0.0
 10
-7.4859
 20
24.4185
 30
0.0
 10
-7.4859
 20
27.7613
 30
0.0
 10
-7.4859
 20
27.7613
 30
0.0
  0
SPLINE
  5
4E
330
1F
100
AcDbEntity
  8
DEFAULT_1
 62
   250
370
    30
100
AcDbSpline
210
0.0
220
0.0
230
1.0
 70
    24
 71
     3
 72
     8
 73
     4
 74
     0
 42
0.0000000001
 43
0.0000000001
 40
0.0
 40
0.0
 40
0.0
 40
0.0
 40
1.0
 40
1.0
 40
1.0
 40
1.0
 10
-7.5272
 20
24.4185
 30
0.0
 10
-7.5272
 20
24.4185
 30
0.0
 10
-7.5272
 20
27.7613
 30
0.0
 10
-7.5272
 20
27.7613
 30
0.0
  0
SPLINE
  5
4F
330
1F
100
AcDbEntity
  8
DEFAULT_1
 62
   250
370
    30
100
AcDbSpline
210
0.0
220
0.0
230
1.0
 70
    24
 71
     3
 72
     8
 73
     4
 74
     0
 42
0.0000000001
 43
0.0000000001
 40
0.0
 40
0.0
 40
0.0
 40
0.0
 40
1.0
 40
1.0
 40
1.0
 40
1.0
 10
-12.7847
 20
28.2168
 30
0.0
 10
-12.7847
 20
28.2168
 30
0.0
 10
-12.7847
 20
28.1443
 30
0.0
 10
-12.7847
 20
28.1443
 30
0.0
  0
SPLINE
  5
50
330
1F
100
AcDbEntity
  8
DEFAULT_1
 62
   250
370
    30
100
AcDbSpline
210
0.0
220
0.0
230
1.0
 70
     8
 71
     3
 72
    24
 73
    20
 74
     0
 42
0.0000000001
 43
0.0000000001
 40
0.0
 40
0.0
 40
0.0
 40
0.0
 40
0.1666666666666667
 40
0.1666666666666667
 40
0.1666666666666667
 40
0.1666666666666667
 40
0.3333333333333333
 40
0.3333333333333333
 40
0.3333333333333333
 40
0.3333333333333333
 40
0.5
 40
0.5
 40
0.5
 40
0.5
 40
0.6666666666666666
 40
0.6666666666666666
 40
0.6666666666666666
 40
0.6666666666666666
 40
1.0
 40
1.0
 40
1.0
 40
1.0
 10
-12.7847
 20
28.1443
 30
0.0
 10
-12.7847
 20
28.1443
 30
0.0
 10
-12.7847
 20
28.0718
 30
0.0
 10
-12.7847
 20
28.0718
 30
0.0
 10
-12.7847
 20
28.0718
 30
0.0
 10
-12.7847
 20
28.0718
 30
0.0
 10
-12.7744
 20
28.0511
 30
0.0
 10
-12.7744
 20
28.0511
 30
0.0
 10
-12.7744
 20
28.0511
 30
0.0
 10
-12.7744
 20
28.0511
 30
0.0
 10
-12.7641
 20
28.0201
 30
0.0
 10
-12.7641
 20
28.0201
 30
0.0
 10
-12.7641
 20
28.0201
 30
0.0
 10
-12.7641
 20
28.0201
 30
0.0
 10
-12.7537
 20
27.9787
 30
0.0
 10
-12.7537
 20
27.9787
 30
0.0
 10
-12.7537
 20
27.9787
 30
0.0
 10
-12.7537
 20
27.9787
 30
0.0
 10
-12.7434
 20
27.958
 30
0.0
 10
-12.7434
 20
27.958
 30
0.0
  0
SPLINE
  5
51
330
1F
100
AcDbEntity
  8
DEFAULT_1
 62
   250
370
    30
100
AcDbSpline
210
0.0
220
0.0
230
1.0
 70
     8
 71
     3
 72
    68
 73
    64
 74
     0
 42
0.0000000001
 43
0.0000000001
 40
0.0
 40
0.0
 40
0.0
 40
0.0
 40
0.0588235294117647
 40
0.0588235294117647
 40
0.0588235294117647
 40
0.0588235294117647
 40
0.1176470588235294
 40
0.1176470588235294
 40
0.1176470588235294
 40
0.1176470588235294
 40
0.1764705882352941
 40
0.1764705882352941
 40
0.1764705882352941
 40
0.1764705882352941
 40
0.2352941176470588
 40
0.2352941176470588
 40
0.2352941176470588
 40
0.2352941176470588
 40
0.2941176470588235
 40
0.2941176470588235
 40
0.2941176470588235
 40
0.2941176470588235
 40
0.3529411764705883
 40
0.3529411764705883
 40
0.3529411764705883
 40
0.3529411764705883
 40
0.4117647058823529
 40
0.4117647058823529
 40
0.4117647058823529
 40
0.4117647058823529
 40
0.4705882352941176
 40
0.4705882352941176
 40
0.4705882352941176
 40
0.4705882352941176
 40
0.5294117647058824
 40
0.5294117647058824
 40
0.5294117647058824
 40
0.5294117647058824
 40
0.5882352941176471
 40
0.5882352941176471
 40
0.5882352941176471
 40
0.5882352941176471
 40
0.6470588235294118
 40
0.6470588235294118
 40
0.6470588235294118
 40
0.6470588235294118
 40
0.7058823529411765
 40
0.7058823529411765
 40
0.7058823529411765
 40
0.7058823529411765
 40
0.7647058823529411
 40
0.7647058823529411
 40
0.7647058823529411
 40
0.7647058823529411
 40
0.8235294117647058
 40
0.8235294117647058
 40
0.8235294117647058
 40
0.8235294117647058
 40
0.8823529411764706
 40
0.8823529411764706
 40
0.8823529411764706
 40
0.8823529411764706
 40
1.0
 40
1.0
 40
1.0
 40
1.0
 10
17.4565
 20
27.7613
 30
0.0
 10
17.4565
 20
27.7613
 30
0.0
 10
17.5289
 20
27.7613
 30
0.0
 10
17.5289
 20
27.7613
 30
0.0
 10
17.5289
 20
27.7613
 30
0.0
 10
17.5289
 20
27.7613
 30
0.0
 10
17.5496
 20
27.7821
 30
0.0
 10
17.5496
 20
27.7821
 30
0.0
 10
17.5496
 20
27.7821
 30
0.0
 10
17.5496
 20
27.7821
 30
0.0
 10
17.5807
 20
27.7924
 30
0.0
 10
17.5807
 20
27.7924
 30
0.0
 10
17.5807
 20
27.7924
 30
0.0
 10
17.5807
 20
27.7924
 30
0.0
 10
17.622
 20
27.8028
 30
0.0
 10
17.622
 20
27.8028
 30
0.0
 10
17.622
 20
27.8028
 30
0.0
 10
17.622
 20
27.8028
 30
0.0
 10
17.6428
 20
27.8131
 30
0.0
 10
17.6428
 20
27.8131
 30
0.0
 10
17.6428
 20
27.8131
 30
0.0
 10
17.6428
 20
27.8131
 30
0.0
 10
17.6738
 20
27.8338
 30
0.0
 10
17.6738
 20
27.8338
 30
0.0
 10
17.6738
 20
27.8338
 30
0.0
 10
17.6738
 20
27.8338
 30
0.0
 10
17.7049
 20
27.8442
 30
0.0
 10
17.7049
 20
27.8442
 30
0.0
 10
17.7049
 20
27.8442
 30
0.0
 10
17.7049
 20
27.8442
 30
0.0
 10
17.7255
 20
27.8752
 30
0.0
 10
17.7255
 20
27.8752
 30
0.0
 10
17.7255
 20
27.8752
 30
0.0
 10
17.7255
 20
27.8752
 30
0.0
 10
17.7566
 20
27.8959
 30
0.0
 10
17.7566
 20
27.8959
 30
0.0
 10
17.7566
 20
27.8959
 30
0.0
 10
17.7566
 20
27.8959
 30
0.0
 10
17.767
 20
27.9373
 30
0.0
 10
17.767
 20
27.9373
 30
0.0
 10
17.767
 20
27.9373
 30
0.0
 10
17.767
 20
27.9373
 30
0.0
 10
17.7876
 20
27.958
 30
0.0
 10
17.7876
 20
27.958
 30
0.0
 10
17.7876
 20
27.958
 30
0.0
 10
17.7876
 20
27.958
 30
0.0
 10
17.798
 20
27.9787
 30
0.0
 10
17.798
 20
27.9787
 30
0.0
 10
17.798
 20
27.9787
 30
0.0
 10
17.798
 20
27.9787
 30
0.0
 10
17.8083
 20
28.0201
 30
0.0
 10
17.8083
 20
28.0201
 30
0.0
 10
17.8083
 20
28.0201
 30
0.0
 10
17.8083
 20
28.0201
 30
0.0
 10
17.8291
 20
28.0511
 30
0.0
 10
17.8291
 20
28.0511
 30
0.0
 10
17.8291
 20
28.0511
 30
0.0
 10
17.8291
 20
28.0511
 30
0.0
 10
17.8394
 20
28.0718
 30
0.0
 10
17.8394
 20
28.0718
 30
0.0
 10
17.8394
 20
28.0718
 30
0.0
 10
17.8394
 20
28.0718
 30
0.0
 10
17.8394
 20
28.1443
 30
0.0
 10
17.8394
 20
28.1443
 30
0.0
  0
SPLINE
  5
52
330
1F
100
AcDbEntity
  8
DEFAULT_1
 62
   250
370
    30
100
AcDbSpline
210
0.0
220
0.0
230
1.0
 70
     8
 71
     3
 72
    52
 73
    48
 74
     0
 42
0.0000000001
 43
0.0000000001
 40
0.0
 40
0.0
 40
0.0
 40
0.0
 40
0.0769230769230769
 40
0.0769230769230769
 40
0.0769230769230769
 40
0.0769230769230769
 40
0.1538461538461539
 40
0.1538461538461539
 40
0.1538461538461539
 40
0.1538461538461539
 40
0.2307692307692308
 40
0.2307692307692308
 40
0.2307692307692308
 40
0.2307692307692308
 40
0.3076923076923077
 40
0.3076923076923077
 40
0.3076923076923077
 40
0.3076923076923077
 40
0.3846153846153846
 40
0.3846153846153846
 40
0.3846153846153846
 40
0.3846153846153846
 40
0.4615384615384616
 40
0.4615384615384616
 40
0.4615384615384616
 40
0.4615384615384616
 40
0.5384615384615384
 40
0.5384615384615384
 40
0.5384615384615384
 40
0.5384615384615384
 40
0.6153846153846154
 40
0.6153846153846154
 40
0.6153846153846154
 40
0.6153846153846154
 40
0.6923076923076923
 40
0.6923076923076923
 40
0.6923076923076923
 40
0.6923076923076923
 40
0.7692307692307693
 40
0.7692307692307693
 40
0.7692307692307693
 40
0.7692307692307693
 40
0.8461538461538461
 40
0.8461538461538461
 40
0.8461538461538461
 40
0.8461538461538461
 40
1.0
 40
1.0
 40
1.0
 40
1.0
 10
-12.6709
 20
28.3616
 30
0.0
 10
-12.6709
 20
28.3616
 30
0.0
 10
-12.6916
 20
28.3616
 30
0.0
 10
-12.6916
 20
28.3616
 30
0.0
 10
-12.6916
 20
28.3616
 30
0.0
 10
-12.6916
 20
28.3616
 30
0.0
 10
-12.702
 20
28.3513
 30
0.0
 10
-12.702
 20
28.3513
 30
0.0
 10
-12.702
 20
28.3513
 30
0.0
 10
-12.702
 20
28.3513
 30
0.0
 10
-12.7123
 20
28.3513
 30
0.0
 10
-12.7123
 20
28.3513
 30
0.0
 10
-12.7123
 20
28.3513
 30
0.0
 10
-12.7123
 20
28.3513
 30
0.0
 10
-12.7226
 20
28.3409
 30
0.0
 10
-12.7226
 20
28.3409
 30
0.0
 10
-12.7226
 20
28.3409
 30
0.0
 10
-12.7226
 20
28.3409
 30
0.0
 10
-12.7434
 20
28.3306
 30
0.0
 10
-12.7434
 20
28.3306
 30
0.0
 10
-12.7434
 20
28.3306
 30
0.0
 10
-12.7434
 20
28.3306
 30
0.0
 10
-12.7537
 20
28.3202
 30
0.0
 10
-12.7537
 20
28.3202
 30
0.0
 10
-12.7537
 20
28.3202
 30
0.0
 10
-12.7537
 20
28.3202
 30
0.0
 10
-12.7641
 20
28.3202
 30
0.0
 10
-12.7641
 20
28.3202
 30
0.0
 10
-12.7641
 20
28.3202
 30
0.0
 10
-12.7641
 20
28.3202
 30
0.0
 10
-12.7641
 20
28.2995
 30
0.0
 10
-12.7641
 20
28.2995
 30
0.0
 10
-12.7641
 20
28.2995
 30
0.0
 10
-12.7641
 20
28.2995
 30
0.0
 10
-12.7744
 20
28.2892
 30
0.0
 10
-12.7744
 20
28.2892
 30
0.0
 10
-12.7744
 20
28.2892
 30
0.0
 10
-12.7744
 20
28.2892
 30
0.0
 10
-12.7744
 20
28.2685
 30
0.0
 10
-12.7744
 20
28.2685
 30
0.0
 10
-12.7744
 20
28.2685
 30
0.0
 10
-12.7744
 20
28.2685
 30
0.0
 10
-12.7847
 20
28.2581
 30
0.0
 10
-12.7847
 20
28.2581
 30
0.0
 10
-12.7847
 20
28.2581
 30
0.0
 10
-12.7847
 20
28.2581
 30
0.0
 10
-12.7847
 20
28.2167
 30
0.0
 10
-12.7847
 20
28.2167
 30
0.0
  0
SPLINE
  5
53
330
1F
100
AcDbEntity
  8
DEFAULT_1
 62
   250
370
    30
100
AcDbSpline
210
0.0
220
0.0
230
1.0
 70
     8
 71
     3
 72
    56
 73
    52
 74
     0
 42
0.0000000001
 43
0.0000000001
 40
0.0
 40
0.0
 40
0.0
 40
0.0
 40
0.0714285714285714
 40
0.0714285714285714
 40
0.0714285714285714
 40
0.0714285714285714
 40
0.1428571428571428
 40
0.1428571428571428
 40
0.1428571428571428
 40
0.1428571428571428
 40
0.2142857142857143
 40
0.2142857142857143
 40
0.2142857142857143
 40
0.2142857142857143
 40
0.2857142857142857
 40
0.2857142857142857
 40
0.2857142857142857
 40
0.2857142857142857
 40
0.3571428571428572
 40
0.3571428571428572
 40
0.3571428571428572
 40
0.3571428571428572
 40
0.4285714285714285
 40
0.4285714285714285
 40
0.4285714285714285
 40
0.4285714285714285
 40
0.5
 40
0.5
 40
0.5
 40
0.5
 40
0.5714285714285714
 40
0.5714285714285714
 40
0.5714285714285714
 40
0.5714285714285714
 40
0.6428571428571429
 40
0.6428571428571429
 40
0.6428571428571429
 40
0.6428571428571429
 40
0.7142857142857143
 40
0.7142857142857143
 40
0.7142857142857143
 40
0.7142857142857143
 40
0.7857142857142857
 40
0.7857142857142857
 40
0.7857142857142857
 40
0.7857142857142857
 40
0.8571428571428571
 40
0.8571428571428571
 40
0.8571428571428571
 40
0.8571428571428571
 40
1.0
 40
1.0
 40
1.0
 40
1.0
 10
17.8394
 20
28.2167
 30
0.0
 10
17.8394
 20
28.2167
 30
0.0
 10
17.8394
 20
28.2581
 30
0.0
 10
17.8394
 20
28.2581
 30
0.0
 10
17.8394
 20
28.2581
 30
0.0
 10
17.8394
 20
28.2581
 30
0.0
 10
17.8291
 20
28.2685
 30
0.0
 10
17.8291
 20
28.2685
 30
0.0
 10
17.8291
 20
28.2685
 30
0.0
 10
17.8291
 20
28.2685
 30
0.0
 10
17.8291
 20
28.2892
 30
0.0
 10
17.8291
 20
28.2892
 30
0.0
 10
17.8291
 20
28.2892
 30
0.0
 10
17.8291
 20
28.2892
 30
0.0
 10
17.8083
 20
28.2995
 30
0.0
 10
17.8083
 20
28.2995
 30
0.0
 10
17.8083
 20
28.2995
 30
0.0
 10
17.8083
 20
28.2995
 30
0.0
 10
17.798
 20
28.2995
 30
0.0
 10
17.798
 20
28.2995
 30
0.0
 10
17.798
 20
28.2995
 30
0.0
 10
17.798
 20
28.2995
 30
0.0
 10
17.798
 20
28.3202
 30
0.0
 10
17.798
 20
28.3202
 30
0.0
 10
17.798
 20
28.3202
 30
0.0
 10
17.798
 20
28.3202
 30
0.0
 10
17.7876
 20
28.3306
 30
0.0
 10
17.7876
 20
28.3306
 30
0.0
 10
17.7876
 20
28.3306
 30
0.0
 10
17.7876
 20
28.3306
 30
0.0
 10
17.7773
 20
28.3306
 30
0.0
 10
17.7773
 20
28.3306
 30
0.0
 10
17.7773
 20
28.3306
 30
0.0
 10
17.7773
 20
28.3306
 30
0.0
 10
17.7773
 20
28.3409
 30
0.0
 10
17.7773
 20
28.3409
 30
0.0
 10
17.7773
 20
28.3409
 30
0.0
 10
17.7773
 20
28.3409
 30
0.0
 10
17.767
 20
28.3513
 30
0.0
 10
17.767
 20
28.3513
 30
0.0
 10
17.767
 20
28.3513
 30
0.0
 10
17.767
 20
28.3513
 30
0.0
 10
17.7359
 20
28.3513
 30
0.0
 10
17.7359
 20
28.3513
 30
0.0
 10
17.7359
 20
28.3513
 30
0.0
 10
17.7359
 20
28.3513
 30
0.0
 10
17.7255
 20
28.3616
 30
0.0
 10
17.7255
 20
28.3616
 30
0.0
 10
17.7255
 20
28.3616
 30
0.0
 10
17.7255
 20
28.3616
 30
0.0
 10
17.7152
 20
28.3616
 30
0.0
 10
17.7152
 20
28.3616
 30
0.0
  0
SPLINE
  5
54
330
1F
100
AcDbEntity
  8
DEFAULT_1
 62
   250
370
    30
100
AcDbSpline
210
0.0
220
0.0
230
1.0
 70
     8
 71
     3
 72
    48
 73
    44
 74
     0
 42
0.0000000001
 43
0.0000000001
 40
0.0
 40
0.0
 40
0.0
 40
0.0
 40
0.0833333333333333
 40
0.0833333333333333
 40
0.0833333333333333
 40
0.0833333333333333
 40
0.1666666666666667
 40
0.1666666666666667
 40
0.1666666666666667
 40
0.1666666666666667
 40
0.25
 40
0.25
 40
0.25
 40
0.25
 40
0.3333333333333333
 40
0.3333333333333333
 40
0.3333333333333333
 40
0.3333333333333333
 40
0.4166666666666667
 40
0.4166666666666667
 40
0.4166666666666667
 40
0.4166666666666667
 40
0.5
 40
0.5
 40
0.5
 40
0.5
 40
0.5833333333333334
 40
0.5833333333333334
 40
0.5833333333333334
 40
0.5833333333333334
 40
0.6666666666666666
 40
0.6666666666666666
 40
0.6666666666666666
 40
0.6666666666666666
 40
0.75
 40
0.75
 40
0.75
 40
0.75
 40
0.8333333333333334
 40
0.8333333333333334
 40
0.8333333333333334
 40
0.8333333333333334
 40
1.0
 40
1.0
 40
1.0
 40
1.0
 10
-12.7434
 20
27.958
 30
0.0
 10
-12.7434
 20
27.958
 30
0.0
 10
-12.7123
 20
27.9373
 30
0.0
 10
-12.7123
 20
27.9373
 30
0.0
 10
-12.7123
 20
27.9373
 30
0.0
 10
-12.7123
 20
27.9373
 30
0.0
 10
-12.702
 20
27.8959
 30
0.0
 10
-12.702
 20
27.8959
 30
0.0
 10
-12.702
 20
27.8959
 30
0.0
 10
-12.702
 20
27.8959
 30
0.0
 10
-12.6813
 20
27.8752
 30
0.0
 10
-12.6813
 20
27.8752
 30
0.0
 10
-12.6813
 20
27.8752
 30
0.0
 10
-12.6813
 20
27.8752
 30
0.0
 10
-12.6605
 20
27.8442
 30
0.0
 10
-12.6605
 20
27.8442
 30
0.0
 10
-12.6605
 20
27.8442
 30
0.0
 10
-12.6605
 20
27.8442
 30
0.0
 10
-12.6192
 20
27.8338
 30
0.0
 10
-12.6192
 20
27.8338
 30
0.0
 10
-12.6192
 20
27.8338
 30
0.0
 10
-12.6192
 20
27.8338
 30
0.0
 10
-12.5985
 20
27.8131
 30
0.0
 10
-12.5985
 20
27.8131
 30
0.0
 10
-12.5985
 20
27.8131
 30
0.0
 10
-12.5985
 20
27.8131
 30
0.0
 10
-12.5674
 20
27.8028
 30
0.0
 10
-12.5674
 20
27.8028
 30
0.0
 10
-12.5674
 20
27.8028
 30
0.0
 10
-12.5674
 20
27.8028
 30
0.0
 10
-12.5364
 20
27.7924
 30
0.0
 10
-12.5364
 20
27.7924
 30
0.0
 10
-12.5364
 20
27.7924
 30
0.0
 10
-12.5364
 20
27.7924
 30
0.0
 10
-12.495
 20
27.7821
 30
0.0
 10
-12.495
 20
27.7821
 30
0.0
 10
-12.495
 20
27.7821
 30
0.0
 10
-12.495
 20
27.7821
 30
0.0
 10
-12.4743
 20
27.7613
 30
0.0
 10
-12.4743
 20
27.7613
 30
0.0
 10
-12.4743
 20
27.7613
 30
0.0
 10
-12.4743
 20
27.7613
 30
0.0
 10
-12.4018
 20
27.7613
 30
0.0
 10
-12.4018
 20
27.7613
 30
0.0
  0
SPLINE
  5
55
330
1F
100
AcDbEntity
  8
DEFAULT_1
 62
   250
370
    18
100
AcDbSpline
210
0.0
220
0.0
230
1.0
 70
    24
 71
     3
 72
     8
 73
     4
 74
     0
 42
0.0000000001
 43
0.0000000001
 40
0.0
 40
0.0
 40
0.0
 40
0.0
 40
1.0
 40
1.0
 40
1.0
 40
1.0
 10
-7.4618
 20
-19.2611
 30
0.0
 10
-7.4618
 20
-19.2611
 30
0.0
 10
11.5447
 20
-18.7888
 30
0.0
 10
11.5447
 20
-18.7888
 30
0.0
  0
SPLINE
  5
56
330
1F
100
AcDbEntity
  8
DEFAULT_1
 62
   250
370
    18
100
AcDbSpline
210
0.0
220
0.0
230
1.0
 70
    24
 71
     3
 72
     8
 73
     4
 74
     0
 42
0.0000000001
 43
0.0000000001
 40
0.0
 40
0.0
 40
0.0
 40
0.0
 40
1.0
 40
1.0
 40
1.0
 40
1.0
 10
-7.4117
 20
-20.5103
 30
0.0
 10
-7.4117
 20
-20.5103
 30
0.0
 10
11.5949
 20
-20.0381
 30
0.0
 10
11.5949
 20
-20.0381
 30
0.0
  0
SPLINE
  5
57
330
1F
100
AcDbEntity
  8
DEFAULT_1
 62
   250
370
    18
100
AcDbSpline
210
0.0
220
0.0
230
1.0
 70
    24
 71
     3
 72
     8
 73
     4
 74
     0
 42
0.0000000001
 43
0.0000000001
 40
0.0
 40
0.0
 40
0.0
 40
0.0
 40
1.0
 40
1.0
 40
1.0
 40
1.0
 10
-7.4117
 20
-21.9212
 30
0.0
 10
-7.4117
 20
-21.9212
 30
0.0
 10
11.5949
 20
-21.4489
 30
0.0
 10
11.5949
 20
-21.4489
 30
0.0
  0
SPLINE
  5
58
330
1F
100
AcDbEntity
  8
DEFAULT_1
 62
   250
370
    18
100
AcDbSpline
210
0.0
220
0.0
230
1.0
 70
    24
 71
     3
 72
     8
 73
     4
 74
     0
 42
0.0000000001
 43
0.0000000001
 40
0.0
 40
0.0
 40
0.0
 40
0.0
 40
1.0
 40
1.0
 40
1.0
 40
1.0
 10
-7.4117
 20
-17.9615
 30
0.0
 10
-7.4117
 20
-17.9615
 30
0.0
 10
11.5949
 20
-17.4893
 30
0.0
 10
11.5949
 20
-17.4893
 30
0.0
  0
SPLINE
  5
59
330
1F
100
AcDbEntity
  8
DEFAULT_1
 62
   250
370
    35
100
AcDbSpline
210
0.0
220
0.0
230
1.0
 70
     8
 71
     3
 72
    40
 73
    36
 74
     0
 42
0.0000000001
 43
0.0000000001
 40
0.0
 40
0.0
 40
0.0
 40
0.0
 40
0.1
 40
0.1
 40
0.1
 40
0.1
 40
0.2
 40
0.2
 40
0.2
 40
0.2
 40
0.3
 40
0.3
 40
0.3
 40
0.3
 40
0.4
 40
0.4
 40
0.4
 40
0.4
 40
0.5
 40
0.5
 40
0.5
 40
0.5
 40
0.6
 40
0.6
 40
0.6
 40
0.6
 40
0.7
 40
0.7
 40
0.7
 40
0.7
 40
0.8
 40
0.8
 40
0.8
 40
0.8
 40
1.0
 40
1.0
 40
1.0
 40
1.0
 10
-8.5281
 20
5.1079
 30
0.0
 10
-8.5281
 20
5.1079
 30
0.0
 10
-8.4988
 20
-16.8807
 30
0.0
 10
-8.4988
 20
-16.8807
 30
0.0
 10
-8.4988
 20
-16.8807
 30
0.0
 10
-8.4988
 20
-16.8807
 30
0.0
 10
-7.5578
 20
-17.3716
 30
0.0
 10
-7.5578
 20
-17.3716
 30
0.0
 10
-7.5578
 20
-17.3716
 30
0.0
 10
-7.5578
 20
-17.3716
 30
0.0
 10
-7.5578
 20
-21.9132
 30
0.0
 10
-7.5578
 20
-21.9132
 30
0.0
 10
-7.5578
 20
-21.9132
 30
0.0
 10
-7.5578
 20
-21.9132
 30
0.0
 10
-7.1193
 20
-22.4338
 30
0.0
 10
-7.1193
 20
-22.4338
 30
0.0
 10
-7.1193
 20
-22.4338
 30
0.0
 10
-7.1193
 20
-22.4338
 30
0.0
 10
11.1088
 20
-22.4338
 30
0.0
 10
11.1088
 20
-22.4338
 30
0.0
 10
11.1088
 20
-22.4338
 30
0.0
 10
11.1088
 20
-22.4338
 30
0.0
 10
11.6413
 20
-22.0427
 30
0.0
 10
11.6413
 20
-22.0427
 30
0.0
 10
11.6413
 20
-22.0427
 30
0.0
 10
11.6413
 20
-22.0427
 30
0.0
 10
11.6413
 20
-17.3551
 30
0.0
 10
11.6413
 20
-17.3551
 30
0.0
 10
11.6413
 20
-17.3551
 30
0.0
 10
11.6413
 20
-17.3551
 30
0.0
 10
12.6494
 20
-16.9519
 30
0.0
 10
12.6494
 20
-16.9519
 30
0.0
 10
12.6494
 20
-16.9519
 30
0.0
 10
12.6494
 20
-16.9519
 30
0.0
 10
12.5486
 20
5.1756
 30
0.0
 10
12.5486
 20
5.1756
 30
0.0
  0
SPLINE
  5
5A
330
1F
100
AcDbEntity
  8
DEFAULT_1
 62
   250
370
    35
100
AcDbSpline
210
0.0
220
0.0
230
1.0
 70
    11
 71
     3
 72
   128
 73
   124
 74
     0
 42
0.0000000001
 43
0.0000000001
 40
0.0
 40
0.0
 40
0.0
 40
0.0
 40
0.03125
 40
0.03125
 40
0.03125
 40
0.03125
 40
0.0625
 40
0.0625
 40
0.0625
 40
0.0625
 40
0.09375
 40
0.09375
 40
0.09375
 40
0.09375
 40
0.125
 40
0.125
 40
0.125
 40
0.125
 40
0.15625
 40
0.15625
 40
0.15625
 40
0.15625
 40
0.1875
 40
0.1875
 40
0.1875
 40
0.1875
 40
0.21875
 40
0.21875
 40
0.21875
 40
0.21875
 40
0.25
 40
0.25
 40
0.25
 40
0.25
 40
0.28125
 40
0.28125
 40
0.28125
 40
0.28125
 40
0.3125
 40
0.3125
 40
0.3125
 40
0.3125
 40
0.34375
 40
0.34375
 40
0.34375
 40
0.34375
 40
0.375
 40
0.375
 40
0.375
 40
0.375
 40
0.40625
 40
0.40625
 40
0.40625
 40
0.40625
 40
0.4375
 40
0.4375
 40
0.4375
 40
0.4375
 40
0.46875
 40
0.46875
 40
0.46875
 40
0.46875
 40
0.5
 40
0.5
 40
0.5
 40
0.5
 40
0.53125
 40
0.53125
 40
0.53125
 40
0.53125
 40
0.5625
 40
0.5625
 40
0.5625
 40
0.5625
 40
0.59375
 40
0.59375
 40
0.59375
 40
0.59375
 40
0.625
 40
0.625
 40
0.625
 40
0.625
 40
0.65625
 40
0.65625
 40
0.65625
 40
0.65625
 40
0.6875
 40
0.6875
 40
0.6875
 40
0.6875
 40
0.71875
 40
0.71875
 40
0.71875
 40
0.71875
 40
0.75
 40
0.75
 40
0.75
 40
0.75
 40
0.78125
 40
0.78125
 40
0.78125
 40
0.78125
 40
0.8125
 40
0.8125
 40
0.8125
 40
0.8125
 40
0.84375
 40
0.84375
 40
0.84375
 40
0.84375
 40
0.875
 40
0.875
 40
0.875
 40
0.875
 40
0.90625
 40
0.90625
 40
0.90625
 40
0.90625
 40
0.9375
 40
0.9375
 40
0.9375
 40
0.9375
 40
1.0
 40
1.0
 40
1.0
 40
1.0
 10
-4.7514
 20
8.2161
 30
0.0
 10
-4.7514
 20
8.2161
 30
0.0
 10
-5.4277
 20
8.0867
 30
0.0
 10
-5.4277
 20
8.0867
 30
0.0
 10
-5.4277
 20
8.0867
 30
0.0
 10
-5.4277
 20
8.0867
 30
0.0
 10
-6.1002
 20
7.9977
 30
0.0
 10
-6.1002
 20
7.9977
 30
0.0
 10
-6.1002
 20
7.9977
 30
0.0
 10
-6.1002
 20
7.9977
 30
0.0
 10
-6.7746
 20
7.9521
 30
0.0
 10
-6.7746
 20
7.9521
 30
0.0
 10
-6.7746
 20
7.9521
 30
0.0
 10
-6.7746
 20
7.9521
 30
0.0
 10
-7.4504
 20
7.9521
 30
0.0
 10
-7.4504
 20
7.9521
 30
0.0
 10
-7.4504
 20
7.9521
 30
0.0
 10
-7.4504
 20
7.9521
 30
0.0
 10
-8.1248
 20
7.9977
 30
0.0
 10
-8.1248
 20
7.9977
 30
0.0
 10
-8.1248
 20
7.9977
 30
0.0
 10
-8.1248
 20
7.9977
 30
0.0
 10
-8.7973
 20
8.0867
 30
0.0
 10
-8.7973
 20
8.0867
 30
0.0
 10
-8.7973
 20
8.0867
 30
0.0
 10
-8.7973
 20
8.0867
 30
0.0
 10
-9.4736
 20
8.2161
 30
0.0
 10
-9.4736
 20
8.2161
 30
0.0
 10
-9.4736
 20
8.2161
 30
0.0
 10
-9.4736
 20
8.2161
 30
0.0
 10
-11.6729
 20
8.7387
 30
0.0
 10
-11.6729
 20
8.7387
 30
0.0
 10
-11.6729
 20
8.7387
 30
0.0
 10
-11.6729
 20
8.7387
 30
0.0
 10
-11.8697
 20
8.9031
 30
0.0
 10
-11.8697
 20
8.9031
 30
0.0
 10
-11.8697
 20
8.9031
 30
0.0
 10
-11.8697
 20
8.9031
 30
0.0
 10
-11.9682
 20
9.2319
 30
0.0
 10
-11.9682
 20
9.2319
 30
0.0
 10
-11.9682
 20
9.2319
 30
0.0
 10
-11.9682
 20
9.2319
 30
0.0
 10
-12.0011
 20
9.4622
 30
0.0
 10
-12.0011
 20
9.4622
 30
0.0
 10
-12.0011
 20
9.4622
 30
0.0
 10
-12.0011
 20
9.4622
 30
0.0
 10
-11.8369
 20
9.6922
 30
0.0
 10
-11.8369
 20
9.6922
 30
0.0
 10
-11.8369
 20
9.6922
 30
0.0
 10
-11.8369
 20
9.6922
 30
0.0
 10
-11.5745
 20
9.8566
 30
0.0
 10
-11.5745
 20
9.8566
 30
0.0
 10
-11.5745
 20
9.8566
 30
0.0
 10
-11.5745
 20
9.8566
 30
0.0
 10
15.6947
 20
9.8237
 30
0.0
 10
15.6947
 20
9.8237
 30
0.0
 10
15.6947
 20
9.8237
 30
0.0
 10
15.6947
 20
9.8237
 30
0.0
 10
15.9572
 20
9.6593
 30
0.0
 10
15.9572
 20
9.6593
 30
0.0
 10
15.9572
 20
9.6593
 30
0.0
 10
15.9572
 20
9.6593
 30
0.0
 10
16.0229
 20
9.3305
 30
0.0
 10
16.0229
 20
9.3305
 30
0.0
 10
16.0229
 20
9.3305
 30
0.0
 10
16.0229
 20
9.3305
 30
0.0
 10
15.8917
 20
8.9031
 30
0.0
 10
15.8917
 20
8.9031
 30
0.0
 10
15.8917
 20
8.9031
 30
0.0
 10
15.8917
 20
8.9031
 30
0.0
 10
15.4978
 20
8.7058
 30
0.0
 10
15.4978
 20
8.7058
 30
0.0
 10
15.4978
 20
8.7058
 30
0.0
 10
15.4978
 20
8.7058
 30
0.0
 10
12.1506
 20
7.9824
 30
0.0
 10
12.1506
 20
7.9824
 30
0.0
 10
12.1506
 20
7.9824
 30
0.0
 10
12.1506
 20
7.9824
 30
0.0
 10
11.3632
 20
7.8837
 30
0.0
 10
11.3632
 20
7.8837
 30
0.0
 10
11.3632
 20
7.8837
 30
0.0
 10
11.3632
 20
7.8837
 30
0.0
 10
10.2475
 20
7.9166
 30
0.0
 10
10.2475
 20
7.9166
 30
0.0
 10
10.2475
 20
7.9166
 30
0.0
 10
10.2475
 20
7.9166
 30
0.0
 10
9.0332
 20
8.1797
 30
0.0
 10
9.0332
 20
8.1797
 30
0.0
 10
9.0332
 20
8.1797
 30
0.0
 10
9.0332
 20
8.1797
 30
0.0
 10
8.213
 20
8.2783
 30
0.0
 10
8.213
 20
8.2783
 30
0.0
 10
8.213
 20
8.2783
 30
0.0
 10
8.213
 20
8.2783
 30
0.0
 10
7.1956
 20
8.3112
 30
0.0
 10
7.1956
 20
8.3112
 30
0.0
 10
7.1956
 20
8.3112
 30
0.0
 10
7.1956
 20
8.3112
 30
0.0
 10
6.0143
 20
8.1797
 30
0.0
 10
6.0143
 20
8.1797
 30
0.0
 10
6.0143
 20
8.1797
 30
0.0
 10
6.0143
 20
8.1797
 30
0.0
 10
3.4548
 20
7.9495
 30
0.0
 10
3.4548
 20
7.9495
 30
0.0
 10
3.4548
 20
7.9495
 30
0.0
 10
3.4548
 20
7.9495
 30
0.0
 10
1.5515
 20
7.9166
 30
0.0
 10
1.5515
 20
7.9166
 30
0.0
 10
1.5515
 20
7.9166
 30
0.0
 10
1.5515
 20
7.9166
 30
0.0
 10
-1.3035
 20
8.081
 30
0.0
 10
-1.3035
 20
8.081
 30
0.0
 10
-1.3035
 20
8.081
 30
0.0
 10
-1.3035
 20
8.081
 30
0.0
 10
-2.8786
 20
8.3112
 30
0.0
 10
-2.8786
 20
8.3112
 30
0.0
 10
-2.8786
 20
8.3112
 30
0.0
 10
-2.8786
 20
8.3112
 30
0.0
 10
-4.1255
 20
8.3441
 30
0.0
 10
-4.1255
 20
8.3441
 30
0.0
 10
-4.1255
 20
8.3441
 30
0.0
 10
-4.1255
 20
8.3441
 30
0.0
 10
-4.7514
 20
8.2161
 30
0.0
 10
-4.7514
 20
8.2161
 30
0.0
  0
SPLINE
  5
5B
330
1F
100
AcDbEntity
  8
DEFAULT_1
 62
   250
370
    35
100
AcDbSpline
210
0.0
220
0.0
230
1.0
 70
     8
 71
     3
 72
    32
 73
    28
 74
     0
 42
0.0000000001
 43
0.0000000001
 40
0.0
 40
0.0
 40
0.0
 40
0.0
 40
0.125
 40
0.125
 40
0.125
 40
0.125
 40
0.25
 40
0.25
 40
0.25
 40
0.25
 40
0.375
 40
0.375
 40
0.375
 40
0.375
 40
0.5
 40
0.5
 40
0.5
 40
0.5
 40
0.625
 40
0.625
 40
0.625
 40
0.625
 40
0.75
 40
0.75
 40
0.75
 40
0.75
 40
1.0
 40
1.0
 40
1.0
 40
1.0
 10
-9.7672
 20
8.2411
 30
0.0
 10
-9.7672
 20
8.2411
 30
0.0
 10
-9.7866
 20
5.1421
 30
0.0
 10
-9.7866
 20
5.1421
 30
0.0
 10
-9.7866
 20
5.1421
 30
0.0
 10
-9.7866
 20
5.1421
 30
0.0
 10
-4.7514
 20
5.1421
 30
0.0
 10
-4.7514
 20
5.1421
 30
0.0
 10
-4.7514
 20
5.1421
 30
0.0
 10
-4.7514
 20
5.1421
 30
0.0
 10
-2.7276
 20
5.1421
 30
0.0
 10
-2.7276
 20
5.1421
 30
0.0
 10
-2.7276
 20
5.1421
 30
0.0
 10
-2.7276
 20
5.1421
 30
0.0
 10
6.717
 20
5.1421
 30
0.0
 10
6.717
 20
5.1421
 30
0.0
 10
6.717
 20
5.1421
 30
0.0
 10
6.717
 20
5.1421
 30
0.0
 10
8.7409
 20
5.1421
 30
0.0
 10
8.7409
 20
5.1421
 30
0.0
 10
8.7409
 20
5.1421
 30
0.0
 10
8.7409
 20
5.1421
 30
0.0
 10
13.7762
 20
5.1421
 30
0.0
 10
13.7762
 20
5.1421
 30
0.0
 10
13.7762
 20
5.1421
 30
0.0
 10
13.7762
 20
5.1421
 30
0.0
 10
13.7589
 20
8.2411
 30
0.0
 10
13.7589
 20
8.2411
 30
0.0
  0
SPLINE
  5
5C
330
1F
100
AcDbEntity
  8
DEFAULT_1
 62
   250
370
    35
100
AcDbSpline
210
0.0
220
0.0
230
1.0
 70
    27
 71
     3
 72
    12
 73
     8
 74
     0
 42
0.0000000001
 43
0.0000000001
 40
0.0
 40
0.0
 40
0.0
 40
0.0
 40
0.3333333333333333
 40
0.3333333333333333
 40
0.3333333333333333
 40
0.3333333333333333
 40
1.0
 40
1.0
 40
1.0
 40
1.0
 10
-7.5866
 20
-17.2925
 30
0.0
 10
-7.5866
 20
-17.2925
 30
0.0
 10
11.5761
 20
-17.2925
 30
0.0
 10
11.5761
 20
-17.2925
 30
0.0
 10
11.5761
 20
-17.2925
 30
0.0
 10
11.5761
 20
-17.2925
 30
0.0
 10
-7.5866
 20
-17.2925
 30
0.0
 10
-7.5866
 20
-17.2925
 30
0.0
  0
SPLINE
  5
5D
330
1F
100
AcDbEntity
  8
DEFAULT_1
 62
   250
370
    35
100
AcDbSpline
210
0.0
220
0.0
230
1.0
 70
    27
 71
     3
 72
    12
 73
     8
 74
     0
 42
0.0000000001
 43
0.0000000001
 40
0.0
 40
0.0
 40
0.0
 40
0.0
 40
0.3333333333333333
 40
0.3333333333333333
 40
0.3333333333333333
 40
0.3333333333333333
 40
1.0
 40
1.0
 40
1.0
 40
1.0
 10
-4.7514
 20
8.2161
 30
0.0
 10
-4.7514
 20
8.2161
 30
0.0
 10
-4.7514
 20
5.1421
 30
0.0
 10
-4.7514
 20
5.1421
 30
0.0
 10
-4.7514
 20
5.1421
 30
0.0
 10
-4.7514
 20
5.1421
 30
0.0
 10
-4.7514
 20
8.2161
 30
0.0
 10
-4.7514
 20
8.2161
 30
0.0
  0
SPLINE
  5
5E
330
1F
100
AcDbEntity
  8
DEFAULT_1
 62
   250
370
    35
100
AcDbSpline
210
0.0
220
0.0
230
1.0
 70
    27
 71
     3
 72
    20
 73
    16
 74
     0
 42
0.0000000001
 43
0.0000000001
 40
0.0
 40
0.0
 40
0.0
 40
0.0
 40
0.2
 40
0.2
 40
0.2
 40
0.2
 40
0.4
 40
0.4
 40
0.4
 40
0.4
 40
0.6
 40
0.6
 40
0.6
 40
0.6
 40
1.0
 40
1.0
 40
1.0
 40
1.0
 10
6.717
 20
8.2161
 30
0.0
 10
6.717
 20
8.2161
 30
0.0
 10
6.717
 20
5.1567
 30
0.0
 10
6.717
 20
5.1567
 30
0.0
 10
6.717
 20
5.1567
 30
0.0
 10
6.717
 20
5.1567
 30
0.0
 10
6.717
 20
5.1421
 30
0.0
 10
6.717
 20
5.1421
 30
0.0
 10
6.717
 20
5.1421
 30
0.0
 10
6.717
 20
5.1421
 30
0.0
 10
6.717
 20
5.1567
 30
0.0
 10
6.717
 20
5.1567
 30
0.0
 10
6.717
 20
5.1567
 30
0.0
 10
6.717
 20
5.1567
 30
0.0
 10
6.717
 20
8.2161
 30
0.0
 10
6.717
 20
8.2161
 30
0.0
  0
SPLINE
  5
5F
330
1F
100
AcDbEntity
  8
DEFAULT_1
 62
   250
370
    35
100
AcDbSpline
210
0.0
220
0.0
230
1.0
 70
    27
 71
     3
 72
    12
 73
     8
 74
     0
 42
0.0000000001
 43
0.0000000001
 40
0.0
 40
0.0
 40
0.0
 40
0.0
 40
0.3333333333333333
 40
0.3333333333333333
 40
0.3333333333333333
 40
0.3333333333333333
 40
1.0
 40
1.0
 40
1.0
 40
1.0
 10
-2.7276
 20
8.2161
 30
0.0
 10
-2.7276
 20
8.2161
 30
0.0
 10
-2.7276
 20
5.1421
 30
0.0
 10
-2.7276
 20
5.1421
 30
0.0
 10
-2.7276
 20
5.1421
 30
0.0
 10
-2.7276
 20
5.1421
 30
0.0
 10
-2.7276
 20
8.2161
 30
0.0
 10
-2.7276
 20
8.2161
 30
0.0
  0
SPLINE
  5
60
330
1F
100
AcDbEntity
  8
DEFAULT_1
 62
   250
370
    35
100
AcDbSpline
210
0.0
220
0.0
230
1.0
 70
    27
 71
     3
 72
    20
 73
    16
 74
     0
 42
0.0000000001
 43
0.0000000001
 40
0.0
 40
0.0
 40
0.0
 40
0.0
 40
0.2
 40
0.2
 40
0.2
 40
0.2
 40
0.4
 40
0.4
 40
0.4
 40
0.4
 40
0.6
 40
0.6
 40
0.6
 40
0.6
 40
1.0
 40
1.0
 40
1.0
 40
1.0
 10
8.7409
 20
8.2161
 30
0.0
 10
8.7409
 20
8.2161
 30
0.0
 10
8.7409
 20
5.1632
 30
0.0
 10
8.7409
 20
5.1632
 30
0.0
 10
8.7409
 20
5.1632
 30
0.0
 10
8.7409
 20
5.1632
 30
0.0
 10
8.7409
 20
5.1421
 30
0.0
 10
8.7409
 20
5.1421
 30
0.0
 10
8.7409
 20
5.1421
 30
0.0
 10
8.7409
 20
5.1421
 30
0.0
 10
8.7409
 20
5.1632
 30
0.0
 10
8.7409
 20
5.1632
 30
0.0
 10
8.7409
 20
5.1632
 30
0.0
 10
8.7409
 20
5.1632
 30
0.0
 10
8.7409
 20
8.2161
 30
0.0
 10
8.7409
 20
8.2161
 30
0.0
  0
SPLINE
  5
61
330
1F
100
AcDbEntity
  8
DEFAULT_1
 62
   250
370
    40
100
AcDbSpline
210
0.0
220
0.0
230
1.0
 70
    24
 71
     3
 72
     8
 73
     4
 74
     0
 42
0.0000000001
 43
0.0000000001
 40
0.0
 40
0.0
 40
0.0
 40
0.0
 40
1.0
 40
1.0
 40
1.0
 40
1.0
 10
-7.441
 20
-23.1985
 30
0.0
 10
-7.441
 20
-23.1985
 30
0.0
 10
-7.441
 20
-29.8074
 30
0.0
 10
-7.441
 20
-29.8074
 30
0.0
  0
SPLINE
  5
62
330
1F
100
AcDbEntity
  8
DEFAULT_1
 62
   250
370
    40
100
AcDbSpline
210
0.0
220
0.0
230
1.0
 70
    24
 71
     3
 72
     8
 73
     4
 74
     0
 42
0.0000000001
 43
0.0000000001
 40
0.0
 40
0.0
 40
0.0
 40
0.0
 40
1.0
 40
1.0
 40
1.0
 40
1.0
 10
11.5565
 20
-23.3717
 30
0.0
 10
11.5565
 20
-23.3717
 30
0.0
 10
11.5565
 20
-29.8074
 30
0.0
 10
11.5565
 20
-29.8074
 30
0.0
  0
SPLINE
  5
63
330
1F
100
AcDbEntity
  8
DEFAULT_1
 62
   250
370
    40
100
AcDbSpline
210
0.0
220
0.0
230
1.0
 70
    24
 71
     3
 72
     8
 73
     4
 74
     0
 42
0.0000000001
 43
0.0000000001
 40
0.0
 40
0.0
 40
0.0
 40
0.0
 40
1.0
 40
1.0
 40
1.0
 40
1.0
 10
-7.1118
 20
-28.8792
 30
0.0
 10
-7.1118
 20
-28.8792
 30
0.0
 10
11.3387
 20
-28.8792
 30
0.0
 10
11.3387
 20
-28.8792
 30
0.0
  0
SPLINE
  5
64
330
1F
100
AcDbEntity
  8
DEFAULT_1
 62
   250
370
    40
100
AcDbSpline
210
0.0
220
0.0
230
1.0
 70
    24
 71
     3
 72
     8
 73
     4
 74
     0
 42
0.0000000001
 43
0.0000000001
 40
0.0
 40
0.0
 40
0.0
 40
0.0
 40
1.0
 40
1.0
 40
1.0
 40
1.0
 10
-8.0121
 20
-22.5695
 30
0.0
 10
-8.0121
 20
-22.5695
 30
0.0
 10
-20.4862
 20
-22.5695
 30
0.0
 10
-20.4862
 20
-22.5695
 30
0.0
  0
SPLINE
  5
65
330
1F
100
AcDbEntity
  8
DEFAULT_1
 62
   250
370
    80
100
AcDbSpline
210
0.0
220
0.0
230
1.0
 70
    24
 71
     3
 72
     8
 73
     4
 74
     0
 42
0.0000000001
 43
0.0000000001
 40
0.0
 40
0.0
 40
0.0
 40
0.0
 40
1.0
 40
1.0
 40
1.0
 40
1.0
 10
-8.7693
 20
-17.4389
 30
0.0
 10
-8.7693
 20
-17.4389
 30
0.0
 10
-13.528
 20
-17.4389
 30
0.0
 10
-13.528
 20
-17.4389
 30
0.0
  0
SPLINE
  5
66
330
1F
100
AcDbEntity
  8
DEFAULT_1
 62
   250
370
    80
100
AcDbSpline
210
0.0
220
0.0
230
1.0
 70
    24
 71
     3
 72
     8
 73
     4
 74
     0
 42
0.0000000001
 43
0.0000000001
 40
0.0
 40
0.0
 40
0.0
 40
0.0
 40
1.0
 40
1.0
 40
1.0
 40
1.0
 10
22.4973
 20
27.8219
 30
0.0
 10
22.4973
 20
27.8219
 30
0.0
 10
18.0434
 20
27.8219
 30
0.0
 10
18.0434
 20
27.8219
 30
0.0
  0
SPLINE
  5
67
330
1F
100
AcDbEntity
  8
DEFAULT_1
 62
   250
370
    80
100
AcDbSpline
210
0.0
220
0.0
230
1.0
 70
    24
 71
     3
 72
     8
 73
     4
 74
     0
 42
0.0000000001
 43
0.0000000001
 40
0.0
 40
0.0
 40
0.0
 40
0.0
 40
1.0
 40
1.0
 40
1.0
 40
1.0
 10
22.4752
 20
24.5095
 30
0.0
 10
22.4752
 20
24.5095
 30
0.0
 10
16.8698
 20
24.5095
 30
0.0
 10
16.8698
 20
24.5095
 30
0.0
  0
SPLINE
  5
68
330
1F
100
AcDbEntity
  8
DEFAULT_1
 62
   250
370
    25
100
AcDbSpline
210
0.0
220
0.0
230
1.0
 70
    24
 71
     3
 72
     8
 73
     4
 74
     0
 42
0.0000000001
 43
0.0000000001
 40
0.0
 40
0.0
 40
0.0
 40
0.0
 40
1.0
 40
1.0
 40
1.0
 40
1.0
 10
-12.9108
 20
-24.5461
 30
0.0
 10
-12.9108
 20
-24.5461
 30
0.0
 10
-12.9108
 20
-11.8345
 30
0.0
 10
-12.9108
 20
-11.8345
 30
0.0
  0
SPLINE
  5
69
330
1F
100
AcDbEntity
  8
DEFAULT_1
 62
   250
370
    25
100
AcDbSpline
210
0.0
220
0.0
230
1.0
 70
    24
 71
     3
 72
     8
 73
     4
 74
     0
 42
0.0000000001
 43
0.0000000001
 40
0.0
 40
0.0
 40
0.0
 40
0.0
 40
1.0
 40
1.0
 40
1.0
 40
1.0
 10
21.9224
 20
20.7147
 30
0.0
 10
21.9224
 20
20.7147
 30
0.0
 10
21.9224
 20
33.4263
 30
0.0
 10
21.9224
 20
33.4263
 30
0.0
  0
SPLINE
  5
6A
330
1F
100
AcDbEntity
  8
DEFAULT_1
 62
   250
370
    40
100
AcDbSpline
210
0.0
220
0.0
230
1.0
 70
    24
 71
     3
 72
     8
 73
     4
 74
     0
 42
0.0000000001
 43
0.0000000001
 40
0.0
 40
0.0
 40
0.0
 40
0.0
 40
1.0
 40
1.0
 40
1.0
 40
1.0
 10
-13.1156
 20
9.6795
 30
0.0
 10
-13.1156
 20
9.6795
 30
0.0
 10
-20.2428
 20
9.6795
 30
0.0
 10
-20.2428
 20
9.6795
 30
0.0
  0
SPLINE
  5
6B
330
1F
100
AcDbEntity
  8
DEFAULT_1
 62
   250
370
    25
100
AcDbSpline
210
0.0
220
0.0
230
1.0
 70
    24
 71
     3
 72
     8
 73
     4
 74
     0
 42
0.0000000001
 43
0.0000000001
 40
0.0
 40
0.0
 40
0.0
 40
0.0
 40
1.0
 40
1.0
 40
1.0
 40
1.0
 10
-19.4211
 20
-21.828
 30
0.0
 10
-19.4211
 20
-21.828
 30
0.0
 10
-19.4211
 20
10.1409
 30
0.0
 10
-19.4211
 20
10.1409
 30
0.0
  0
SPLINE
  5
6C
330
1F
100
AcDbEntity
  8
DEFAULT_1
 62
   250
370
    40
100
AcDbSpline
210
0.0
220
0.0
230
1.0
 70
    24
 71
     3
 72
     8
 73
     4
 74
     0
 42
0.0000000001
 43
0.0000000001
 40
0.0
 40
0.0
 40
0.0
 40
0.0
 40
1.0
 40
1.0
 40
1.0
 40
1.0
 10
-19.421
 20
23.9424
 30
0.0
 10
-19.421
 20
23.9424
 30
0.0
 10
-19.421
 20
10.1409
 30
0.0
 10
-19.421
 20
10.1409
 30
0.0
  0
SPLINE
  5
6D
330
1F
100
AcDbEntity
  8
DEFAULT_1
 62
   250
370
    40
100
AcDbSpline
210
0.0
220
0.0
230
1.0
 70
    24
 71
     3
 72
     8
 73
     4
 74
     0
 42
0.0000000001
 43
0.0000000001
 40
0.0
 40
0.0
 40
0.0
 40
0.0
 40
1.0
 40
1.0
 40
1.0
 40
1.0
 10
-13.8313
 20
24.4542
 30
0.0
 10
-13.8313
 20
24.4542
 30
0.0
 10
-20.0085
 20
24.4542
 30
0.0
 10
-20.0085
 20
24.4542
 30
0.0
  0
SPLINE
  5
6E
330
1F
100
AcDbEntity
  8
DEFAULT_1
 62
   250
370
    40
100
AcDbSpline
210
0.0
220
0.0
230
1.0
 70
    24
 71
     3
 72
     8
 73
     4
 74
     0
 42
0.0000000001
 43
0.0000000001
 40
0.0
 40
0.0
 40
0.0
 40
0.0
 40
1.0
 40
1.0
 40
1.0
 40
1.0
 10
-8.4939
 20
-18.561
 30
0.0
 10
-8.4939
 20
-18.561
 30
0.0
 10
-8.4939
 20
-35.7166
 30
0.0
 10
-8.4939
 20
-35.7166
 30
0.0
  0
SPLINE
  5
6F
330
1F
100
AcDbEntity
  8
DEFAULT_1
 62
   250
370
    40
100
AcDbSpline
210
0.0
220
0.0
230
1.0
 70
    24
 71
     3
 72
     8
 73
     4
 74
     0
 42
0.0000000001
 43
0.0000000001
 40
0.0
 40
0.0
 40
0.0
 40
0.0
 40
1.0
 40
1.0
 40
1.0
 40
1.0
 10
12.5759
 20
-18.2494
 30
0.0
 10
12.5759
 20
-18.2494
 30
0.0
 10
12.5759
 20
-35.8415
 30
0.0
 10
12.5759
 20
-35.8415
 30
0.0
  0
SPLINE
  5
70
330
1F
100
AcDbEntity
  8
DEFAULT_1
 62
   250
370
    40
100
AcDbSpline
210
0.0
220
0.0
230
1.0
 70
    24
 71
     3
 72
     8
 73
     4
 74
     0
 42
0.0000000001
 43
0.0000000001
 40
0.0
 40
0.0
 40
0.0
 40
0.0
 40
1.0
 40
1.0
 40
1.0
 40
1.0
 10
-7.5709
 20
-34.9569
 30
0.0
 10
-7.5709
 20
-34.9569
 30
0.0
 10
11.4954
 20
-34.9569
 30
0.0
 10
11.4954
 20
-34.9569
 30
0.0
  0
SPLINE
  5
71
330
1F
100
AcDbEntity
  8
DEFAULT_1
  6
New Line1
 62
   250
370
    35
100
AcDbSpline
210
0.0
220
0.0
230
1.0
 70
    24
 71
     3
 72
     8
 73
     4
 74
     0
 42
0.0000000001
 43
0.0000000001
 40
0.0
 40
0.0
 40
0.0
 40
0.0
 40
1.0
 40
1.0
 40
1.0
 40
1.0
 10
2.0581
 20
-23.2888
 30
0.0
 10
2.0581
 20
-23.2888
 30
0.0
 10
2.0581
 20
30.7655
 30
0.0
 10
2.0581
 20
30.7655
 30
0.0
  0
SPLINE
  5
73
330
1F
100
AcDbEntity
  8
DEFAULT_1
 62
   250
370
    40
100
AcDbSpline
210
0.0
220
0.0
230
1.0
 70
    24
 71
     3
 72
     8
 73
     4
 74
     0
 42
0.0000000001
 43
0.0000000001
 40
0.0
 40
0.0
 40
0.0
 40
0.0
 40
1.0
 40
1.0
 40
1.0
 40
1.0
 10
17.7657
 20
28.8033
 30
0.0
 10
17.7657
 20
28.8033
 30
0.0
 10
17.7657
 20
33.0698
 30
0.0
 10
17.7657
 20
33.0698
 30
0.0
  0
SPLINE
  5
74
330
1F
100
AcDbEntity
  8
DEFAULT_1
 62
   250
370
    35
100
AcDbSpline
210
0.0
220
0.0
230
1.0
 70
    24
 71
     3
 72
     8
 73
     4
 74
     0
 42
0.0000000001
 43
0.0000000001
 40
0.0
 40
0.0
 40
0.0
 40
0.0
 40
1.0
 40
1.0
 40
1.0
 40
1.0
 10
-12.8211
 20
29.134
 30
0.0
 10
-12.8211
 20
29.134
 30
0.0
 10
-12.8211
 20
32.8828
 30
0.0
 10
-12.8211
 20
32.8828
 30
0.0
  0
SPLINE
  5
75
330
1F
100
AcDbEntity
  8
DEFAULT_1
 62
   250
370
    18
100
AcDbSpline
210
0.0
220
0.0
230
1.0
 70
    24
 71
     3
 72
     8
 73
     4
 74
     0
 42
0.0000000001
 43
0.0000000001
 40
0.0
 40
0.0
 40
0.0
 40
0.0
 40
1.0
 40
1.0
 40
1.0
 40
1.0
 10
-7.0712
 20
21.1463
 30
0.0
 10
-7.0712
 20
21.1463
 30
0.0
 10
11.3615
 20
21.9284
 30
0.0
 10
11.3615
 20
21.9284
 30
0.0
  0
SPLINE
  5
76
330
1F
100
AcDbEntity
  8
DEFAULT_1
 62
   250
370
    18
100
AcDbSpline
210
0.0
220
0.0
230
1.0
 70
    24
 71
     3
 72
     8
 73
     4
 74
     0
 42
0.0000000001
 43
0.0000000001
 40
0.0
 40
0.0
 40
0.0
 40
0.0
 40
1.0
 40
1.0
 40
1.0
 40
1.0
 10
-7.3423
 20
19.8156
 30
0.0
 10
-7.3423
 20
19.8156
 30
0.0
 10
11.3127
 20
20.6067
 30
0.0
 10
11.3127
 20
20.6067
 30
0.0
  0
SPLINE
  5
77
330
1F
100
AcDbEntity
  8
DEFAULT_1
 62
   250
370
    18
100
AcDbSpline
210
0.0
220
0.0
230
1.0
 70
    24
 71
     3
 72
     8
 73
     4
 74
     0
 42
0.0000000001
 43
0.0000000001
 40
0.0
 40
0.0
 40
0.0
 40
0.0
 40
1.0
 40
1.0
 40
1.0
 40
1.0
 10
-7.3423
 20
17.4738
 30
0.0
 10
-7.3423
 20
17.4738
 30
0.0
 10
11.3127
 20
18.2652
 30
0.0
 10
11.3127
 20
18.2652
 30
0.0
  0
SPLINE
  5
78
330
1F
100
AcDbEntity
  8
DEFAULT_1
 62
   250
370
    18
100
AcDbSpline
210
0.0
220
0.0
230
1.0
 70
    24
 71
     3
 72
     8
 73
     4
 74
     0
 42
0.0000000001
 43
0.0000000001
 40
0.0
 40
0.0
 40
0.0
 40
0.0
 40
1.0
 40
1.0
 40
1.0
 40
1.0
 10
-7.2955
 20
16.2596
 30
0.0
 10
-7.2955
 20
16.2596
 30
0.0
 10
11.3595
 20
17.051
 30
0.0
 10
11.3595
 20
17.051
 30
0.0
  0
SPLINE
  5
79
330
1F
100
AcDbEntity
  8
DEFAULT_1
 62
   250
370
    18
100
AcDbSpline
210
0.0
220
0.0
230
1.0
 70
    24
 71
     3
 72
     8
 73
     4
 74
     0
 42
0.0000000001
 43
0.0000000001
 40
0.0
 40
0.0
 40
0.0
 40
0.0
 40
1.0
 40
1.0
 40
1.0
 40
1.0
 10
-7.2682
 20
14.9081
 30
0.0
 10
-7.2682
 20
14.9081
 30
0.0
 10
8.5071
 20
15.5781
 30
0.0
 10
8.5071
 20
15.5781
 30
0.0
  0
SPLINE
  5
7A
330
1F
100
AcDbEntity
  8
DEFAULT_1
 62
   250
370
    18
100
AcDbSpline
210
0.0
220
0.0
230
1.0
 70
    24
 71
     3
 72
     8
 73
     4
 74
     0
 42
0.0000000001
 43
0.0000000001
 40
0.0
 40
0.0
 40
0.0
 40
0.0
 40
1.0
 40
1.0
 40
1.0
 40
1.0
 10
8.2798
 20
15.5665
 30
0.0
 10
8.2798
 20
15.5665
 30
0.0
 10
11.2485
 20
15.6937
 30
0.0
 10
11.2485
 20
15.6937
 30
0.0
  0
SPLINE
  5
7B
330
1F
100
AcDbEntity
  8
DEFAULT_1
 62
   250
370
    18
100
AcDbSpline
210
0.0
220
0.0
230
1.0
 70
    24
 71
     3
 72
     8
 73
     4
 74
     0
 42
0.0000000001
 43
0.0000000001
 40
0.0
 40
0.0
 40
0.0
 40
0.0
 40
1.0
 40
1.0
 40
1.0
 40
1.0
 10
8.2471
 20
14.202
 30
0.0
 10
8.2471
 20
14.202
 30
0.0
 10
11.2402
 20
14.3283
 30
0.0
 10
11.2402
 20
14.3283
 30
0.0
  0
SPLINE
  5
7C
330
1F
100
AcDbEntity
  8
DEFAULT_1
 62
   250
370
    18
100
AcDbSpline
210
0.0
220
0.0
230
1.0
 70
    24
 71
     3
 72
     8
 73
     4
 74
     0
 42
0.0000000001
 43
0.0000000001
 40
0.0
 40
0.0
 40
0.0
 40
0.0
 40
1.0
 40
1.0
 40
1.0
 40
1.0
 10
-7.2176
 20
13.5453
 30
0.0
 10
-7.2176
 20
13.5453
 30
0.0
 10
8.3307
 20
14.2032
 30
0.0
 10
8.3307
 20
14.2032
 30
0.0
  0
SPLINE
  5
7D
330
1F
100
AcDbEntity
  8
DEFAULT_1
 62
   250
370
    18
100
AcDbSpline
210
0.0
220
0.0
230
1.0
 70
    24
 71
     3
 72
     8
 73
     4
 74
     0
 42
0.0000000001
 43
0.0000000001
 40
0.0
 40
0.0
 40
0.0
 40
0.0
 40
1.0
 40
1.0
 40
1.0
 40
1.0
 10
-7.3014
 20
12.114
 30
0.0
 10
-7.3014
 20
12.114
 30
0.0
 10
8.4189
 20
12.786
 30
0.0
 10
8.4189
 20
12.786
 30
0.0
  0
SPLINE
  5
7E
330
1F
100
AcDbEntity
  8
DEFAULT_1
 62
   250
370
    18
100
AcDbSpline
210
0.0
220
0.0
230
1.0
 70
    24
 71
     3
 72
     8
 73
     4
 74
     0
 42
0.0000000001
 43
0.0000000001
 40
0.0
 40
0.0
 40
0.0
 40
0.0
 40
1.0
 40
1.0
 40
1.0
 40
1.0
 10
8.2153
 20
12.772
 30
0.0
 10
8.2153
 20
12.772
 30
0.0
 10
11.2825
 20
12.9024
 30
0.0
 10
11.2825
 20
12.9024
 30
0.0
  0
SPLINE
  5
7F
330
1F
100
AcDbEntity
  8
DEFAULT_1
 62
   250
370
    18
100
AcDbSpline
210
0.0
220
0.0
230
1.0
 70
    24
 71
     3
 72
     8
 73
     4
 74
     0
 42
0.0000000001
 43
0.0000000001
 40
0.0
 40
0.0
 40
0.0
 40
0.0
 40
1.0
 40
1.0
 40
1.0
 40
1.0
 10
-7.2108
 20
22.2417
 30
0.0
 10
-7.2108
 20
22.2417
 30
0.0
 10
10.0602
 20
22.9744
 30
0.0
 10
10.0602
 20
22.9744
 30
0.0
  0
SPLINE
  5
80
330
1F
100
AcDbEntity
  8
DEFAULT_1
 62
   250
370
    18
100
AcDbSpline
210
0.0
220
0.0
230
1.0
 70
    24
 71
     3
 72
     8
 73
     4
 74
     0
 42
0.0000000001
 43
0.0000000001
 40
0.0
 40
0.0
 40
0.0
 40
0.0
 40
1.0
 40
1.0
 40
1.0
 40
1.0
 10
8.3278
 20
11.6905
 30
0.0
 10
8.3278
 20
11.6905
 30
0.0
 10
11.3964
 20
11.8206
 30
0.0
 10
11.3964
 20
11.8206
 30
0.0
  0
SPLINE
  5
81
330
1F
100
AcDbEntity
  8
DEFAULT_1
 62
   250
370
    35
100
AcDbSpline
210
0.0
220
0.0
230
1.0
 70
    11
 71
     3
 72
    20
 73
    16
 74
     0
 42
0.0000000001
 43
0.0000000001
 40
0.0
 40
0.0
 40
0.0
 40
0.0
 40
0.2
 40
0.2
 40
0.2
 40
0.2
 40
0.4
 40
0.4
 40
0.4
 40
0.4
 40
0.6
 40
0.6
 40
0.6
 40
0.6
 40
1.0
 40
1.0
 40
1.0
 40
1.0
 10
-11.9159
 20
11.3889
 30
0.0
 10
-11.9159
 20
11.3889
 30
0.0
 10
16.0695
 20
11.3889
 30
0.0
 10
16.0695
 20
11.3889
 30
0.0
 10
16.0695
 20
11.3889
 30
0.0
 10
16.0695
 20
11.3889
 30
0.0
 10
16.0695
 20
10.5445
 30
0.0
 10
16.0695
 20
10.5445
 30
0.0
 10
16.0695
 20
10.5445
 30
0.0
 10
16.0695
 20
10.5445
 30
0.0
 10
-11.9159
 20
10.5445
 30
0.0
 10
-11.9159
 20
10.5445
 30
0.0
 10
-11.9159
 20
10.5445
 30
0.0
 10
-11.9159
 20
10.5445
 30
0.0
 10
-11.9159
 20
11.3889
 30
0.0
 10
-11.9159
 20
11.3889
 30
0.0
  0
SPLINE
  5
82
330
1F
100
AcDbEntity
  8
DEFAULT_1
 62
   250
370
    35
100
AcDbSpline
210
0.0
220
0.0
230
1.0
 70
    11
 71
     3
 72
    20
 73
    16
 74
     0
 42
0.0000000001
 43
0.0000000001
 40
0.0
 40
0.0
 40
0.0
 40
0.0
 40
0.2
 40
0.2
 40
0.2
 40
0.2
 40
0.4
 40
0.4
 40
0.4
 40
0.4
 40
0.6
 40
0.6
 40
0.6
 40
0.6
 40
1.0
 40
1.0
 40
1.0
 40
1.0
 10
-11.9523
 20
19.2415
 30
0.0
 10
-11.9523
 20
19.2415
 30
0.0
 10
16.0331
 20
19.2415
 30
0.0
 10
16.0331
 20
19.2415
 30
0.0
 10
16.0331
 20
19.2415
 30
0.0
 10
16.0331
 20
19.2415
 30
0.0
 10
16.0331
 20
18.3971
 30
0.0
 10
16.0331
 20
18.3971
 30
0.0
 10
16.0331
 20
18.3971
 30
0.0
 10
16.0331
 20
18.3971
 30
0.0
 10
-11.9523
 20
18.3971
 30
0.0
 10
-11.9523
 20
18.3971
 30
0.0
 10
-11.9523
 20
18.3971
 30
0.0
 10
-11.9523
 20
18.3971
 30
0.0
 10
-11.9523
 20
19.2415
 30
0.0
 10
-11.9523
 20
19.2415
 30
0.0
  0
SPLINE
  5
83
330
1F
100
AcDbEntity
  8
DEFAULT_1
 62
   250
370
    35
100
AcDbSpline
210
0.0
220
0.0
230
1.0
 70
    27
 71
     3
 72
    12
 73
     8
 74
     0
 42
0.0000000001
 43
0.0000000001
 40
0.0
 40
0.0
 40
0.0
 40
0.0
 40
0.3333333333333333
 40
0.3333333333333333
 40
0.3333333333333333
 40
0.3333333333333333
 40
1.0
 40
1.0
 40
1.0
 40
1.0
 10
11.3203
 20
23.0503
 30
0.0
 10
11.3203
 20
23.0503
 30
0.0
 10
11.3203
 20
19.2507
 30
0.0
 10
11.3203
 20
19.2507
 30
0.0
 10
11.3203
 20
19.2507
 30
0.0
 10
11.3203
 20
19.2507
 30
0.0
 10
11.3203
 20
23.0503
 30
0.0
 10
11.3203
 20
23.0503
 30
0.0
  0
SPLINE
  5
84
330
1F
100
AcDbEntity
  8
DEFAULT_1
 62
   250
370
    35
100
AcDbSpline
210
0.0
220
0.0
230
1.0
 70
    27
 71
     3
 72
    12
 73
     8
 74
     0
 42
0.0000000001
 43
0.0000000001
 40
0.0
 40
0.0
 40
0.0
 40
0.0
 40
0.3333333333333333
 40
0.3333333333333333
 40
0.3333333333333333
 40
0.3333333333333333
 40
1.0
 40
1.0
 40
1.0
 40
1.0
 10
11.3203
 20
18.4167
 30
0.0
 10
11.3203
 20
18.4167
 30
0.0
 10
11.3203
 20
11.466
 30
0.0
 10
11.3203
 20
11.466
 30
0.0
 10
11.3203
 20
11.466
 30
0.0
 10
11.3203
 20
11.466
 30
0.0
 10
11.3203
 20
18.4167
 30
0.0
 10
11.3203
 20
18.4167
 30
0.0
  0
SPLINE
  5
85
330
1F
100
AcDbEntity
  8
DEFAULT_1
 62
   250
370
    35
100
AcDbSpline
210
0.0
220
0.0
230
1.0
 70
    27
 71
     3
 72
    12
 73
     8
 74
     0
 42
0.0000000001
 43
0.0000000001
 40
0.0
 40
0.0
 40
0.0
 40
0.0
 40
0.3333333333333333
 40
0.3333333333333333
 40
0.3333333333333333
 40
0.3333333333333333
 40
1.0
 40
1.0
 40
1.0
 40
1.0
 10
-7.2146
 20
18.4167
 30
0.0
 10
-7.2146
 20
18.4167
 30
0.0
 10
-7.2146
 20
11.466
 30
0.0
 10
-7.2146
 20
11.466
 30
0.0
 10
-7.2146
 20
11.466
 30
0.0
 10
-7.2146
 20
11.466
 30
0.0
 10
-7.2146
 20
18.4167
 30
0.0
 10
-7.2146
 20
18.4167
 30
0.0
  0
SPLINE
  5
86
330
1F
100
AcDbEntity
  8
DEFAULT_1
 62
   250
370
    35
100
AcDbSpline
210
0.0
220
0.0
230
1.0
 70
    27
 71
     3
 72
    12
 73
     8
 74
     0
 42
0.0000000001
 43
0.0000000001
 40
0.0
 40
0.0
 40
0.0
 40
0.0
 40
0.3333333333333333
 40
0.3333333333333333
 40
0.3333333333333333
 40
0.3333333333333333
 40
1.0
 40
1.0
 40
1.0
 40
1.0
 10
-7.2146
 20
23.0503
 30
0.0
 10
-7.2146
 20
23.0503
 30
0.0
 10
-7.2146
 20
19.2507
 30
0.0
 10
-7.2146
 20
19.2507
 30
0.0
 10
-7.2146
 20
19.2507
 30
0.0
 10
-7.2146
 20
19.2507
 30
0.0
 10
-7.2146
 20
23.0503
 30
0.0
 10
-7.2146
 20
23.0503
 30
0.0
  0
SPLINE
  5
87
330
1F
100
AcDbEntity
  8
DEFAULT_1
 62
   250
370
    35
100
AcDbSpline
210
0.0
220
0.0
230
1.0
 70
    27
 71
     3
 72
    12
 73
     8
 74
     0
 42
0.0000000001
 43
0.0000000001
 40
0.0
 40
0.0
 40
0.0
 40
0.0
 40
0.3333333333333333
 40
0.3333333333333333
 40
0.3333333333333333
 40
0.3333333333333333
 40
1.0
 40
1.0
 40
1.0
 40
1.0
 10
11.3203
 20
10.632
 30
0.0
 10
11.3203
 20
10.632
 30
0.0
 10
11.3203
 20
9.7052
 30
0.0
 10
11.3203
 20
9.7052
 30
0.0
 10
11.3203
 20
9.7052
 30
0.0
 10
11.3203
 20
9.7052
 30
0.0
 10
11.3203
 20
10.632
 30
0.0
 10
11.3203
 20
10.632
 30
0.0
  0
SPLINE
  5
88
330
1F
100
AcDbEntity
  8
DEFAULT_1
 62
   250
370
    35
100
AcDbSpline
210
0.0
220
0.0
230
1.0
 70
    27
 71
     3
 72
    12
 73
     8
 74
     0
 42
0.0000000001
 43
0.0000000001
 40
0.0
 40
0.0
 40
0.0
 40
0.0
 40
0.3333333333333333
 40
0.3333333333333333
 40
0.3333333333333333
 40
0.3333333333333333
 40
1.0
 40
1.0
 40
1.0
 40
1.0
 10
-7.2146
 20
10.632
 30
0.0
 10
-7.2146
 20
10.632
 30
0.0
 10
-7.2146
 20
9.7052
 30
0.0
 10
-7.2146
 20
9.7052
 30
0.0
 10
-7.2146
 20
9.7052
 30
0.0
 10
-7.2146
 20
9.7052
 30
0.0
 10
-7.2146
 20
10.632
 30
0.0
 10
-7.2146
 20
10.632
 30
0.0
  0
SPLINE
  5
89
330
1F
100
AcDbEntity
  8
DEFAULT_1
 62
   250
370
    35
100
AcDbSpline
210
0.0
220
0.0
230
1.0
 70
    11
 71
     3
 72
    36
 73
    32
 74
     0
 42
0.0000000001
 43
0.0000000001
 40
0.0
 40
0.0
 40
0.0
 40
0.0
 40
0.1111111111111111
 40
0.1111111111111111
 40
0.1111111111111111
 40
0.1111111111111111
 40
0.2222222222222222
 40
0.2222222222222222
 40
0.2222222222222222
 40
0.2222222222222222
 40
0.3333333333333333
 40
0.3333333333333333
 40
0.3333333333333333
 40
0.3333333333333333
 40
0.4444444444444444
 40
0.4444444444444444
 40
0.4444444444444444
 40
0.4444444444444444
 40
0.5555555555555556
 40
0.5555555555555556
 40
0.5555555555555556
 40
0.5555555555555556
 40
0.6666666666666666
 40
0.6666666666666666
 40
0.6666666666666666
 40
0.6666666666666666
 40
0.7777777777777778
 40
0.7777777777777778
 40
0.7777777777777778
 40
0.7777777777777778
 40
1.0
 40
1.0
 40
1.0
 40
1.0
 10
16.4174
 20
24.4404
 30
0.0
 10
16.4174
 20
24.4404
 30
0.0
 10
-12.3116
 20
24.4404
 30
0.0
 10
-12.3116
 20
24.4404
 30
0.0
 10
-12.3116
 20
24.4404
 30
0.0
 10
-12.3116
 20
24.4404
 30
0.0
 10
-12.3014
 20
24.0986
 30
0.0
 10
-12.3014
 20
24.0986
 30
0.0
 10
-12.3014
 20
24.0986
 30
0.0
 10
-12.3014
 20
24.0986
 30
0.0
 10
-11.5466
 20
23.3094
 30
0.0
 10
-11.5466
 20
23.3094
 30
0.0
 10
-11.5466
 20
23.3094
 30
0.0
 10
-11.5466
 20
23.3094
 30
0.0
 10
-7.1166
 20
22.9806
 30
0.0
 10
-7.1166
 20
22.9806
 30
0.0
 10
-7.1166
 20
22.9806
 30
0.0
 10
-7.1166
 20
22.9806
 30
0.0
 10
11.2922
 20
22.9806
 30
0.0
 10
11.2922
 20
22.9806
 30
0.0
 10
11.2922
 20
22.9806
 30
0.0
 10
11.2922
 20
22.9806
 30
0.0
 10
15.6893
 20
23.3423
 30
0.0
 10
15.6893
 20
23.3423
 30
0.0
 10
15.6893
 20
23.3423
 30
0.0
 10
15.6893
 20
23.3423
 30
0.0
 10
16.4112
 20
24.0328
 30
0.0
 10
16.4112
 20
24.0328
 30
0.0
 10
16.4112
 20
24.0328
 30
0.0
 10
16.4112
 20
24.0328
 30
0.0
 10
16.4174
 20
24.4404
 30
0.0
 10
16.4174
 20
24.4404
 30
0.0
  0
SPLINE
  5
8A
330
1F
100
AcDbEntity
  8
DEFAULT_1
 62
   250
100
AcDbSpline
210
0.0
220
0.0
230
1.0
 70
    11
 71
     3
 72
   140
 73
   136
 74
     0
 42
0.0000000001
 43
0.0000000001
 40
0.0
 40
0.0
 40
0.0
 40
0.0
 40
0.0285714285714286
 40
0.0285714285714286
 40
0.0285714285714286
 40
0.0285714285714286
 40
0.0571428571428571
 40
0.0571428571428571
 40
0.0571428571428571
 40
0.0571428571428571
 40
0.0857142857142857
 40
0.0857142857142857
 40
0.0857142857142857
 40
0.0857142857142857
 40
0.1142857142857143
 40
0.1142857142857143
 40
0.1142857142857143
 40
0.1142857142857143
 40
0.1428571428571428
 40
0.1428571428571428
 40
0.1428571428571428
 40
0.1428571428571428
 40
0.1714285714285714
 40
0.1714285714285714
 40
0.1714285714285714
 40
0.1714285714285714
 40
0.2
 40
0.2
 40
0.2
 40
0.2
 40
0.2285714285714286
 40
0.2285714285714286
 40
0.2285714285714286
 40
0.2285714285714286
 40
0.2571428571428571
 40
0.2571428571428571
 40
0.2571428571428571
 40
0.2571428571428571
 40
0.2857142857142857
 40
0.2857142857142857
 40
0.2857142857142857
 40
0.2857142857142857
 40
0.3142857142857143
 40
0.3142857142857143
 40
0.3142857142857143
 40
0.3142857142857143
 40
0.3428571428571429
 40
0.3428571428571429
 40
0.3428571428571429
 40
0.3428571428571429
 40
0.3714285714285714
 40
0.3714285714285714
 40
0.3714285714285714
 40
0.3714285714285714
 40
0.4
 40
0.4
 40
0.4
 40
0.4
 40
0.4285714285714285
 40
0.4285714285714285
 40
0.4285714285714285
 40
0.4285714285714285
 40
0.4571428571428571
 40
0.4571428571428571
 40
0.4571428571428571
 40
0.4571428571428571
 40
0.4857142857142857
 40
0.4857142857142857
 40
0.4857142857142857
 40
0.4857142857142857
 40
0.5142857142857142
 40
0.5142857142857142
 40
0.5142857142857142
 40
0.5142857142857142
 40
0.5428571428571428
 40
0.5428571428571428
 40
0.5428571428571428
 40
0.5428571428571428
 40
0.5714285714285714
 40
0.5714285714285714
 40
0.5714285714285714
 40
0.5714285714285714
 40
0.6
 40
0.6
 40
0.6
 40
0.6
 40
0.6285714285714286
 40
0.6285714285714286
 40
0.6285714285714286
 40
0.6285714285714286
 40
0.6571428571428571
 40
0.6571428571428571
 40
0.6571428571428571
 40
0.6571428571428571
 40
0.6857142857142857
 40
0.6857142857142857
 40
0.6857142857142857
 40
0.6857142857142857
 40
0.7142857142857143
 40
0.7142857142857143
 40
0.7142857142857143
 40
0.7142857142857143
 40
0.7428571428571429
 40
0.7428571428571429
 40
0.7428571428571429
 40
0.7428571428571429
 40
0.7714285714285715
 40
0.7714285714285715
 40
0.7714285714285715
 40
0.7714285714285715
 40
0.8
 40
0.8
 40
0.8
 40
0.8
 40
0.8285714285714286
 40
0.8285714285714286
 40
0.8285714285714286
 40
0.8285714285714286
 40
0.8571428571428571
 40
0.8571428571428571
 40
0.8571428571428571
 40
0.8571428571428571
 40
0.8857142857142857
 40
0.8857142857142857
 40
0.8857142857142857
 40
0.8857142857142857
 40
0.9142857142857143
 40
0.9142857142857143
 40
0.9142857142857143
 40
0.9142857142857143
 40
0.9428571428571428
 40
0.9428571428571428
 40
0.9428571428571428
 40
0.9428571428571428
 40
1.0
 40
1.0
 40
1.0
 40
1.0
 10
0.2501
 20
-26.78
 30
0.0
 10
0.2501
 20
-26.78
 30
0.0
 10
-0.6114
 20
-26.78
 30
0.0
 10
-0.6114
 20
-26.78
 30
0.0
 10
-0.6114
 20
-26.78
 30
0.0
 10
-0.6114
 20
-26.78
 30
0.0
 10
-0.6114
 20
-27.0516
 30
0.0
 10
-0.6114
 20
-27.0516
 30
0.0
 10
-0.6114
 20
-27.0516
 30
0.0
 10
-0.6114
 20
-27.0516
 30
0.0
 10
-0.0836
 20
-27.0516
 30
0.0
 10
-0.0836
 20
-27.0516
 30
0.0
 10
-0.0836
 20
-27.0516
 30
0.0
 10
-0.0836
 20
-27.0516
 30
0.0
 10
-0.0836
 20
-27.8316
 30
0.0
 10
-0.0836
 20
-27.8316
 30
0.0
 10
-0.0836
 20
-27.8316
 30
0.0
 10
-0.1224
 20
-27.8517
 30
0.0
 10
-0.1793
 20
-27.8678
 30
0.0
 10
-0.255
 20
-27.8814
 30
0.0
 10
-0.255
 20
-27.8814
 30
0.0
 10
-0.33
 20
-27.8944
 30
0.0
 10
-0.4232
 20
-27.9008
 30
0.0
 10
-0.5338
 20
-27.9015
 30
0.0
 10
-0.5338
 20
-27.9015
 30
0.0
 10
-0.6877
 20
-27.9015
 30
0.0
 10
-0.8261
 20
-27.8775
 30
0.0
 10
-0.9503
 20
-27.8297
 30
0.0
 10
-0.9503
 20
-27.8297
 30
0.0
 10
-1.0738
 20
-27.7825
 30
0.0
 10
-1.1799
 20
-27.7133
 30
0.0
 10
-1.2685
 20
-27.6227
 30
0.0
 10
-1.2685
 20
-27.6227
 30
0.0
 10
-1.3564
 20
-27.5315
 30
0.0
 10
-1.4243
 20
-27.4209
 30
0.0
 10
-1.4716
 20
-27.2909
 30
0.0
 10
-1.4716
 20
-27.2909
 30
0.0
 10
-1.5188
 20
-27.1603
 30
0.0
 10
-1.542
 20
-27.0122
 30
0.0
 10
-1.5427
 20
-26.846
 30
0.0
 10
-1.5427
 20
-26.846
 30
0.0
 10
-1.542
 20
-26.6817
 30
0.0
 10
-1.5175
 20
-26.5349
 30
0.0
 10
-1.4677
 20
-26.4049
 30
0.0
 10
-1.4677
 20
-26.4049
 30
0.0
 10
-1.4185
 20
-26.2755
 30
0.0
 10
-1.348
 20
-26.1649
 30
0.0
 10
-1.2555
 20
-26.0744
 30
0.0
 10
-1.2555
 20
-26.0744
 30
0.0
 10
-1.1631
 20
-25.9832
 30
0.0
 10
-1.0531
 20
-25.914
 30
0.0
 10
-0.9238
 20
-25.8661
 30
0.0
 10
-0.9238
 20
-25.8661
 30
0.0
 10
-0.7951
 20
-25.8189
 30
0.0
 10
-0.6508
 20
-25.7944
 30
0.0
 10
-0.4911
 20
-25.7944
 30
0.0
 10
-0.4911
 20
-25.7944
 30
0.0
 10
-0.4031
 20
-25.7944
 30
0.0
 10
-0.3249
 20
-25.7995
 30
0.0
 10
-0.255
 20
-25.8086
 30
0.0
 10
-0.255
 20
-25.8086
 30
0.0
 10
-0.1852
 20
-25.8183
 30
0.0
 10
-0.1224
 20
-25.8312
 30
0.0
 10
-0.0662
 20
-25.848
 30
0.0
 10
-0.0662
 20
-25.848
 30
0.0
 10
-0.0099
 20
-25.8649
 30
0.0
 10
0.0412
 20
-25.8849
 30
0.0
 10
0.0871
 20
-25.9069
 30
0.0
 10
0.0871
 20
-25.9069
 30
0.0
 10
0.0871
 20
-25.9069
 30
0.0
 10
0.1725
 20
-25.6314
 30
0.0
 10
0.1725
 20
-25.6314
 30
0.0
 10
0.1725
 20
-25.6314
 30
0.0
 10
0.1343
 20
-25.6126
 30
0.0
 10
0.0839
 20
-25.5945
 30
0.0
 10
0.0199
 20
-25.5758
 30
0.0
 10
0.0199
 20
-25.5758
 30
0.0
 10
-0.0442
 20
-25.5576
 30
0.0
 10
-0.1186
 20
-25.5421
 30
0.0
 10
-0.2039
 20
-25.5298
 30
0.0
 10
-0.2039
 20
-25.5298
 30
0.0
 10
-0.2886
 20
-25.5182
 30
0.0
 10
-0.3818
 20
-25.5117
 30
0.0
 10
-0.4833
 20
-25.5111
 30
0.0
 10
-0.4833
 20
-25.5111
 30
0.0
 10
-0.7032
 20
-25.5117
 30
0.0
 10
-0.9005
 20
-25.546
 30
0.0
 10
-1.0744
 20
-25.6126
 30
0.0
 10
-1.0744
 20
-25.6126
 30
0.0
 10
-1.2491
 20
-25.6792
 30
0.0
 10
-1.3978
 20
-25.773
 30
0.0
 10
-1.5201
 20
-25.894
 30
0.0
 10
-1.5201
 20
-25.894
 30
0.0
 10
-1.6429
 20
-26.0149
 30
0.0
 10
-1.7367
 20
-26.1572
 30
0.0
 10
-1.8014
 20
-26.3215
 30
0.0
 10
-1.8014
 20
-26.3215
 30
0.0
 10
-1.8667
 20
-26.4857
 30
0.0
 10
-1.8991
 20
-26.6655
 30
0.0
 10
-1.8997
 20
-26.8615
 30
0.0
 10
-1.8997
 20
-26.8615
 30
0.0
 10
-1.8991
 20
-26.998
 30
0.0
 10
-1.8842
 20
-27.126
 30
0.0
 10
-1.8551
 20
-27.247
 30
0.0
 10
-1.8551
 20
-27.247
 30
0.0
 10
-1.826
 20
-27.3673
 30
0.0
 10
-1.7839
 20
-27.4772
 30
0.0
 10
-1.7296
 20
-27.5768
 30
0.0
 10
-1.7296
 20
-27.5768
 30
0.0
 10
-1.6753
 20
-27.6764
 30
0.0
 10
-1.6106
 20
-27.7624
 30
0.0
 10
-1.5349
 20
-27.8355
 30
0.0
 10
-1.5349
 20
-27.8355
 30
0.0
 10
-1.4069
 20
-27.9571
 30
0.0
 10
-1.2614
 20
-28.045
 30
0.0
 10
-1.0984
 20
-28.1
 30
0.0
 10
-1.0984
 20
-28.1
 30
0.0
 10
-0.9354
 20
-28.155
 30
0.0
 10
-0.755
 20
-28.1815
 30
0.0
 10
-0.557
 20
-28.1809
 30
0.0
 10
-0.557
 20
-28.1809
 30
0.0
 10
-0.4387
 20
-28.1802
 30
0.0
 10
-0.3281
 20
-28.1718
 30
0.0
 10
-0.2246
 20
-28.1563
 30
0.0
 10
-0.2246
 20
-28.1563
 30
0.0
 10
-0.1211
 20
-28.1408
 30
0.0
 10
-0.0287
 20
-28.122
 30
0.0
 10
0.0522
 20
-28.1007
 30
0.0
 10
0.0522
 20
-28.1007
 30
0.0
 10
0.133
 20
-28.0787
 30
0.0
 10
0.199
 20
-28.0573
 30
0.0
 10
0.2501
 20
-28.0373
 30
0.0
 10
0.2501
 20
-28.0373
 30
0.0
 10
0.2501
 20
-28.0373
 30
0.0
 10
0.2501
 20
-26.78
 30
0.0
 10
0.2501
 20
-26.78
 30
0.0
  0
SPLINE
  5
8B
330
1F
100
AcDbEntity
  8
DEFAULT_1
 62
   250
100
AcDbSpline
210
0.0
220
0.0
230
1.0
 70
    11
 71
     3
 72
   132
 73
   128
 74
     0
 42
0.0000000001
 43
0.0000000001
 40
0.0
 40
0.0
 40
0.0
 40
0.0
 40
0.0303030303030303
 40
0.0303030303030303
 40
0.0303030303030303
 40
0.0303030303030303
 40
0.0606060606060606
 40
0.0606060606060606
 40
0.0606060606060606
 40
0.0606060606060606
 40
0.0909090909090909
 40
0.0909090909090909
 40
0.0909090909090909
 40
0.0909090909090909
 40
0.1212121212121212
 40
0.1212121212121212
 40
0.1212121212121212
 40
0.1212121212121212
 40
0.1515151515151515
 40
0.1515151515151515
 40
0.1515151515151515
 40
0.1515151515151515
 40
0.1818181818181818
 40
0.1818181818181818
 40
0.1818181818181818
 40
0.1818181818181818
 40
0.2121212121212121
 40
0.2121212121212121
 40
0.2121212121212121
 40
0.2121212121212121
 40
0.2424242424242424
 40
0.2424242424242424
 40
0.2424242424242424
 40
0.2424242424242424
 40
0.2727272727272727
 40
0.2727272727272727
 40
0.2727272727272727
 40
0.2727272727272727
 40
0.303030303030303
 40
0.303030303030303
 40
0.303030303030303
 40
0.303030303030303
 40
0.3333333333333333
 40
0.3333333333333333
 40
0.3333333333333333
 40
0.3333333333333333
 40
0.3636363636363636
 40
0.3636363636363636
 40
0.3636363636363636
 40
0.3636363636363636
 40
0.3939393939393939
 40
0.3939393939393939
 40
0.3939393939393939
 40
0.3939393939393939
 40
0.4242424242424243
 40
0.4242424242424243
 40
0.4242424242424243
 40
0.4242424242424243
 40
0.4545454545454545
 40
0.4545454545454545
 40
0.4545454545454545
 40
0.4545454545454545
 40
0.4848484848484849
 40
0.4848484848484849
 40
0.4848484848484849
 40
0.4848484848484849
 40
0.5151515151515151
 40
0.5151515151515151
 40
0.5151515151515151
 40
0.5151515151515151
 40
0.5454545454545454
 40
0.5454545454545454
 40
0.5454545454545454
 40
0.5454545454545454
 40
0.5757575757575758
 40
0.5757575757575758
 40
0.5757575757575758
 40
0.5757575757575758
 40
0.6060606060606061
 40
0.6060606060606061
 40
0.6060606060606061
 40
0.6060606060606061
 40
0.6363636363636364
 40
0.6363636363636364
 40
0.6363636363636364
 40
0.6363636363636364
 40
0.6666666666666666
 40
0.6666666666666666
 40
0.6666666666666666
 40
0.6666666666666666
 40
0.696969696969697
 40
0.696969696969697
 40
0.696969696969697
 40
0.696969696969697
 40
0.7272727272727273
 40
0.7272727272727273
 40
0.7272727272727273
 40
0.7272727272727273
 40
0.7575757575757576
 40
0.7575757575757576
 40
0.7575757575757576
 40
0.7575757575757576
 40
0.7878787878787878
 40
0.7878787878787878
 40
0.7878787878787878
 40
0.7878787878787878
 40
0.8181818181818182
 40
0.8181818181818182
 40
0.8181818181818182
 40
0.8181818181818182
 40
0.8484848484848485
 40
0.8484848484848485
 40
0.8484848484848485
 40
0.8484848484848485
 40
0.8787878787878788
 40
0.8787878787878788
 40
0.8787878787878788
 40
0.8787878787878788
 40
0.9090909090909091
 40
0.9090909090909091
 40
0.9090909090909091
 40
0.9090909090909091
 40
0.9393939393939394
 40
0.9393939393939394
 40
0.9393939393939394
 40
0.9393939393939394
 40
1.0
 40
1.0
 40
1.0
 40
1.0
 10
2.9704
 20
-25.6314
 30
0.0
 10
2.9704
 20
-25.6314
 30
0.0
 10
1.7635
 20
-25.6314
 30
0.0
 10
1.7635
 20
-25.6314
 30
0.0
 10
1.7635
 20
-25.6314
 30
0.0
 10
1.7635
 20
-25.6314
 30
0.0
 10
1.6005
 20
-26.8421
 30
0.0
 10
1.6005
 20
-26.8421
 30
0.0
 10
1.6005
 20
-26.8421
 30
0.0
 10
1.6471
 20
-26.8356
 30
0.0
 10
1.6988
 20
-26.8304
 30
0.0
 10
1.7571
 20
-26.8259
 30
0.0
 10
1.7571
 20
-26.8259
 30
0.0
 10
1.8146
 20
-26.8214
 30
0.0
 10
1.8806
 20
-26.8188
 30
0.0
 10
1.9537
 20
-26.8188
 30
0.0
 10
1.9537
 20
-26.8188
 30
0.0
 10
2.1205
 20
-26.8195
 30
0.0
 10
2.257
 20
-26.8434
 30
0.0
 10
2.3631
 20
-26.89
 30
0.0
 10
2.3631
 20
-26.89
 30
0.0
 10
2.4698
 20
-26.9372
 30
0.0
 10
2.5487
 20
-27.0018
 30
0.0
 10
2.5998
 20
-27.0846
 30
0.0
 10
2.5998
 20
-27.0846
 30
0.0
 10
2.6509
 20
-27.1681
 30
0.0
 10
2.6761
 20
-27.2644
 30
0.0
 10
2.6754
 20
-27.3737
 30
0.0
 10
2.6754
 20
-27.3737
 30
0.0
 10
2.6761
 20
-27.4584
 30
0.0
 10
2.6606
 20
-27.5341
 30
0.0
 10
2.6289
 20
-27.6014
 30
0.0
 10
2.6289
 20
-27.6014
 30
0.0
 10
2.5978
 20
-27.6693
 30
0.0
 10
2.5545
 20
-27.7262
 30
0.0
 10
2.4995
 20
-27.7741
 30
0.0
 10
2.4995
 20
-27.7741
 30
0.0
 10
2.4445
 20
-27.8213
 30
0.0
 10
2.3812
 20
-27.8575
 30
0.0
 10
2.3094
 20
-27.8827
 30
0.0
 10
2.3094
 20
-27.8827
 30
0.0
 10
2.2376
 20
-27.9079
 30
0.0
 10
2.1619
 20
-27.9209
 30
0.0
 10
2.0817
 20
-27.9209
 30
0.0
 10
2.0817
 20
-27.9209
 30
0.0
 10
2.0035
 20
-27.9202
 30
0.0
 10
1.9297
 20
-27.9131
 30
0.0
 10
1.8605
 20
-27.8982
 30
0.0
 10
1.8605
 20
-27.8982
 30
0.0
 10
1.7913
 20
-27.884
 30
0.0
 10
1.7292
 20
-27.8665
 30
0.0
 10
1.6743
 20
-27.8452
 30
0.0
 10
1.6743
 20
-27.8452
 30
0.0
 10
1.6193
 20
-27.8239
 30
0.0
 10
1.574
 20
-27.8025
 30
0.0
 10
1.5385
 20
-27.7812
 30
0.0
 10
1.5385
 20
-27.7812
 30
0.0
 10
1.5385
 20
-27.7812
 30
0.0
 10
1.4531
 20
-28.0412
 30
0.0
 10
1.4531
 20
-28.0412
 30
0.0
 10
1.4531
 20
-28.0412
 30
0.0
 10
1.4951
 20
-28.0677
 30
0.0
 10
1.5475
 20
-28.0923
 30
0.0
 10
1.6102
 20
-28.1162
 30
0.0
 10
1.6102
 20
-28.1162
 30
0.0
 10
1.673
 20
-28.1395
 30
0.0
 10
1.7441
 20
-28.1582
 30
0.0
 10
1.8237
 20
-28.1731
 30
0.0
 10
1.8237
 20
-28.1731
 30
0.0
 10
1.9039
 20
-28.188
 30
0.0
 10
1.9899
 20
-28.1957
 30
0.0
 10
2.0817
 20
-28.1964
 30
0.0
 10
2.0817
 20
-28.1964
 30
0.0
 10
2.2195
 20
-28.1957
 30
0.0
 10
2.3449
 20
-28.1737
 30
0.0
 10
2.4594
 20
-28.1311
 30
0.0
 10
2.4594
 20
-28.1311
 30
0.0
 10
2.5739
 20
-28.0884
 30
0.0
 10
2.6729
 20
-28.0282
 30
0.0
 10
2.7563
 20
-27.9506
 30
0.0
 10
2.7563
 20
-27.9506
 30
0.0
 10
2.8404
 20
-27.873
 30
0.0
 10
2.905
 20
-27.7818
 30
0.0
 10
2.951
 20
-27.6777
 30
0.0
 10
2.951
 20
-27.6777
 30
0.0
 10
2.9969
 20
-27.5729
 30
0.0
 10
3.0202
 20
-27.4584
 30
0.0
 10
3.0208
 20
-27.3349
 30
0.0
 10
3.0208
 20
-27.3349
 30
0.0
 10
3.0202
 20
-27.2301
 30
0.0
 10
3.0033
 20
-27.1357
 30
0.0
 10
2.971
 20
-27.0523
 30
0.0
 10
2.971
 20
-27.0523
 30
0.0
 10
2.9387
 20
-26.9689
 30
0.0
 10
2.896
 20
-26.8971
 30
0.0
 10
2.8417
 20
-26.8363
 30
0.0
 10
2.8417
 20
-26.8363
 30
0.0
 10
2.7873
 20
-26.7755
 30
0.0
 10
2.7265
 20
-26.727
 30
0.0
 10
2.6599
 20
-26.6908
 30
0.0
 10
2.6599
 20
-26.6908
 30
0.0
 10
2.5817
 20
-26.6429
 30
0.0
 10
2.4969
 20
-26.608
 30
0.0
 10
2.4045
 20
-26.5866
 30
0.0
 10
2.4045
 20
-26.5866
 30
0.0
 10
2.312
 20
-26.5653
 30
0.0
 10
2.2162
 20
-26.5543
 30
0.0
 10
2.1166
 20
-26.5549
 30
0.0
 10
2.1166
 20
-26.5549
 30
0.0
 10
2.0714
 20
-26.5549
 30
0.0
 10
2.0326
 20
-26.5556
 30
0.0
 10
2.0009
 20
-26.5575
 30
0.0
 10
2.0009
 20
-26.5575
 30
0.0
 10
1.9692
 20
-26.5595
 30
0.0
 10
1.9394
 20
-26.5627
 30
0.0
 10
1.911
 20
-26.5666
 30
0.0
 10
1.911
 20
-26.5666
 30
0.0
 10
1.911
 20
-26.5666
 30
0.0
 10
2.008
 20
-25.9185
 30
0.0
 10
2.008
 20
-25.9185
 30
0.0
 10
2.008
 20
-25.9185
 30
0.0
 10
2.008
 20
-25.9185
 30
0.0
 10
2.9704
 20
-25.9185
 30
0.0
 10
2.9704
 20
-25.9185
 30
0.0
 10
2.9704
 20
-25.9185
 30
0.0
 10
2.9704
 20
-25.9185
 30
0.0
 10
2.9704
 20
-25.6314
 30
0.0
 10
2.9704
 20
-25.6314
 30
0.0
  0
SPLINE
  5
8C
330
1F
100
AcDbEntity
  8
DEFAULT_1
 62
   250
100
AcDbSpline
210
0.0
220
0.0
230
1.0
 70
    11
 71
     3
 72
    20
 73
    16
 74
     0
 42
0.0000000001
 43
0.0000000001
 40
0.0
 40
0.0
 40
0.0
 40
0.0
 40
0.2
 40
0.2
 40
0.2
 40
0.2
 40
0.4
 40
0.4
 40
0.4
 40
0.4
 40
0.6
 40
0.6
 40
0.6
 40
0.6
 40
1.0
 40
1.0
 40
1.0
 40
1.0
 10
3.5369
 20
-28.305
 30
0.0
 10
3.5369
 20
-28.305
 30
0.0
 10
4.6235
 20
-25.4917
 30
0.0
 10
4.6235
 20
-25.4917
 30
0.0
 10
4.6235
 20
-25.4917
 30
0.0
 10
4.6235
 20
-25.4917
 30
0.0
 10
4.3557
 20
-25.4917
 30
0.0
 10
4.3557
 20
-25.4917
 30
0.0
 10
4.3557
 20
-25.4917
 30
0.0
 10
4.3557
 20
-25.4917
 30
0.0
 10
3.2769
 20
-28.305
 30
0.0
 10
3.2769
 20
-28.305
 30
0.0
 10
3.2769
 20
-28.305
 30
0.0
 10
3.2769
 20
-28.305
 30
0.0
 10
3.5369
 20
-28.305
 30
0.0
 10
3.5369
 20
-28.305
 30
0.0
  0
SPLINE
  5
8D
330
1F
100
AcDbEntity
  8
DEFAULT_1
 62
   250
100
AcDbSpline
210
0.0
220
0.0
230
1.0
 70
    11
 71
     3
 72
    48
 73
    44
 74
     0
 42
0.0000000001
 43
0.0000000001
 40
0.0
 40
0.0
 40
0.0
 40
0.0
 40
0.0833333333333333
 40
0.0833333333333333
 40
0.0833333333333333
 40
0.0833333333333333
 40
0.1666666666666667
 40
0.1666666666666667
 40
0.1666666666666667
 40
0.1666666666666667
 40
0.25
 40
0.25
 40
0.25
 40
0.25
 40
0.3333333333333333
 40
0.3333333333333333
 40
0.3333333333333333
 40
0.3333333333333333
 40
0.4166666666666667
 40
0.4166666666666667
 40
0.4166666666666667
 40
0.4166666666666667
 40
0.5
 40
0.5
 40
0.5
 40
0.5
 40
0.5833333333333334
 40
0.5833333333333334
 40
0.5833333333333334
 40
0.5833333333333334
 40
0.6666666666666666
 40
0.6666666666666666
 40
0.6666666666666666
 40
0.6666666666666666
 40
0.75
 40
0.75
 40
0.75
 40
0.75
 40
0.8333333333333334
 40
0.8333333333333334
 40
0.8333333333333334
 40
0.8333333333333334
 40
1.0
 40
1.0
 40
1.0
 40
1.0
 10
6.164
 20
-28.1537
 30
0.0
 10
6.164
 20
-28.1537
 30
0.0
 10
6.164
 20
-27.463
 30
0.0
 10
6.164
 20
-27.463
 30
0.0
 10
6.164
 20
-27.463
 30
0.0
 10
6.164
 20
-27.463
 30
0.0
 10
6.5171
 20
-27.463
 30
0.0
 10
6.5171
 20
-27.463
 30
0.0
 10
6.5171
 20
-27.463
 30
0.0
 10
6.5171
 20
-27.463
 30
0.0
 10
6.5171
 20
-27.1991
 30
0.0
 10
6.5171
 20
-27.1991
 30
0.0
 10
6.5171
 20
-27.1991
 30
0.0
 10
6.5171
 20
-27.1991
 30
0.0
 10
6.164
 20
-27.1991
 30
0.0
 10
6.164
 20
-27.1991
 30
0.0
 10
6.164
 20
-27.1991
 30
0.0
 10
6.164
 20
-27.1991
 30
0.0
 10
6.164
 20
-25.6314
 30
0.0
 10
6.164
 20
-25.6314
 30
0.0
 10
6.164
 20
-25.6314
 30
0.0
 10
6.164
 20
-25.6314
 30
0.0
 10
5.7954
 20
-25.6314
 30
0.0
 10
5.7954
 20
-25.6314
 30
0.0
 10
5.7954
 20
-25.6314
 30
0.0
 10
5.7954
 20
-25.6314
 30
0.0
 10
4.67
 20
-27.2418
 30
0.0
 10
4.67
 20
-27.2418
 30
0.0
 10
4.67
 20
-27.2418
 30
0.0
 10
4.67
 20
-27.2418
 30
0.0
 10
4.67
 20
-27.463
 30
0.0
 10
4.67
 20
-27.463
 30
0.0
 10
4.67
 20
-27.463
 30
0.0
 10
4.67
 20
-27.463
 30
0.0
 10
5.8419
 20
-27.463
 30
0.0
 10
5.8419
 20
-27.463
 30
0.0
 10
5.8419
 20
-27.463
 30
0.0
 10
5.8419
 20
-27.463
 30
0.0
 10
5.8419
 20
-28.1537
 30
0.0
 10
5.8419
 20
-28.1537
 30
0.0
 10
5.8419
 20
-28.1537
 30
0.0
 10
5.8419
 20
-28.1537
 30
0.0
 10
6.164
 20
-28.1537
 30
0.0
 10
6.164
 20
-28.1537
 30
0.0
  0
SPLINE
  5
8E
330
1F
100
AcDbEntity
  8
DEFAULT_1
 62
   250
100
AcDbSpline
210
0.0
220
0.0
230
1.0
 70
    11
 71
     3
 72
    36
 73
    32
 74
     0
 42
0.0000000001
 43
0.0000000001
 40
0.0
 40
0.0
 40
0.0
 40
0.0
 40
0.1111111111111111
 40
0.1111111111111111
 40
0.1111111111111111
 40
0.1111111111111111
 40
0.2222222222222222
 40
0.2222222222222222
 40
0.2222222222222222
 40
0.2222222222222222
 40
0.3333333333333333
 40
0.3333333333333333
 40
0.3333333333333333
 40
0.3333333333333333
 40
0.4444444444444444
 40
0.4444444444444444
 40
0.4444444444444444
 40
0.4444444444444444
 40
0.5555555555555556
 40
0.5555555555555556
 40
0.5555555555555556
 40
0.5555555555555556
 40
0.6666666666666666
 40
0.6666666666666666
 40
0.6666666666666666
 40
0.6666666666666666
 40
0.7777777777777778
 40
0.7777777777777778
 40
0.7777777777777778
 40
0.7777777777777778
 40
1.0
 40
1.0
 40
1.0
 40
1.0
 10
5.0154
 20
-27.1991
 30
0.0
 10
5.0154
 20
-27.1991
 30
0.0
 10
5.0154
 20
-27.1913
 30
0.0
 10
5.0154
 20
-27.1913
 30
0.0
 10
5.0154
 20
-27.1913
 30
0.0
 10
5.0154
 20
-27.1913
 30
0.0
 10
5.6324
 20
-26.3337
 30
0.0
 10
5.6324
 20
-26.3337
 30
0.0
 10
5.6324
 20
-26.3337
 30
0.0
 10
5.6666
 20
-26.2762
 30
0.0
 10
5.7009
 20
-26.218
 30
0.0
 10
5.7346
 20
-26.1591
 30
0.0
 10
5.7346
 20
-26.1591
 30
0.0
 10
5.7675
 20
-26.0996
 30
0.0
 10
5.8038
 20
-26.0337
 30
0.0
 10
5.8419
 20
-25.9612
 30
0.0
 10
5.8419
 20
-25.9612
 30
0.0
 10
5.8419
 20
-25.9612
 30
0.0
 10
5.8536
 20
-25.9612
 30
0.0
 10
5.8536
 20
-25.9612
 30
0.0
 10
5.8536
 20
-25.9612
 30
0.0
 10
5.8458
 20
-26.0932
 30
0.0
 10
5.8419
 20
-26.2251
 30
0.0
 10
5.8419
 20
-26.357
 30
0.0
 10
5.8419
 20
-26.357
 30
0.0
 10
5.8419
 20
-26.357
 30
0.0
 10
5.8419
 20
-27.1991
 30
0.0
 10
5.8419
 20
-27.1991
 30
0.0
 10
5.8419
 20
-27.1991
 30
0.0
 10
5.8419
 20
-27.1991
 30
0.0
 10
5.0154
 20
-27.1991
 30
0.0
 10
5.0154
 20
-27.1991
 30
0.0
  0
SPLINE
  5
8F
330
1F
100
AcDbEntity
  8
DEFAULT_1
 62
   250
100
AcDbSpline
210
0.0
220
0.0
230
1.0
 70
    11
 71
     3
 72
    20
 73
    16
 74
     0
 42
0.0000000001
 43
0.0000000001
 40
0.0
 40
0.0
 40
0.0
 40
0.0
 40
0.2
 40
0.2
 40
0.2
 40
0.2
 40
0.4
 40
0.4
 40
0.4
 40
0.4
 40
0.6
 40
0.6
 40
0.6
 40
0.6
 40
1.0
 40
1.0
 40
1.0
 40
1.0
 10
6.8004
 20
-25.4684
 30
0.0
 10
6.8004
 20
-25.4684
 30
0.0
 10
6.8625
 20
-26.3997
 30
0.0
 10
6.8625
 20
-26.3997
 30
0.0
 10
6.8625
 20
-26.3997
 30
0.0
 10
6.8625
 20
-26.3997
 30
0.0
 10
7.072
 20
-26.3997
 30
0.0
 10
7.072
 20
-26.3997
 30
0.0
 10
7.072
 20
-26.3997
 30
0.0
 10
7.072
 20
-26.3997
 30
0.0
 10
7.138
 20
-25.4684
 30
0.0
 10
7.138
 20
-25.4684
 30
0.0
 10
7.138
 20
-25.4684
 30
0.0
 10
7.138
 20
-25.4684
 30
0.0
 10
6.8004
 20
-25.4684
 30
0.0
 10
6.8004
 20
-25.4684
 30
0.0
  0
SPLINE
  5
90
330
1F
100
AcDbEntity
  8
DEFAULT_1
 62
   250
100
AcDbSpline
210
0.0
220
0.0
230
1.0
 70
    11
 71
     3
 72
    20
 73
    16
 74
     0
 42
0.0000000001
 43
0.0000000001
 40
0.0
 40
0.0
 40
0.0
 40
0.0
 40
0.2
 40
0.2
 40
0.2
 40
0.2
 40
0.4
 40
0.4
 40
0.4
 40
0.4
 40
0.6
 40
0.6
 40
0.6
 40
0.6
 40
1.0
 40
1.0
 40
1.0
 40
1.0
 10
7.3786
 20
-25.4684
 30
0.0
 10
7.3786
 20
-25.4684
 30
0.0
 10
7.4446
 20
-26.3997
 30
0.0
 10
7.4446
 20
-26.3997
 30
0.0
 10
7.4446
 20
-26.3997
 30
0.0
 10
7.4446
 20
-26.3997
 30
0.0
 10
7.6502
 20
-26.3997
 30
0.0
 10
7.6502
 20
-26.3997
 30
0.0
 10
7.6502
 20
-26.3997
 30
0.0
 10
7.6502
 20
-26.3997
 30
0.0
 10
7.7162
 20
-25.4684
 30
0.0
 10
7.7162
 20
-25.4684
 30
0.0
 10
7.7162
 20
-25.4684
 30
0.0
 10
7.7162
 20
-25.4684
 30
0.0
 10
7.3786
 20
-25.4684
 30
0.0
 10
7.3786
 20
-25.4684
 30
0.0
  0
SPLINE
  5
91
330
1F
100
AcDbEntity
  8
DEFAULT_1
 62
   250
100
AcDbSpline
210
0.0
220
0.0
230
1.0
 70
    11
 71
     3
 72
   188
 73
   184
 74
     0
 42
0.0000000001
 43
0.0000000001
 40
0.0
 40
0.0
 40
0.0
 40
0.0
 40
0.0212765957446809
 40
0.0212765957446809
 40
0.0212765957446809
 40
0.0212765957446809
 40
0.0425531914893617
 40
0.0425531914893617
 40
0.0425531914893617
 40
0.0425531914893617
 40
0.0638297872340425
 40
0.0638297872340425
 40
0.0638297872340425
 40
0.0638297872340425
 40
0.0851063829787234
 40
0.0851063829787234
 40
0.0851063829787234
 40
0.0851063829787234
 40
0.1063829787234043
 40
0.1063829787234043
 40
0.1063829787234043
 40
0.1063829787234043
 40
0.1276595744680851
 40
0.1276595744680851
 40
0.1276595744680851
 40
0.1276595744680851
 40
0.148936170212766
 40
0.148936170212766
 40
0.148936170212766
 40
0.148936170212766
 40
0.1702127659574468
 40
0.1702127659574468
 40
0.1702127659574468
 40
0.1702127659574468
 40
0.1914893617021277
 40
0.1914893617021277
 40
0.1914893617021277
 40
0.1914893617021277
 40
0.2127659574468085
 40
0.2127659574468085
 40
0.2127659574468085
 40
0.2127659574468085
 40
0.2340425531914894
 40
0.2340425531914894
 40
0.2340425531914894
 40
0.2340425531914894
 40
0.2553191489361702
 40
0.2553191489361702
 40
0.2553191489361702
 40
0.2553191489361702
 40
0.2765957446808511
 40
0.2765957446808511
 40
0.2765957446808511
 40
0.2765957446808511
 40
0.2978723404255319
 40
0.2978723404255319
 40
0.2978723404255319
 40
0.2978723404255319
 40
0.3191489361702128
 40
0.3191489361702128
 40
0.3191489361702128
 40
0.3191489361702128
 40
0.3404255319148936
 40
0.3404255319148936
 40
0.3404255319148936
 40
0.3404255319148936
 40
0.3617021276595745
 40
0.3617021276595745
 40
0.3617021276595745
 40
0.3617021276595745
 40
0.3829787234042553
 40
0.3829787234042553
 40
0.3829787234042553
 40
0.3829787234042553
 40
0.4042553191489361
 40
0.4042553191489361
 40
0.4042553191489361
 40
0.4042553191489361
 40
0.425531914893617
 40
0.425531914893617
 40
0.425531914893617
 40
0.425531914893617
 40
0.4468085106382979
 40
0.4468085106382979
 40
0.4468085106382979
 40
0.4468085106382979
 40
0.4680851063829787
 40
0.4680851063829787
 40
0.4680851063829787
 40
0.4680851063829787
 40
0.4893617021276596
 40
0.4893617021276596
 40
0.4893617021276596
 40
0.4893617021276596
 40
0.5106382978723404
 40
0.5106382978723404
 40
0.5106382978723404
 40
0.5106382978723404
 40
0.5319148936170213
 40
0.5319148936170213
 40
0.5319148936170213
 40
0.5319148936170213
 40
0.5531914893617021
 40
0.5531914893617021
 40
0.5531914893617021
 40
0.5531914893617021
 40
0.574468085106383
 40
0.574468085106383
 40
0.574468085106383
 40
0.574468085106383
 40
0.5957446808510638
 40
0.5957446808510638
 40
0.5957446808510638
 40
0.5957446808510638
 40
0.6170212765957447
 40
0.6170212765957447
 40
0.6170212765957447
 40
0.6170212765957447
 40
0.6382978723404256
 40
0.6382978723404256
 40
0.6382978723404256
 40
0.6382978723404256
 40
0.6595744680851063
 40
0.6595744680851063
 40
0.6595744680851063
 40
0.6595744680851063
 40
0.6808510638297872
 40
0.6808510638297872
 40
0.6808510638297872
 40
0.6808510638297872
 40
0.7021276595744681
 40
0.7021276595744681
 40
0.7021276595744681
 40
0.7021276595744681
 40
0.723404255319149
 40
0.723404255319149
 40
0.723404255319149
 40
0.723404255319149
 40
0.7446808510638298
 40
0.7446808510638298
 40
0.7446808510638298
 40
0.7446808510638298
 40
0.7659574468085106
 40
0.7659574468085106
 40
0.7659574468085106
 40
0.7659574468085106
 40
0.7872340425531915
 40
0.7872340425531915
 40
0.7872340425531915
 40
0.7872340425531915
 40
0.8085106382978723
 40
0.8085106382978723
 40
0.8085106382978723
 40
0.8085106382978723
 40
0.8297872340425532
 40
0.8297872340425532
 40
0.8297872340425532
 40
0.8297872340425532
 40
0.851063829787234
 40
0.851063829787234
 40
0.851063829787234
 40
0.851063829787234
 40
0.8723404255319149
 40
0.8723404255319149
 40
0.8723404255319149
 40
0.8723404255319149
 40
0.8936170212765957
 40
0.8936170212765957
 40
0.8936170212765957
 40
0.8936170212765957
 40
0.9148936170212766
 40
0.9148936170212766
 40
0.9148936170212766
 40
0.9148936170212766
 40
0.9361702127659575
 40
0.9361702127659575
 40
0.9361702127659575
 40
0.9361702127659575
 40
0.9574468085106383
 40
0.9574468085106383
 40
0.9574468085106383
 40
0.9574468085106383
 40
1.0
 40
1.0
 40
1.0
 40
1.0
 10
-19.9322
 20
11.7091
 30
0.0
 10
-19.9322
 20
11.7091
 30
0.0
 10
-19.9322
 20
12.0428
 30
0.0
 10
-19.9322
 20
12.0428
 30
0.0
 10
-19.9322
 20
12.0428
 30
0.0
 10
-19.9322
 20
12.0428
 30
0.0
 10
-21.0614
 20
12.0428
 30
0.0
 10
-21.0614
 20
12.0428
 30
0.0
 10
-21.0614
 20
12.0428
 30
0.0
 10
-21.0912
 20
12.0428
 30
0.0
 10
-21.1203
 20
12.0447
 30
0.0
 10
-21.1494
 20
12.0493
 30
0.0
 10
-21.1494
 20
12.0493
 30
0.0
 10
-21.1785
 20
12.0531
 30
0.0
 10
-21.2044
 20
12.0603
 30
0.0
 10
-21.2283
 20
12.07
 30
0.0
 10
-21.2283
 20
12.07
 30
0.0
 10
-21.2865
 20
12.0881
 30
0.0
 10
-21.3408
 20
12.1172
 30
0.0
 10
-21.3926
 20
12.1573
 30
0.0
 10
-21.3926
 20
12.1573
 30
0.0
 10
-21.4443
 20
12.1967
 30
0.0
 10
-21.4863
 20
12.2452
 30
0.0
 10
-21.5193
 20
12.3021
 30
0.0
 10
-21.5193
 20
12.3021
 30
0.0
 10
-21.5517
 20
12.3591
 30
0.0
 10
-21.5691
 20
12.4231
 30
0.0
 10
-21.5698
 20
12.4929
 30
0.0
 10
-21.5698
 20
12.4929
 30
0.0
 10
-21.5691
 20
12.5796
 30
0.0
 10
-21.5471
 20
12.652
 30
0.0
 10
-21.5032
 20
12.7102
 30
0.0
 10
-21.5032
 20
12.7102
 30
0.0
 10
-21.4598
 20
12.7685
 30
0.0
 10
-21.3997
 20
12.8118
 30
0.0
 10
-21.3234
 20
12.8409
 30
0.0
 10
-21.3234
 20
12.8409
 30
0.0
 10
-21.2464
 20
12.87
 30
0.0
 10
-21.1578
 20
12.8849
 30
0.0
 10
-21.0575
 20
12.8849
 30
0.0
 10
-21.0575
 20
12.8849
 30
0.0
 10
-21.0575
 20
12.8849
 30
0.0
 10
-19.9322
 20
12.8849
 30
0.0
 10
-19.9322
 20
12.8849
 30
0.0
 10
-19.9322
 20
12.8849
 30
0.0
 10
-19.9322
 20
12.8849
 30
0.0
 10
-19.9322
 20
13.2186
 30
0.0
 10
-19.9322
 20
13.2186
 30
0.0
 10
-19.9322
 20
13.2186
 30
0.0
 10
-19.9322
 20
13.2186
 30
0.0
 10
-21.0925
 20
13.2186
 30
0.0
 10
-21.0925
 20
13.2186
 30
0.0
 10
-21.0925
 20
13.2186
 30
0.0
 10
-21.1235
 20
13.2186
 30
0.0
 10
-21.1533
 20
13.2212
 30
0.0
 10
-21.1824
 20
13.2264
 30
0.0
 10
-21.1824
 20
13.2264
 30
0.0
 10
-21.2108
 20
13.2315
 30
0.0
 10
-21.238
 20
13.238
 30
0.0
 10
-21.2632
 20
13.2458
 30
0.0
 10
-21.2632
 20
13.2458
 30
0.0
 10
-21.3182
 20
13.2665
 30
0.0
 10
-21.3693
 20
13.2962
 30
0.0
 10
-21.4152
 20
13.335
 30
0.0
 10
-21.4152
 20
13.335
 30
0.0
 10
-21.4611
 20
13.3738
 30
0.0
 10
-21.4986
 20
13.4197
 30
0.0
 10
-21.5264
 20
13.4734
 30
0.0
 10
-21.5264
 20
13.4734
 30
0.0
 10
-21.5549
 20
13.5271
 30
0.0
 10
-21.5691
 20
13.5872
 30
0.0
 10
-21.5698
 20
13.6532
 30
0.0
 10
-21.5698
 20
13.6532
 30
0.0
 10
-21.5698
 20
13.7438
 30
0.0
 10
-21.5465
 20
13.8194
 30
0.0
 10
-21.5012
 20
13.8796
 30
0.0
 10
-21.5012
 20
13.8796
 30
0.0
 10
-21.4553
 20
13.9397
 30
0.0
 10
-21.39
 20
13.9856
 30
0.0
 10
-21.304
 20
14.0154
 30
0.0
 10
-21.304
 20
14.0154
 30
0.0
 10
-21.2179
 20
14.0458
 30
0.0
 10
-21.1138
 20
14.0607
 30
0.0
 10
-20.9916
 20
14.0607
 30
0.0
 10
-20.9916
 20
14.0607
 30
0.0
 10
-20.9916
 20
14.0607
 30
0.0
 10
-19.9322
 20
14.0607
 30
0.0
 10
-19.9322
 20
14.0607
 30
0.0
 10
-19.9322
 20
14.0607
 30
0.0
 10
-19.9322
 20
14.0607
 30
0.0
 10
-19.9322
 20
14.3944
 30
0.0
 10
-19.9322
 20
14.3944
 30
0.0
 10
-19.9322
 20
14.3944
 30
0.0
 10
-19.9322
 20
14.3944
 30
0.0
 10
-21.0343
 20
14.3944
 30
0.0
 10
-21.0343
 20
14.3944
 30
0.0
 10
-21.0343
 20
14.3944
 30
0.0
 10
-21.1643
 20
14.3937
 30
0.0
 10
-21.2761
 20
14.3802
 30
0.0
 10
-21.3693
 20
14.3543
 30
0.0
 10
-21.3693
 20
14.3543
 30
0.0
 10
-21.4631
 20
14.3278
 30
0.0
 10
-21.5407
 20
14.2928
 30
0.0
 10
-21.6028
 20
14.2489
 30
0.0
 10
-21.6028
 20
14.2489
 30
0.0
 10
-21.6648
 20
14.2042
 30
0.0
 10
-21.714
 20
14.1551
 30
0.0
 10
-21.7502
 20
14.1014
 30
0.0
 10
-21.7502
 20
14.1014
 30
0.0
 10
-21.7864
 20
14.0471
 30
0.0
 10
-21.8117
 20
13.9915
 30
0.0
 10
-21.8272
 20
13.9352
 30
0.0
 10
-21.8272
 20
13.9352
 30
0.0
 10
-21.8421
 20
13.8783
 30
0.0
 10
-21.8498
 20
13.8246
 30
0.0
 10
-21.8492
 20
13.7735
 30
0.0
 10
-21.8492
 20
13.7735
 30
0.0
 10
-21.8492
 20
13.6855
 30
0.0
 10
-21.8375
 20
13.6086
 30
0.0
 10
-21.8155
 20
13.5433
 30
0.0
 10
-21.8155
 20
13.5433
 30
0.0
 10
-21.7929
 20
13.4779
 30
0.0
 10
-21.7599
 20
13.4171
 30
0.0
 10
-21.7172
 20
13.3622
 30
0.0
 10
-21.7172
 20
13.3622
 30
0.0
 10
-21.6881
 20
13.3227
 30
0.0
 10
-21.6538
 20
13.2852
 30
0.0
 10
-21.6138
 20
13.2483
 30
0.0
 10
-21.6138
 20
13.2483
 30
0.0
 10
-21.5743
 20
13.2115
 30
0.0
 10
-21.5271
 20
13.1785
 30
0.0
 10
-21.4728
 20
13.1487
 30
0.0
 10
-21.4728
 20
13.1487
 30
0.0
 10
-21.4728
 20
13.1487
 30
0.0
 10
-21.4728
 20
13.141
 30
0.0
 10
-21.4728
 20
13.141
 30
0.0
 10
-21.4728
 20
13.141
 30
0.0
 10
-21.5471
 20
13.1138
 30
0.0
 10
-21.6125
 20
13.0744
 30
0.0
 10
-21.6687
 20
13.0239
 30
0.0
 10
-21.6687
 20
13.0239
 30
0.0
 10
-21.725
 20
12.9735
 30
0.0
 10
-21.769
 20
12.9133
 30
0.0
 10
-21.8007
 20
12.8441
 30
0.0
 10
-21.8007
 20
12.8441
 30
0.0
 10
-21.8324
 20
12.7749
 30
0.0
 10
-21.8485
 20
12.698
 30
0.0
 10
-21.8492
 20
12.6132
 30
0.0
 10
-21.8492
 20
12.6132
 30
0.0
 10
-21.8485
 20
12.5091
 30
0.0
 10
-21.8317
 20
12.4186
 30
0.0
 10
-21.7994
 20
12.3429
 30
0.0
 10
-21.7994
 20
12.3429
 30
0.0
 10
-21.767
 20
12.2672
 30
0.0
 10
-21.725
 20
12.2025
 30
0.0
 10
-21.6726
 20
12.1502
 30
0.0
 10
-21.6726
 20
12.1502
 30
0.0
 10
-21.6209
 20
12.0978
 30
0.0
 10
-21.5646
 20
12.0538
 30
0.0
 10
-21.5038
 20
12.0195
 30
0.0
 10
-21.5038
 20
12.0195
 30
0.0
 10
-21.5038
 20
12.0195
 30
0.0
 10
-21.5038
 20
12.0079
 30
0.0
 10
-21.5038
 20
12.0079
 30
0.0
 10
-21.5038
 20
12.0079
 30
0.0
 10
-21.5038
 20
12.0079
 30
0.0
 10
-21.8104
 20
11.9924
 30
0.0
 10
-21.8104
 20
11.9924
 30
0.0
 10
-21.8104
 20
11.9924
 30
0.0
 10
-21.8104
 20
11.9924
 30
0.0
 10
-21.8104
 20
11.6936
 30
0.0
 10
-21.8104
 20
11.6936
 30
0.0
 10
-21.8104
 20
11.6936
 30
0.0
 10
-21.7334
 20
11.6974
 30
0.0
 10
-21.6545
 20
11.7013
 30
0.0
 10
-21.5724
 20
11.7045
 30
0.0
 10
-21.5724
 20
11.7045
 30
0.0
 10
-21.4902
 20
11.7071
 30
0.0
 10
-21.4003
 20
11.7091
 30
0.0
 10
-21.302
 20
11.7091
 30
0.0
 10
-21.302
 20
11.7091
 30
0.0
 10
-21.302
 20
11.7091
 30
0.0
 10
-19.9322
 20
11.7091
 30
0.0
 10
-19.9322
 20
11.7091
 30
0.0
  0
SPLINE
  5
92
330
1F
100
AcDbEntity
  8
DEFAULT_1
 62
   250
100
AcDbSpline
210
0.0
220
0.0
230
1.0
 70
    11
 71
     3
 72
   136
 73
   132
 74
     0
 42
0.0000000001
 43
0.0000000001
 40
0.0
 40
0.0
 40
0.0
 40
0.0
 40
0.0294117647058824
 40
0.0294117647058824
 40
0.0294117647058824
 40
0.0294117647058824
 40
0.0588235294117647
 40
0.0588235294117647
 40
0.0588235294117647
 40
0.0588235294117647
 40
0.0882352941176471
 40
0.0882352941176471
 40
0.0882352941176471
 40
0.0882352941176471
 40
0.1176470588235294
 40
0.1176470588235294
 40
0.1176470588235294
 40
0.1176470588235294
 40
0.1470588235294118
 40
0.1470588235294118
 40
0.1470588235294118
 40
0.1470588235294118
 40
0.1764705882352941
 40
0.1764705882352941
 40
0.1764705882352941
 40
0.1764705882352941
 40
0.2058823529411765
 40
0.2058823529411765
 40
0.2058823529411765
 40
0.2058823529411765
 40
0.2352941176470588
 40
0.2352941176470588
 40
0.2352941176470588
 40
0.2352941176470588
 40
0.2647058823529412
 40
0.2647058823529412
 40
0.2647058823529412
 40
0.2647058823529412
 40
0.2941176470588235
 40
0.2941176470588235
 40
0.2941176470588235
 40
0.2941176470588235
 40
0.3235294117647059
 40
0.3235294117647059
 40
0.3235294117647059
 40
0.3235294117647059
 40
0.3529411764705883
 40
0.3529411764705883
 40
0.3529411764705883
 40
0.3529411764705883
 40
0.3823529411764706
 40
0.3823529411764706
 40
0.3823529411764706
 40
0.3823529411764706
 40
0.4117647058823529
 40
0.4117647058823529
 40
0.4117647058823529
 40
0.4117647058823529
 40
0.4411764705882353
 40
0.4411764705882353
 40
0.4411764705882353
 40
0.4411764705882353
 40
0.4705882352941176
 40
0.4705882352941176
 40
0.4705882352941176
 40
0.4705882352941176
 40
0.5
 40
0.5
 40
0.5
 40
0.5
 40
0.5294117647058824
 40
0.5294117647058824
 40
0.5294117647058824
 40
0.5294117647058824
 40
0.5588235294117647
 40
0.5588235294117647
 40
0.5588235294117647
 40
0.5588235294117647
 40
0.5882352941176471
 40
0.5882352941176471
 40
0.5882352941176471
 40
0.5882352941176471
 40
0.6176470588235294
 40
0.6176470588235294
 40
0.6176470588235294
 40
0.6176470588235294
 40
0.6470588235294118
 40
0.6470588235294118
 40
0.6470588235294118
 40
0.6470588235294118
 40
0.6764705882352942
 40
0.6764705882352942
 40
0.6764705882352942
 40
0.6764705882352942
 40
0.7058823529411765
 40
0.7058823529411765
 40
0.7058823529411765
 40
0.7058823529411765
 40
0.7352941176470589
 40
0.7352941176470589
 40
0.7352941176470589
 40
0.7352941176470589
 40
0.7647058823529411
 40
0.7647058823529411
 40
0.7647058823529411
 40
0.7647058823529411
 40
0.7941176470588235
 40
0.7941176470588235
 40
0.7941176470588235
 40
0.7941176470588235
 40
0.8235294117647058
 40
0.8235294117647058
 40
0.8235294117647058
 40
0.8235294117647058
 40
0.8529411764705882
 40
0.8529411764705882
 40
0.8529411764705882
 40
0.8529411764705882
 40
0.8823529411764706
 40
0.8823529411764706
 40
0.8823529411764706
 40
0.8823529411764706
 40
0.9117647058823529
 40
0.9117647058823529
 40
0.9117647058823529
 40
0.9117647058823529
 40
0.9411764705882353
 40
0.9411764705882353
 40
0.9411764705882353
 40
0.9411764705882353
 40
1.0
 40
1.0
 40
1.0
 40
1.0
 10
-21.0847
 20
16.2647
 30
0.0
 10
-21.1791
 20
16.2654
 30
0.0
 10
-21.271
 20
16.255
 30
0.0
 10
-21.3615
 20
16.2337
 30
0.0
 10
-21.3615
 20
16.2337
 30
0.0
 10
-21.4514
 20
16.2124
 30
0.0
 10
-21.5336
 20
16.1755
 30
0.0
 10
-21.6066
 20
16.1231
 30
0.0
 10
-21.6066
 20
16.1231
 30
0.0
 10
-21.6797
 20
16.0707
 30
0.0
 10
-21.7386
 20
15.9976
 30
0.0
 10
-21.7819
 20
15.9045
 30
0.0
 10
-21.7819
 20
15.9045
 30
0.0
 10
-21.8259
 20
15.8114
 30
0.0
 10
-21.8479
 20
15.6937
 30
0.0
 10
-21.8492
 20
15.5507
 30
0.0
 10
-21.8492
 20
15.5507
 30
0.0
 10
-21.8492
 20
15.4712
 30
0.0
 10
-21.8421
 20
15.3942
 30
0.0
 10
-21.8285
 20
15.3192
 30
0.0
 10
-21.8285
 20
15.3192
 30
0.0
 10
-21.8149
 20
15.2442
 30
0.0
 10
-21.7961
 20
15.173
 30
0.0
 10
-21.7716
 20
15.1071
 30
0.0
 10
-21.7716
 20
15.1071
 30
0.0
 10
-21.747
 20
15.0411
 30
0.0
 10
-21.7185
 20
14.9822
 30
0.0
 10
-21.6862
 20
14.9299
 30
0.0
 10
-21.6862
 20
14.9299
 30
0.0
 10
-21.6862
 20
14.9299
 30
0.0
 10
-21.4572
 20
15.0075
 30
0.0
 10
-21.4572
 20
15.0075
 30
0.0
 10
-21.4572
 20
15.0075
 30
0.0
 10
-21.487
 20
15.0521
 30
0.0
 10
-21.5122
 20
15.1006
 30
0.0
 10
-21.5329
 20
15.1543
 30
0.0
 10
-21.5329
 20
15.1543
 30
0.0
 10
-21.5542
 20
15.208
 30
0.0
 10
-21.5698
 20
15.2636
 30
0.0
 10
-21.5808
 20
15.3224
 30
0.0
 10
-21.5808
 20
15.3224
 30
0.0
 10
-21.5918
 20
15.3813
 30
0.0
 10
-21.5969
 20
15.4408
 30
0.0
 10
-21.5969
 20
15.5003
 30
0.0
 10
-21.5969
 20
15.5003
 30
0.0
 10
-21.5969
 20
15.5766
 30
0.0
 10
-21.5879
 20
15.6406
 30
0.0
 10
-21.5685
 20
15.6924
 30
0.0
 10
-21.5685
 20
15.6924
 30
0.0
 10
-21.5491
 20
15.7435
 30
0.0
 10
-21.5232
 20
15.7855
 30
0.0
 10
-21.4909
 20
15.8165
 30
0.0
 10
-21.4909
 20
15.8165
 30
0.0
 10
-21.4585
 20
15.8482
 30
0.0
 10
-21.423
 20
15.8715
 30
0.0
 10
-21.3842
 20
15.8877
 30
0.0
 10
-21.3842
 20
15.8877
 30
0.0
 10
-21.346
 20
15.9039
 30
0.0
 10
-21.3078
 20
15.9142
 30
0.0
 10
-21.2697
 20
15.92
 30
0.0
 10
-21.2697
 20
15.92
 30
0.0
 10
-21.2315
 20
15.9252
 30
0.0
 10
-21.1972
 20
15.9278
 30
0.0
 10
-21.1662
 20
15.9271
 30
0.0
 10
-21.1662
 20
15.9271
 30
0.0
 10
-21.1662
 20
15.9271
 30
0.0
 10
-21.1274
 20
15.9271
 30
0.0
 10
-21.1274
 20
15.9271
 30
0.0
 10
-21.1274
 20
15.9271
 30
0.0
 10
-21.1287
 20
15.6846
 30
0.0
 10
-21.1022
 20
15.4796
 30
0.0
 10
-21.0491
 20
15.3121
 30
0.0
 10
-21.0491
 20
15.3121
 30
0.0
 10
-20.9955
 20
15.1439
 30
0.0
 10
-20.9166
 20
15.0165
 30
0.0
 10
-20.8124
 20
14.9292
 30
0.0
 10
-20.8124
 20
14.9292
 30
0.0
 10
-20.7083
 20
14.8425
 30
0.0
 10
-20.5802
 20
14.7986
 30
0.0
 10
-20.4289
 20
14.7979
 30
0.0
 10
-20.4289
 20
14.7979
 30
0.0
 10
-20.3603
 20
14.7979
 30
0.0
 10
-20.2937
 20
14.8102
 30
0.0
 10
-20.2297
 20
14.8341
 30
0.0
 10
-20.2297
 20
14.8341
 30
0.0
 10
-20.1663
 20
14.8581
 30
0.0
 10
-20.1088
 20
14.8943
 30
0.0
 10
-20.0577
 20
14.9428
 30
0.0
 10
-20.0577
 20
14.9428
 30
0.0
 10
-20.0059
 20
14.9906
 30
0.0
 10
-19.9658
 20
15.0502
 30
0.0
 10
-19.9354
 20
15.1219
 30
0.0
 10
-19.9354
 20
15.1219
 30
0.0
 10
-19.9057
 20
15.1937
 30
0.0
 10
-19.8902
 20
15.2772
 30
0.0
 10
-19.8895
 20
15.3722
 30
0.0
 10
-19.8895
 20
15.3722
 30
0.0
 10
-19.8902
 20
15.4615
 30
0.0
 10
-19.9037
 20
15.543
 30
0.0
 10
-19.929
 20
15.6167
 30
0.0
 10
-19.929
 20
15.6167
 30
0.0
 10
-19.9548
 20
15.6904
 30
0.0
 10
-19.9891
 20
15.7551
 30
0.0
 10
-20.0312
 20
15.8107
 30
0.0
 10
-20.0312
 20
15.8107
 30
0.0
 10
-20.0732
 20
15.8663
 30
0.0
 10
-20.1191
 20
15.9116
 30
0.0
 10
-20.1689
 20
15.9465
 30
0.0
 10
-20.1689
 20
15.9465
 30
0.0
 10
-20.1689
 20
15.9465
 30
0.0
 10
-20.1689
 20
15.9582
 30
0.0
 10
-20.1689
 20
15.9582
 30
0.0
 10
-20.1689
 20
15.9582
 30
0.0
 10
-20.1689
 20
15.9582
 30
0.0
 10
-19.9322
 20
15.9854
 30
0.0
 10
-19.9322
 20
15.9854
 30
0.0
 10
-19.9322
 20
15.9854
 30
0.0
 10
-19.9322
 20
15.9854
 30
0.0
 10
-19.9322
 20
16.2919
 30
0.0
 10
-19.9322
 20
16.2919
 30
0.0
 10
-19.9322
 20
16.2919
 30
0.0
 10
-19.9969
 20
16.2822
 30
0.0
 10
-20.0674
 20
16.2751
 30
0.0
 10
-20.1443
 20
16.2712
 30
0.0
 10
-20.1443
 20
16.2712
 30
0.0
 10
-20.2207
 20
16.2667
 30
0.0
 10
-20.3002
 20
16.2647
 30
0.0
 10
-20.3823
 20
16.2647
 30
0.0
 10
-20.3823
 20
16.2647
 30
0.0
 10
-20.3823
 20
16.2647
 30
0.0
 10
-21.0847
 20
16.2647
 30
0.0
 10
-21.0847
 20
16.2647
 30
0.0
  0
SPLINE
  5
93
330
1F
100
AcDbEntity
  8
DEFAULT_1
 62
   250
100
AcDbSpline
210
0.0
220
0.0
230
1.0
 70
    11
 71
     3
 72
    60
 73
    56
 74
     0
 42
0.0000000001
 43
0.0000000001
 40
0.0
 40
0.0
 40
0.0
 40
0.0
 40
0.0666666666666667
 40
0.0666666666666667
 40
0.0666666666666667
 40
0.0666666666666667
 40
0.1333333333333333
 40
0.1333333333333333
 40
0.1333333333333333
 40
0.1333333333333333
 40
0.2
 40
0.2
 40
0.2
 40
0.2
 40
0.2666666666666667
 40
0.2666666666666667
 40
0.2666666666666667
 40
0.2666666666666667
 40
0.3333333333333333
 40
0.3333333333333333
 40
0.3333333333333333
 40
0.3333333333333333
 40
0.4
 40
0.4
 40
0.4
 40
0.4
 40
0.4666666666666667
 40
0.4666666666666667
 40
0.4666666666666667
 40
0.4666666666666667
 40
0.5333333333333333
 40
0.5333333333333333
 40
0.5333333333333333
 40
0.5333333333333333
 40
0.6
 40
0.6
 40
0.6
 40
0.6
 40
0.6666666666666666
 40
0.6666666666666666
 40
0.6666666666666666
 40
0.6666666666666666
 40
0.7333333333333333
 40
0.7333333333333333
 40
0.7333333333333333
 40
0.7333333333333333
 40
0.8
 40
0.8
 40
0.8
 40
0.8
 40
0.8666666666666667
 40
0.8666666666666667
 40
0.8666666666666667
 40
0.8666666666666667
 40
1.0
 40
1.0
 40
1.0
 40
1.0
 10
-20.5647
 20
15.9349
 30
0.0
 10
-20.5492
 20
15.9349
 30
0.0
 10
-20.5317
 20
15.9336
 30
0.0
 10
-20.5136
 20
15.9317
 30
0.0
 10
-20.5136
 20
15.9317
 30
0.0
 10
-20.4949
 20
15.9291
 30
0.0
 10
-20.4755
 20
15.9252
 30
0.0
 10
-20.4561
 20
15.9194
 30
0.0
 10
-20.4561
 20
15.9194
 30
0.0
 10
-20.4024
 20
15.9013
 30
0.0
 10
-20.3513
 20
15.8715
 30
0.0
 10
-20.3041
 20
15.8308
 30
0.0
 10
-20.3041
 20
15.8308
 30
0.0
 10
-20.2562
 20
15.79
 30
0.0
 10
-20.2174
 20
15.7383
 30
0.0
 10
-20.1877
 20
15.6756
 30
0.0
 10
-20.1877
 20
15.6756
 30
0.0
 10
-20.1579
 20
15.6135
 30
0.0
 10
-20.1424
 20
15.5404
 30
0.0
 10
-20.1417
 20
15.4576
 30
0.0
 10
-20.1417
 20
15.4576
 30
0.0
 10
-20.1417
 20
15.4
 30
0.0
 10
-20.1534
 20
15.347
 30
0.0
 10
-20.176
 20
15.2991
 30
0.0
 10
-20.176
 20
15.2991
 30
0.0
 10
-20.1993
 20
15.2513
 30
0.0
 10
-20.2349
 20
15.2131
 30
0.0
 10
-20.2834
 20
15.184
 30
0.0
 10
-20.2834
 20
15.184
 30
0.0
 10
-20.3312
 20
15.1549
 30
0.0
 10
-20.3927
 20
15.14
 30
0.0
 10
-20.4677
 20
15.1394
 30
0.0
 10
-20.4677
 20
15.1394
 30
0.0
 10
-20.5401
 20
15.14
 30
0.0
 10
-20.6022
 20
15.1556
 30
0.0
 10
-20.6527
 20
15.1866
 30
0.0
 10
-20.6527
 20
15.1866
 30
0.0
 10
-20.7031
 20
15.217
 30
0.0
 10
-20.7445
 20
15.2591
 30
0.0
 10
-20.7762
 20
15.3121
 30
0.0
 10
-20.7762
 20
15.3121
 30
0.0
 10
-20.8085
 20
15.3651
 30
0.0
 10
-20.8331
 20
15.4259
 30
0.0
 10
-20.8506
 20
15.4938
 30
0.0
 10
-20.8506
 20
15.4938
 30
0.0
 10
-20.8674
 20
15.5617
 30
0.0
 10
-20.879
 20
15.6335
 30
0.0
 10
-20.8849
 20
15.7092
 30
0.0
 10
-20.8849
 20
15.7092
 30
0.0
 10
-20.8907
 20
15.7849
 30
0.0
 10
-20.8926
 20
15.8599
 30
0.0
 10
-20.8907
 20
15.9349
 30
0.0
 10
-20.8907
 20
15.9349
 30
0.0
 10
-20.8907
 20
15.9349
 30
0.0
 10
-20.5647
 20
15.9349
 30
0.0
 10
-20.5647
 20
15.9349
 30
0.0
  0
SPLINE
  5
94
330
1F
100
AcDbEntity
  8
DEFAULT_1
 62
   250
100
AcDbSpline
210
0.0
220
0.0
230
1.0
 70
    11
 71
     3
 72
    92
 73
    88
 74
     0
 42
0.0000000001
 43
0.0000000001
 40
0.0
 40
0.0
 40
0.0
 40
0.0
 40
0.0434782608695652
 40
0.0434782608695652
 40
0.0434782608695652
 40
0.0434782608695652
 40
0.0869565217391304
 40
0.0869565217391304
 40
0.0869565217391304
 40
0.0869565217391304
 40
0.1304347826086956
 40
0.1304347826086956
 40
0.1304347826086956
 40
0.1304347826086956
 40
0.1739130434782609
 40
0.1739130434782609
 40
0.1739130434782609
 40
0.1739130434782609
 40
0.2173913043478261
 40
0.2173913043478261
 40
0.2173913043478261
 40
0.2173913043478261
 40
0.2608695652173913
 40
0.2608695652173913
 40
0.2608695652173913
 40
0.2608695652173913
 40
0.3043478260869565
 40
0.3043478260869565
 40
0.3043478260869565
 40
0.3043478260869565
 40
0.3478260869565217
 40
0.3478260869565217
 40
0.3478260869565217
 40
0.3478260869565217
 40
0.391304347826087
 40
0.391304347826087
 40
0.391304347826087
 40
0.391304347826087
 40
0.4347826086956522
 40
0.4347826086956522
 40
0.4347826086956522
 40
0.4347826086956522
 40
0.4782608695652174
 40
0.4782608695652174
 40
0.4782608695652174
 40
0.4782608695652174
 40
0.5217391304347826
 40
0.5217391304347826
 40
0.5217391304347826
 40
0.5217391304347826
 40
0.5652173913043478
 40
0.5652173913043478
 40
0.5652173913043478
 40
0.5652173913043478
 40
0.6086956521739131
 40
0.6086956521739131
 40
0.6086956521739131
 40
0.6086956521739131
 40
0.6521739130434783
 40
0.6521739130434783
 40
0.6521739130434783
 40
0.6521739130434783
 40
0.6956521739130435
 40
0.6956521739130435
 40
0.6956521739130435
 40
0.6956521739130435
 40
0.7391304347826086
 40
0.7391304347826086
 40
0.7391304347826086
 40
0.7391304347826086
 40
0.782608695652174
 40
0.782608695652174
 40
0.782608695652174
 40
0.782608695652174
 40
0.8260869565217391
 40
0.8260869565217391
 40
0.8260869565217391
 40
0.8260869565217391
 40
0.8695652173913043
 40
0.8695652173913043
 40
0.8695652173913043
 40
0.8695652173913043
 40
0.9130434782608695
 40
0.9130434782608695
 40
0.9130434782608695
 40
0.9130434782608695
 40
1.0
 40
1.0
 40
1.0
 40
1.0
 10
-21.8104
 20
16.5946
 30
0.0
 10
-21.8104
 20
16.5946
 30
0.0
 10
-20.8907
 20
17.231
 30
0.0
 10
-20.8907
 20
17.231
 30
0.0
 10
-20.8907
 20
17.231
 30
0.0
 10
-20.8907
 20
17.231
 30
0.0
 10
-19.9322
 20
16.5635
 30
0.0
 10
-19.9322
 20
16.5635
 30
0.0
 10
-19.9322
 20
16.5635
 30
0.0
 10
-19.9322
 20
16.5635
 30
0.0
 10
-19.9322
 20
16.94
 30
0.0
 10
-19.9322
 20
16.94
 30
0.0
 10
-19.9322
 20
16.94
 30
0.0
 10
-19.9322
 20
16.94
 30
0.0
 10
-20.3552
 20
17.2116
 30
0.0
 10
-20.3552
 20
17.2116
 30
0.0
 10
-20.3552
 20
17.2116
 30
0.0
 10
-20.4108
 20
17.2485
 30
0.0
 10
-20.4651
 20
17.2827
 30
0.0
 10
-20.5182
 20
17.3151
 30
0.0
 10
-20.5182
 20
17.3151
 30
0.0
 10
-20.5712
 20
17.3474
 30
0.0
 10
-20.6255
 20
17.3784
 30
0.0
 10
-20.6811
 20
17.4095
 30
0.0
 10
-20.6811
 20
17.4095
 30
0.0
 10
-20.6811
 20
17.4095
 30
0.0
 10
-20.6811
 20
17.4173
 30
0.0
 10
-20.6811
 20
17.4173
 30
0.0
 10
-20.6811
 20
17.4173
 30
0.0
 10
-20.6249
 20
17.4502
 30
0.0
 10
-20.5705
 20
17.4826
 30
0.0
 10
-20.5169
 20
17.5156
 30
0.0
 10
-20.5169
 20
17.5156
 30
0.0
 10
-20.4632
 20
17.5479
 30
0.0
 10
-20.4095
 20
17.5828
 30
0.0
 10
-20.3552
 20
17.619
 30
0.0
 10
-20.3552
 20
17.619
 30
0.0
 10
-20.3552
 20
17.619
 30
0.0
 10
-19.9322
 20
17.8984
 30
0.0
 10
-19.9322
 20
17.8984
 30
0.0
 10
-19.9322
 20
17.8984
 30
0.0
 10
-19.9322
 20
17.8984
 30
0.0
 10
-19.9322
 20
18.2826
 30
0.0
 10
-19.9322
 20
18.2826
 30
0.0
 10
-19.9322
 20
18.2826
 30
0.0
 10
-19.9322
 20
18.2826
 30
0.0
 10
-20.9023
 20
17.6268
 30
0.0
 10
-20.9023
 20
17.6268
 30
0.0
 10
-20.9023
 20
17.6268
 30
0.0
 10
-20.9023
 20
17.6268
 30
0.0
 10
-21.8104
 20
18.2671
 30
0.0
 10
-21.8104
 20
18.2671
 30
0.0
 10
-21.8104
 20
18.2671
 30
0.0
 10
-21.8104
 20
18.2671
 30
0.0
 10
-21.8104
 20
17.8946
 30
0.0
 10
-21.8104
 20
17.8946
 30
0.0
 10
-21.8104
 20
17.8946
 30
0.0
 10
-21.8104
 20
17.8946
 30
0.0
 10
-21.4107
 20
17.6346
 30
0.0
 10
-21.4107
 20
17.6346
 30
0.0
 10
-21.4107
 20
17.6346
 30
0.0
 10
-21.3609
 20
17.6016
 30
0.0
 10
-21.3104
 20
17.5692
 30
0.0
 10
-21.2606
 20
17.5382
 30
0.0
 10
-21.2606
 20
17.5382
 30
0.0
 10
-21.2102
 20
17.5065
 30
0.0
 10
-21.1578
 20
17.4755
 30
0.0
 10
-21.1041
 20
17.4444
 30
0.0
 10
-21.1041
 20
17.4444
 30
0.0
 10
-21.1041
 20
17.4444
 30
0.0
 10
-21.1041
 20
17.4367
 30
0.0
 10
-21.1041
 20
17.4367
 30
0.0
 10
-21.1041
 20
17.4367
 30
0.0
 10
-21.1559
 20
17.4063
 30
0.0
 10
-21.2063
 20
17.3752
 30
0.0
 10
-21.2555
 20
17.3442
 30
0.0
 10
-21.2555
 20
17.3442
 30
0.0
 10
-21.3046
 20
17.3131
 30
0.0
 10
-21.3551
 20
17.2788
 30
0.0
 10
-21.4068
 20
17.2426
 30
0.0
 10
-21.4068
 20
17.2426
 30
0.0
 10
-21.4068
 20
17.2426
 30
0.0
 10
-21.8104
 20
16.9749
 30
0.0
 10
-21.8104
 20
16.9749
 30
0.0
 10
-21.8104
 20
16.9749
 30
0.0
 10
-21.8104
 20
16.9749
 30
0.0
 10
-21.8104
 20
16.5946
 30
0.0
 10
-21.8104
 20
16.5946
 30
0.0
  0
SPLINE
  5
95
330
1F
100
AcDbEntity
  8
DEFAULT_1
 62
   250
100
AcDbSpline
210
0.0
220
0.0
230
1.0
 70
    11
 71
     3
 72
   132
 73
   128
 74
     0
 42
0.0000000001
 43
0.0000000001
 40
0.0
 40
0.0
 40
0.0
 40
0.0
 40
0.0303030303030303
 40
0.0303030303030303
 40
0.0303030303030303
 40
0.0303030303030303
 40
0.0606060606060606
 40
0.0606060606060606
 40
0.0606060606060606
 40
0.0606060606060606
 40
0.0909090909090909
 40
0.0909090909090909
 40
0.0909090909090909
 40
0.0909090909090909
 40
0.1212121212121212
 40
0.1212121212121212
 40
0.1212121212121212
 40
0.1212121212121212
 40
0.1515151515151515
 40
0.1515151515151515
 40
0.1515151515151515
 40
0.1515151515151515
 40
0.1818181818181818
 40
0.1818181818181818
 40
0.1818181818181818
 40
0.1818181818181818
 40
0.2121212121212121
 40
0.2121212121212121
 40
0.2121212121212121
 40
0.2121212121212121
 40
0.2424242424242424
 40
0.2424242424242424
 40
0.2424242424242424
 40
0.2424242424242424
 40
0.2727272727272727
 40
0.2727272727272727
 40
0.2727272727272727
 40
0.2727272727272727
 40
0.303030303030303
 40
0.303030303030303
 40
0.303030303030303
 40
0.303030303030303
 40
0.3333333333333333
 40
0.3333333333333333
 40
0.3333333333333333
 40
0.3333333333333333
 40
0.3636363636363636
 40
0.3636363636363636
 40
0.3636363636363636
 40
0.3636363636363636
 40
0.3939393939393939
 40
0.3939393939393939
 40
0.3939393939393939
 40
0.3939393939393939
 40
0.4242424242424243
 40
0.4242424242424243
 40
0.4242424242424243
 40
0.4242424242424243
 40
0.4545454545454545
 40
0.4545454545454545
 40
0.4545454545454545
 40
0.4545454545454545
 40
0.4848484848484849
 40
0.4848484848484849
 40
0.4848484848484849
 40
0.4848484848484849
 40
0.5151515151515151
 40
0.5151515151515151
 40
0.5151515151515151
 40
0.5151515151515151
 40
0.5454545454545454
 40
0.5454545454545454
 40
0.5454545454545454
 40
0.5454545454545454
 40
0.5757575757575758
 40
0.5757575757575758
 40
0.5757575757575758
 40
0.5757575757575758
 40
0.6060606060606061
 40
0.6060606060606061
 40
0.6060606060606061
 40
0.6060606060606061
 40
0.6363636363636364
 40
0.6363636363636364
 40
0.6363636363636364
 40
0.6363636363636364
 40
0.6666666666666666
 40
0.6666666666666666
 40
0.6666666666666666
 40
0.6666666666666666
 40
0.696969696969697
 40
0.696969696969697
 40
0.696969696969697
 40
0.696969696969697
 40
0.7272727272727273
 40
0.7272727272727273
 40
0.7272727272727273
 40
0.7272727272727273
 40
0.7575757575757576
 40
0.7575757575757576
 40
0.7575757575757576
 40
0.7575757575757576
 40
0.7878787878787878
 40
0.7878787878787878
 40
0.7878787878787878
 40
0.7878787878787878
 40
0.8181818181818182
 40
0.8181818181818182
 40
0.8181818181818182
 40
0.8181818181818182
 40
0.8484848484848485
 40
0.8484848484848485
 40
0.8484848484848485
 40
0.8484848484848485
 40
0.8787878787878788
 40
0.8787878787878788
 40
0.8787878787878788
 40
0.8787878787878788
 40
0.9090909090909091
 40
0.9090909090909091
 40
0.9090909090909091
 40
0.9090909090909091
 40
0.9393939393939394
 40
0.9393939393939394
 40
0.9393939393939394
 40
0.9393939393939394
 40
1.0
 40
1.0
 40
1.0
 40
1.0
 10
-22.4545
 20
20.8322
 30
0.0
 10
-22.4545
 20
20.8322
 30
0.0
 10
-22.4545
 20
19.6253
 30
0.0
 10
-22.4545
 20
19.6253
 30
0.0
 10
-22.4545
 20
19.6253
 30
0.0
 10
-22.4545
 20
19.6253
 30
0.0
 10
-21.2438
 20
19.4623
 30
0.0
 10
-21.2438
 20
19.4623
 30
0.0
 10
-21.2438
 20
19.4623
 30
0.0
 10
-21.2503
 20
19.5089
 30
0.0
 10
-21.2555
 20
19.5606
 30
0.0
 10
-21.26
 20
19.6189
 30
0.0
 10
-21.26
 20
19.6189
 30
0.0
 10
-21.2645
 20
19.6764
 30
0.0
 10
-21.2671
 20
19.7424
 30
0.0
 10
-21.2671
 20
19.8155
 30
0.0
 10
-21.2671
 20
19.8155
 30
0.0
 10
-21.2664
 20
19.9823
 30
0.0
 10
-21.2425
 20
20.1188
 30
0.0
 10
-21.1959
 20
20.2249
 30
0.0
 10
-21.1959
 20
20.2249
 30
0.0
 10
-21.1487
 20
20.3316
 30
0.0
 10
-21.0841
 20
20.4105
 30
0.0
 10
-21.0013
 20
20.4616
 30
0.0
 10
-21.0013
 20
20.4616
 30
0.0
 10
-20.9178
 20
20.5127
 30
0.0
 10
-20.8215
 20
20.5379
 30
0.0
 10
-20.7122
 20
20.5372
 30
0.0
 10
-20.7122
 20
20.5372
 30
0.0
 10
-20.6275
 20
20.5379
 30
0.0
 10
-20.5518
 20
20.5224
 30
0.0
 10
-20.4845
 20
20.4907
 30
0.0
 10
-20.4845
 20
20.4907
 30
0.0
 10
-20.4166
 20
20.4596
 30
0.0
 10
-20.3597
 20
20.4163
 30
0.0
 10
-20.3118
 20
20.3613
 30
0.0
 10
-20.3118
 20
20.3613
 30
0.0
 10
-20.2646
 20
20.3063
 30
0.0
 10
-20.2284
 20
20.243
 30
0.0
 10
-20.2032
 20
20.1712
 30
0.0
 10
-20.2032
 20
20.1712
 30
0.0
 10
-20.178
 20
20.0994
 30
0.0
 10
-20.165
 20
20.0237
 30
0.0
 10
-20.165
 20
19.9435
 30
0.0
 10
-20.165
 20
19.9435
 30
0.0
 10
-20.1657
 20
19.8653
 30
0.0
 10
-20.1728
 20
19.7915
 30
0.0
 10
-20.1877
 20
19.7223
 30
0.0
 10
-20.1877
 20
19.7223
 30
0.0
 10
-20.2019
 20
19.6531
 30
0.0
 10
-20.2194
 20
19.591
 30
0.0
 10
-20.2407
 20
19.5361
 30
0.0
 10
-20.2407
 20
19.5361
 30
0.0
 10
-20.262
 20
19.4811
 30
0.0
 10
-20.2834
 20
19.4358
 30
0.0
 10
-20.3047
 20
19.4003
 30
0.0
 10
-20.3047
 20
19.4003
 30
0.0
 10
-20.3047
 20
19.4003
 30
0.0
 10
-20.0447
 20
19.3149
 30
0.0
 10
-20.0447
 20
19.3149
 30
0.0
 10
-20.0447
 20
19.3149
 30
0.0
 10
-20.0182
 20
19.3569
 30
0.0
 10
-19.9936
 20
19.4093
 30
0.0
 10
-19.9697
 20
19.472
 30
0.0
 10
-19.9697
 20
19.472
 30
0.0
 10
-19.9464
 20
19.5348
 30
0.0
 10
-19.9277
 20
19.6059
 30
0.0
 10
-19.9128
 20
19.6855
 30
0.0
 10
-19.9128
 20
19.6855
 30
0.0
 10
-19.8979
 20
19.7657
 30
0.0
 10
-19.8902
 20
19.8517
 30
0.0
 10
-19.8895
 20
19.9435
 30
0.0
 10
-19.8895
 20
19.9435
 30
0.0
 10
-19.8902
 20
20.0813
 30
0.0
 10
-19.9122
 20
20.2067
 30
0.0
 10
-19.9548
 20
20.3212
 30
0.0
 10
-19.9548
 20
20.3212
 30
0.0
 10
-19.9975
 20
20.4357
 30
0.0
 10
-20.0577
 20
20.5347
 30
0.0
 10
-20.1353
 20
20.6181
 30
0.0
 10
-20.1353
 20
20.6181
 30
0.0
 10
-20.2129
 20
20.7022
 30
0.0
 10
-20.3041
 20
20.7668
 30
0.0
 10
-20.4082
 20
20.8128
 30
0.0
 10
-20.4082
 20
20.8128
 30
0.0
 10
-20.513
 20
20.8587
 30
0.0
 10
-20.6275
 20
20.882
 30
0.0
 10
-20.751
 20
20.8826
 30
0.0
 10
-20.751
 20
20.8826
 30
0.0
 10
-20.8558
 20
20.882
 30
0.0
 10
-20.9502
 20
20.8651
 30
0.0
 10
-21.0336
 20
20.8328
 30
0.0
 10
-21.0336
 20
20.8328
 30
0.0
 10
-21.117
 20
20.8005
 30
0.0
 10
-21.1888
 20
20.7578
 30
0.0
 10
-21.2496
 20
20.7035
 30
0.0
 10
-21.2496
 20
20.7035
 30
0.0
 10
-21.3104
 20
20.6491
 30
0.0
 10
-21.3589
 20
20.5883
 30
0.0
 10
-21.3951
 20
20.5217
 30
0.0
 10
-21.3951
 20
20.5217
 30
0.0
 10
-21.443
 20
20.4435
 30
0.0
 10
-21.4779
 20
20.3587
 30
0.0
 10
-21.4993
 20
20.2663
 30
0.0
 10
-21.4993
 20
20.2663
 30
0.0
 10
-21.5206
 20
20.1738
 30
0.0
 10
-21.5316
 20
20.078
 30
0.0
 10
-21.531
 20
19.9784
 30
0.0
 10
-21.531
 20
19.9784
 30
0.0
 10
-21.531
 20
19.9332
 30
0.0
 10
-21.5303
 20
19.8944
 30
0.0
 10
-21.5284
 20
19.8627
 30
0.0
 10
-21.5284
 20
19.8627
 30
0.0
 10
-21.5264
 20
19.831
 30
0.0
 10
-21.5232
 20
19.8012
 30
0.0
 10
-21.5193
 20
19.7728
 30
0.0
 10
-21.5193
 20
19.7728
 30
0.0
 10
-21.5193
 20
19.7728
 30
0.0
 10
-22.1674
 20
19.8698
 30
0.0
 10
-22.1674
 20
19.8698
 30
0.0
 10
-22.1674
 20
19.8698
 30
0.0
 10
-22.1674
 20
19.8698
 30
0.0
 10
-22.1674
 20
20.8322
 30
0.0
 10
-22.1674
 20
20.8322
 30
0.0
 10
-22.1674
 20
20.8322
 30
0.0
 10
-22.1674
 20
20.8322
 30
0.0
 10
-22.4545
 20
20.8322
 30
0.0
 10
-22.4545
 20
20.8322
 30
0.0
  0
SPLINE
  5
96
330
1F
100
AcDbEntity
  8
DEFAULT_1
 62
   250
100
AcDbSpline
210
0.0
220
0.0
230
1.0
 70
    11
 71
     3
 72
    56
 73
    52
 74
     0
 42
0.0000000001
 43
0.0000000001
 40
0.0
 40
0.0
 40
0.0
 40
0.0
 40
0.0714285714285714
 40
0.0714285714285714
 40
0.0714285714285714
 40
0.0714285714285714
 40
0.1428571428571428
 40
0.1428571428571428
 40
0.1428571428571428
 40
0.1428571428571428
 40
0.2142857142857143
 40
0.2142857142857143
 40
0.2142857142857143
 40
0.2142857142857143
 40
0.2857142857142857
 40
0.2857142857142857
 40
0.2857142857142857
 40
0.2857142857142857
 40
0.3571428571428572
 40
0.3571428571428572
 40
0.3571428571428572
 40
0.3571428571428572
 40
0.4285714285714285
 40
0.4285714285714285
 40
0.4285714285714285
 40
0.4285714285714285
 40
0.5
 40
0.5
 40
0.5
 40
0.5
 40
0.5714285714285714
 40
0.5714285714285714
 40
0.5714285714285714
 40
0.5714285714285714
 40
0.6428571428571429
 40
0.6428571428571429
 40
0.6428571428571429
 40
0.6428571428571429
 40
0.7142857142857143
 40
0.7142857142857143
 40
0.7142857142857143
 40
0.7142857142857143
 40
0.7857142857142857
 40
0.7857142857142857
 40
0.7857142857142857
 40
0.7857142857142857
 40
0.8571428571428571
 40
0.8571428571428571
 40
0.8571428571428571
 40
0.8571428571428571
 40
1.0
 40
1.0
 40
1.0
 40
1.0
 10
-22.4972
 20
22.1632
 30
0.0
 10
-22.4972
 20
22.0345
 30
0.0
 10
-22.4688
 20
21.9168
 30
0.0
 10
-22.4118
 20
21.8094
 30
0.0
 10
-22.4118
 20
21.8094
 30
0.0
 10
-22.3549
 20
21.702
 30
0.0
 10
-22.2715
 20
21.6096
 30
0.0
 10
-22.1603
 20
21.5307
 30
0.0
 10
-22.1603
 20
21.5307
 30
0.0
 10
-22.049
 20
21.4517
 30
0.0
 10
-21.9119
 20
21.391
 30
0.0
 10
-21.7489
 20
21.3476
 30
0.0
 10
-21.7489
 20
21.3476
 30
0.0
 10
-21.5859
 20
21.3049
 30
0.0
 10
-21.3984
 20
21.2829
 30
0.0
 10
-21.1856
 20
21.2823
 30
0.0
 10
-21.1856
 20
21.2823
 30
0.0
 10
-20.9069
 20
21.2862
 30
0.0
 10
-20.6714
 20
21.323
 30
0.0
 10
-20.4787
 20
21.3935
 30
0.0
 10
-20.4787
 20
21.3935
 30
0.0
 10
-20.286
 20
21.464
 30
0.0
 10
-20.1398
 20
21.5617
 30
0.0
 10
-20.0402
 20
21.6859
 30
0.0
 10
-20.0402
 20
21.6859
 30
0.0
 10
-19.9406
 20
21.81
 30
0.0
 10
-19.8902
 20
21.9549
 30
0.0
 10
-19.8895
 20
22.1205
 30
0.0
 10
-19.8895
 20
22.1205
 30
0.0
 10
-19.8902
 20
22.3061
 30
0.0
 10
-19.9419
 20
22.4639
 30
0.0
 10
-20.0441
 20
22.5946
 30
0.0
 10
-20.0441
 20
22.5946
 30
0.0
 10
-20.1463
 20
22.7252
 30
0.0
 10
-20.2963
 20
22.8248
 30
0.0
 10
-20.4942
 20
22.8934
 30
0.0
 10
-20.4942
 20
22.8934
 30
0.0
 10
-20.6921
 20
22.9626
 30
0.0
 10
-20.934
 20
22.9968
 30
0.0
 10
-21.2205
 20
22.9975
 30
0.0
 10
-21.2205
 20
22.9975
 30
0.0
 10
-21.4889
 20
22.9968
 30
0.0
 10
-21.7185
 20
22.9638
 30
0.0
 10
-21.9087
 20
22.8985
 30
0.0
 10
-21.9087
 20
22.8985
 30
0.0
 10
-22.0988
 20
22.8332
 30
0.0
 10
-22.2443
 20
22.7381
 30
0.0
 10
-22.3446
 20
22.614
 30
0.0
 10
-22.3446
 20
22.614
 30
0.0
 10
-22.4455
 20
22.4898
 30
0.0
 10
-22.4966
 20
22.3397
 30
0.0
 10
-22.4972
 20
22.1632
 30
0.0
  0
SPLINE
  5
97
330
1F
100
AcDbEntity
  8
DEFAULT_1
 62
   250
100
AcDbSpline
210
0.0
220
0.0
230
1.0
 70
    11
 71
     3
 72
    56
 73
    52
 74
     0
 42
0.0000000001
 43
0.0000000001
 40
0.0
 40
0.0
 40
0.0
 40
0.0
 40
0.0714285714285714
 40
0.0714285714285714
 40
0.0714285714285714
 40
0.0714285714285714
 40
0.1428571428571428
 40
0.1428571428571428
 40
0.1428571428571428
 40
0.1428571428571428
 40
0.2142857142857143
 40
0.2142857142857143
 40
0.2142857142857143
 40
0.2142857142857143
 40
0.2857142857142857
 40
0.2857142857142857
 40
0.2857142857142857
 40
0.2857142857142857
 40
0.3571428571428572
 40
0.3571428571428572
 40
0.3571428571428572
 40
0.3571428571428572
 40
0.4285714285714285
 40
0.4285714285714285
 40
0.4285714285714285
 40
0.4285714285714285
 40
0.5
 40
0.5
 40
0.5
 40
0.5
 40
0.5714285714285714
 40
0.5714285714285714
 40
0.5714285714285714
 40
0.5714285714285714
 40
0.6428571428571429
 40
0.6428571428571429
 40
0.6428571428571429
 40
0.6428571428571429
 40
0.7142857142857143
 40
0.7142857142857143
 40
0.7142857142857143
 40
0.7142857142857143
 40
0.7857142857142857
 40
0.7857142857142857
 40
0.7857142857142857
 40
0.7857142857142857
 40
0.8571428571428571
 40
0.8571428571428571
 40
0.8571428571428571
 40
0.8571428571428571
 40
1.0
 40
1.0
 40
1.0
 40
1.0
 10
-22.2333
 20
22.1399
 30
0.0
 10
-22.2327
 20
22.2291
 30
0.0
 10
-22.2088
 20
22.3061
 30
0.0
 10
-22.1603
 20
22.3708
 30
0.0
 10
-22.1603
 20
22.3708
 30
0.0
 10
-22.1117
 20
22.4355
 30
0.0
 10
-22.0425
 20
22.4885
 30
0.0
 10
-21.952
 20
22.5299
 30
0.0
 10
-21.952
 20
22.5299
 30
0.0
 10
-21.8621
 20
22.5713
 30
0.0
 10
-21.7534
 20
22.6023
 30
0.0
 10
-21.628
 20
22.6224
 30
0.0
 10
-21.628
 20
22.6224
 30
0.0
 10
-21.5019
 20
22.6424
 30
0.0
 10
-21.3609
 20
22.6521
 30
0.0
 10
-21.205
 20
22.6521
 30
0.0
 10
-21.205
 20
22.6521
 30
0.0
 10
-20.989
 20
22.6521
 30
0.0
 10
-20.8027
 20
22.6334
 30
0.0
 10
-20.6462
 20
22.5958
 30
0.0
 10
-20.6462
 20
22.5958
 30
0.0
 10
-20.4891
 20
22.559
 30
0.0
 10
-20.3681
 20
22.5021
 30
0.0
 10
-20.2827
 20
22.4264
 30
0.0
 10
-20.2827
 20
22.4264
 30
0.0
 10
-20.1974
 20
22.3507
 30
0.0
 10
-20.1547
 20
22.255
 30
0.0
 10
-20.1534
 20
22.1399
 30
0.0
 10
-20.1534
 20
22.1399
 30
0.0
 10
-20.154
 20
22.0358
 30
0.0
 10
-20.1941
 20
21.9459
 30
0.0
 10
-20.2743
 20
21.8689
 30
0.0
 10
-20.2743
 20
21.8689
 30
0.0
 10
-20.3545
 20
21.7926
 30
0.0
 10
-20.4709
 20
21.7337
 30
0.0
 10
-20.6236
 20
21.6917
 30
0.0
 10
-20.6236
 20
21.6917
 30
0.0
 10
-20.7769
 20
21.6497
 30
0.0
 10
-20.9625
 20
21.6283
 30
0.0
 10
-21.1817
 20
21.6277
 30
0.0
 10
-21.1817
 20
21.6277
 30
0.0
 10
-21.4113
 20
21.6283
 30
0.0
 10
-21.6034
 20
21.6509
 30
0.0
 10
-21.7599
 20
21.6949
 30
0.0
 10
-21.7599
 20
21.6949
 30
0.0
 10
-21.9158
 20
21.7389
 30
0.0
 10
-22.0335
 20
21.7991
 30
0.0
 10
-22.1137
 20
21.876
 30
0.0
 10
-22.1137
 20
21.876
 30
0.0
 10
-22.1932
 20
21.953
 30
0.0
 10
-22.2333
 20
22.0409
 30
0.0
 10
-22.2333
 20
22.1399
 30
0.0
  0
SPLINE
  5
98
330
1F
100
AcDbEntity
  8
DEFAULT_1
 62
   250
100
AcDbSpline
210
0.0
220
0.0
230
1.0
 70
    11
 71
     3
 72
   124
 73
   120
 74
     0
 42
0.0000000001
 43
0.0000000001
 40
0.0
 40
0.0
 40
0.0
 40
0.0
 40
0.032258064516129
 40
0.032258064516129
 40
0.032258064516129
 40
0.032258064516129
 40
0.0645161290322581
 40
0.0645161290322581
 40
0.0645161290322581
 40
0.0645161290322581
 40
0.0967741935483871
 40
0.0967741935483871
 40
0.0967741935483871
 40
0.0967741935483871
 40
0.1290322580645161
 40
0.1290322580645161
 40
0.1290322580645161
 40
0.1290322580645161
 40
0.1612903225806452
 40
0.1612903225806452
 40
0.1612903225806452
 40
0.1612903225806452
 40
0.1935483870967742
 40
0.1935483870967742
 40
0.1935483870967742
 40
0.1935483870967742
 40
0.2258064516129032
 40
0.2258064516129032
 40
0.2258064516129032
 40
0.2258064516129032
 40
0.2580645161290323
 40
0.2580645161290323
 40
0.2580645161290323
 40
0.2580645161290323
 40
0.2903225806451613
 40
0.2903225806451613
 40
0.2903225806451613
 40
0.2903225806451613
 40
0.3225806451612903
 40
0.3225806451612903
 40
0.3225806451612903
 40
0.3225806451612903
 40
0.3548387096774194
 40
0.3548387096774194
 40
0.3548387096774194
 40
0.3548387096774194
 40
0.3870967741935484
 40
0.3870967741935484
 40
0.3870967741935484
 40
0.3870967741935484
 40
0.4193548387096774
 40
0.4193548387096774
 40
0.4193548387096774
 40
0.4193548387096774
 40
0.4516129032258064
 40
0.4516129032258064
 40
0.4516129032258064
 40
0.4516129032258064
 40
0.4838709677419355
 40
0.4838709677419355
 40
0.4838709677419355
 40
0.4838709677419355
 40
0.5161290322580645
 40
0.5161290322580645
 40
0.5161290322580645
 40
0.5161290322580645
 40
0.5483870967741935
 40
0.5483870967741935
 40
0.5483870967741935
 40
0.5483870967741935
 40
0.5806451612903226
 40
0.5806451612903226
 40
0.5806451612903226
 40
0.5806451612903226
 40
0.6129032258064516
 40
0.6129032258064516
 40
0.6129032258064516
 40
0.6129032258064516
 40
0.6451612903225806
 40
0.6451612903225806
 40
0.6451612903225806
 40
0.6451612903225806
 40
0.6774193548387096
 40
0.6774193548387096
 40
0.6774193548387096
 40
0.6774193548387096
 40
0.7096774193548387
 40
0.7096774193548387
 40
0.7096774193548387
 40
0.7096774193548387
 40
0.7419354838709677
 40
0.7419354838709677
 40
0.7419354838709677
 40
0.7419354838709677
 40
0.7741935483870968
 40
0.7741935483870968
 40
0.7741935483870968
 40
0.7741935483870968
 40
0.8064516129032258
 40
0.8064516129032258
 40
0.8064516129032258
 40
0.8064516129032258
 40
0.8387096774193549
 40
0.8387096774193549
 40
0.8387096774193549
 40
0.8387096774193549
 40
0.8709677419354839
 40
0.8709677419354839
 40
0.8709677419354839
 40
0.8709677419354839
 40
0.9032258064516129
 40
0.9032258064516129
 40
0.9032258064516129
 40
0.9032258064516129
 40
0.9354838709677419
 40
0.9354838709677419
 40
0.9354838709677419
 40
0.9354838709677419
 40
1.0
 40
1.0
 40
1.0
 40
1.0
 10
-22.2779
 20
-7.5023
 30
0.0
 10
-22.2779
 20
-7.5334
 30
0.0
 10
-22.2766
 20
-7.5702
 30
0.0
 10
-22.274
 20
-7.6116
 30
0.0
 10
-22.274
 20
-7.6116
 30
0.0
 10
-22.2715
 20
-7.6537
 30
0.0
 10
-22.2663
 20
-7.7002
 30
0.0
 10
-22.2585
 20
-7.7507
 30
0.0
 10
-22.2585
 20
-7.7507
 30
0.0
 10
-22.2391
 20
-7.9104
 30
0.0
 10
-22.1977
 20
-8.0585
 30
0.0
 10
-22.135
 20
-8.195
 30
0.0
 10
-22.135
 20
-8.195
 30
0.0
 10
-22.0723
 20
-8.3314
 30
0.0
 10
-21.9895
 20
-8.4524
 30
0.0
 10
-21.886
 20
-8.5578
 30
0.0
 10
-21.886
 20
-8.5578
 30
0.0
 10
-21.8032
 20
-8.6425
 30
0.0
 10
-21.7049
 20
-8.7169
 30
0.0
 10
-21.5911
 20
-8.7803
 30
0.0
 10
-21.5911
 20
-8.7803
 30
0.0
 10
-21.4779
 20
-8.8443
 30
0.0
 10
-21.3505
 20
-8.8941
 30
0.0
 10
-21.2095
 20
-8.9303
 30
0.0
 10
-21.2095
 20
-8.9303
 30
0.0
 10
-21.0685
 20
-8.9659
 30
0.0
 10
-20.9146
 20
-8.984
 30
0.0
 10
-20.749
 20
-8.9847
 30
0.0
 10
-20.749
 20
-8.9847
 30
0.0
 10
-20.5847
 20
-8.984
 30
0.0
 10
-20.4366
 20
-8.9627
 30
0.0
 10
-20.3047
 20
-8.9213
 30
0.0
 10
-20.3047
 20
-8.9213
 30
0.0
 10
-20.1721
 20
-8.8792
 30
0.0
 10
-20.0596
 20
-8.8191
 30
0.0
 10
-19.9658
 20
-8.7408
 30
0.0
 10
-19.9658
 20
-8.7408
 30
0.0
 10
-19.872
 20
-8.6632
 30
0.0
 10
-19.7996
 20
-8.5694
 30
0.0
 10
-19.7498
 20
-8.4608
 30
0.0
 10
-19.7498
 20
-8.4608
 30
0.0
 10
-19.7
 20
-8.3521
 30
0.0
 10
-19.6748
 20
-8.2306
 30
0.0
 10
-19.6741
 20
-8.096
 30
0.0
 10
-19.6741
 20
-8.096
 30
0.0
 10
-19.6754
 20
-7.9641
 30
0.0
 10
-19.7
 20
-7.8457
 30
0.0
 10
-19.7478
 20
-7.7416
 30
0.0
 10
-19.7478
 20
-7.7416
 30
0.0
 10
-19.7964
 20
-7.6381
 30
0.0
 10
-19.8623
 20
-7.5495
 30
0.0
 10
-19.9457
 20
-7.4771
 30
0.0
 10
-19.9457
 20
-7.4771
 30
0.0
 10
-20.0292
 20
-7.4047
 30
0.0
 10
-20.1243
 20
-7.349
 30
0.0
 10
-20.231
 20
-7.3115
 30
0.0
 10
-20.231
 20
-7.3115
 30
0.0
 10
-20.337
 20
-7.2734
 30
0.0
 10
-20.4489
 20
-7.254
 30
0.0
 10
-20.5666
 20
-7.254
 30
0.0
 10
-20.5666
 20
-7.254
 30
0.0
 10
-20.6895
 20
-7.2546
 30
0.0
 10
-20.8008
 20
-7.2734
 30
0.0
 10
-20.9004
 20
-7.3102
 30
0.0
 10
-20.9004
 20
-7.3102
 30
0.0
 10
-21.0
 20
-7.3471
 30
0.0
 10
-21.086
 20
-7.3995
 30
0.0
 10
-21.1578
 20
-7.4667
 30
0.0
 10
-21.1578
 20
-7.4667
 30
0.0
 10
-21.2289
 20
-7.5346
 30
0.0
 10
-21.2845
 20
-7.6148
 30
0.0
 10
-21.3227
 20
-7.7073
 30
0.0
 10
-21.3227
 20
-7.7073
 30
0.0
 10
-21.3615
 20
-7.7998
 30
0.0
 10
-21.3809
 20
-7.9027
 30
0.0
 10
-21.3815
 20
-8.0145
 30
0.0
 10
-21.3815
 20
-8.0145
 30
0.0
 10
-21.3809
 20
-8.1077
 30
0.0
 10
-21.3673
 20
-8.193
 30
0.0
 10
-21.3414
 20
-8.2707
 30
0.0
 10
-21.3414
 20
-8.2707
 30
0.0
 10
-21.3149
 20
-8.3483
 30
0.0
 10
-21.28
 20
-8.4175
 30
0.0
 10
-21.2354
 20
-8.4776
 30
0.0
 10
-21.2354
 20
-8.4776
 30
0.0
 10
-21.1914
 20
-8.5371
 30
0.0
 10
-21.1416
 20
-8.5876
 30
0.0
 10
-21.0866
 20
-8.6277
 30
0.0
 10
-21.0866
 20
-8.6277
 30
0.0
 10
-21.0866
 20
-8.6277
 30
0.0
 10
-21.0866
 20
-8.6354
 30
0.0
 10
-21.0866
 20
-8.6354
 30
0.0
 10
-21.0866
 20
-8.6354
 30
0.0
 10
-21.192
 20
-8.6212
 30
0.0
 10
-21.2936
 20
-8.5927
 30
0.0
 10
-21.3912
 20
-8.5494
 30
0.0
 10
-21.3912
 20
-8.5494
 30
0.0
 10
-21.4882
 20
-8.5067
 30
0.0
 10
-21.5775
 20
-8.4498
 30
0.0
 10
-21.6583
 20
-8.3774
 30
0.0
 10
-21.6583
 20
-8.3774
 30
0.0
 10
-21.7385
 20
-8.3049
 30
0.0
 10
-21.8071
 20
-8.2176
 30
0.0
 10
-21.8627
 20
-8.1148
 30
0.0
 10
-21.8627
 20
-8.1148
 30
0.0
 10
-21.9183
 20
-8.012
 30
0.0
 10
-21.9571
 20
-7.8929
 30
0.0
 10
-21.9791
 20
-7.7584
 30
0.0
 10
-21.9791
 20
-7.7584
 30
0.0
 10
-21.9869
 20
-7.7099
 30
0.0
 10
-21.9927
 20
-7.6634
 30
0.0
 10
-21.9959
 20
-7.62
 30
0.0
 10
-21.9959
 20
-7.62
 30
0.0
 10
-21.9998
 20
-7.5767
 30
0.0
 10
-22.0005
 20
-7.5372
 30
0.0
 10
-21.9985
 20
-7.5023
 30
0.0
 10
-21.9985
 20
-7.5023
 30
0.0
 10
-21.9985
 20
-7.5023
 30
0.0
 10
-22.2779
 20
-7.5023
 30
0.0
 10
-22.2779
 20
-7.5023
 30
0.0
  0
SPLINE
  5
99
330
1F
100
AcDbEntity
  8
DEFAULT_1
 62
   250
100
AcDbSpline
210
0.0
220
0.0
230
1.0
 70
    11
 71
     3
 72
    64
 73
    60
 74
     0
 42
0.0000000001
 43
0.0000000001
 40
0.0
 40
0.0
 40
0.0
 40
0.0
 40
0.0625
 40
0.0625
 40
0.0625
 40
0.0625
 40
0.125
 40
0.125
 40
0.125
 40
0.125
 40
0.1875
 40
0.1875
 40
0.1875
 40
0.1875
 40
0.25
 40
0.25
 40
0.25
 40
0.25
 40
0.3125
 40
0.3125
 40
0.3125
 40
0.3125
 40
0.375
 40
0.375
 40
0.375
 40
0.375
 40
0.4375
 40
0.4375
 40
0.4375
 40
0.4375
 40
0.5
 40
0.5
 40
0.5
 40
0.5
 40
0.5625
 40
0.5625
 40
0.5625
 40
0.5625
 40
0.625
 40
0.625
 40
0.625
 40
0.625
 40
0.6875
 40
0.6875
 40
0.6875
 40
0.6875
 40
0.75
 40
0.75
 40
0.75
 40
0.75
 40
0.8125
 40
0.8125
 40
0.8125
 40
0.8125
 40
0.875
 40
0.875
 40
0.875
 40
0.875
 40
1.0
 40
1.0
 40
1.0
 40
1.0
 10
-19.938
 20
-8.0883
 30
0.0
 10
-19.9386
 20
-8.1788
 30
0.0
 10
-19.9567
 20
-8.2584
 30
0.0
 10
-19.993
 20
-8.3276
 30
0.0
 10
-19.993
 20
-8.3276
 30
0.0
 10
-20.0292
 20
-8.3961
 30
0.0
 10
-20.0796
 20
-8.4543
 30
0.0
 10
-20.1449
 20
-8.5015
 30
0.0
 10
-20.1449
 20
-8.5015
 30
0.0
 10
-20.2103
 20
-8.5488
 30
0.0
 10
-20.2872
 20
-8.5843
 30
0.0
 10
-20.3752
 20
-8.6089
 30
0.0
 10
-20.3752
 20
-8.6089
 30
0.0
 10
-20.4631
 20
-8.6335
 30
0.0
 10
-20.5595
 20
-8.6458
 30
0.0
 10
-20.6636
 20
-8.6471
 30
0.0
 10
-20.6636
 20
-8.6471
 30
0.0
 10
-20.6947
 20
-8.6471
 30
0.0
 10
-20.7218
 20
-8.6432
 30
0.0
 10
-20.7464
 20
-8.6367
 30
0.0
 10
-20.7464
 20
-8.6367
 30
0.0
 10
-20.7704
 20
-8.6302
 30
0.0
 10
-20.7917
 20
-8.6218
 30
0.0
 10
-20.8111
 20
-8.6121
 30
0.0
 10
-20.8111
 20
-8.6121
 30
0.0
 10
-20.8738
 20
-8.5804
 30
0.0
 10
-20.9282
 20
-8.5397
 30
0.0
 10
-20.9747
 20
-8.4886
 30
0.0
 10
-20.9747
 20
-8.4886
 30
0.0
 10
-21.0206
 20
-8.4382
 30
0.0
 10
-21.0569
 20
-8.3812
 30
0.0
 10
-21.0827
 20
-8.3179
 30
0.0
 10
-21.0827
 20
-8.3179
 30
0.0
 10
-21.108
 20
-8.2545
 30
0.0
 10
-21.1215
 20
-8.1885
 30
0.0
 10
-21.1215
 20
-8.1193
 30
0.0
 10
-21.1215
 20
-8.1193
 30
0.0
 10
-21.1209
 20
-8.0139
 30
0.0
 10
-21.0976
 20
-7.9227
 30
0.0
 10
-21.0517
 20
-7.8444
 30
0.0
 10
-21.0517
 20
-7.8444
 30
0.0
 10
-21.0058
 20
-7.7668
 30
0.0
 10
-20.9398
 20
-7.7067
 30
0.0
 10
-20.8538
 20
-7.664
 30
0.0
 10
-20.8538
 20
-7.664
 30
0.0
 10
-20.7678
 20
-7.6213
 30
0.0
 10
-20.6643
 20
-7.6
 30
0.0
 10
-20.5433
 20
-7.5993
 30
0.0
 10
-20.5433
 20
-7.5993
 30
0.0
 10
-20.4224
 20
-7.6
 30
0.0
 10
-20.3163
 20
-7.6207
 30
0.0
 10
-20.2258
 20
-7.6614
 30
0.0
 10
-20.2258
 20
-7.6614
 30
0.0
 10
-20.1352
 20
-7.7022
 30
0.0
 10
-20.0654
 20
-7.7591
 30
0.0
 10
-20.015
 20
-7.8322
 30
0.0
 10
-20.015
 20
-7.8322
 30
0.0
 10
-19.9645
 20
-7.9052
 30
0.0
 10
-19.9386
 20
-7.9906
 30
0.0
 10
-19.938
 20
-8.0883
 30
0.0
  0
SPLINE
  5
9A
330
1F
100
AcDbEntity
  8
DEFAULT_1
 62
   250
100
AcDbSpline
210
0.0
220
0.0
230
1.0
 70
    11
 71
     3
 72
   124
 73
   120
 74
     0
 42
0.0000000001
 43
0.0000000001
 40
0.0
 40
0.0
 40
0.0
 40
0.0
 40
0.032258064516129
 40
0.032258064516129
 40
0.032258064516129
 40
0.032258064516129
 40
0.0645161290322581
 40
0.0645161290322581
 40
0.0645161290322581
 40
0.0645161290322581
 40
0.0967741935483871
 40
0.0967741935483871
 40
0.0967741935483871
 40
0.0967741935483871
 40
0.1290322580645161
 40
0.1290322580645161
 40
0.1290322580645161
 40
0.1290322580645161
 40
0.1612903225806452
 40
0.1612903225806452
 40
0.1612903225806452
 40
0.1612903225806452
 40
0.1935483870967742
 40
0.1935483870967742
 40
0.1935483870967742
 40
0.1935483870967742
 40
0.2258064516129032
 40
0.2258064516129032
 40
0.2258064516129032
 40
0.2258064516129032
 40
0.2580645161290323
 40
0.2580645161290323
 40
0.2580645161290323
 40
0.2580645161290323
 40
0.2903225806451613
 40
0.2903225806451613
 40
0.2903225806451613
 40
0.2903225806451613
 40
0.3225806451612903
 40
0.3225806451612903
 40
0.3225806451612903
 40
0.3225806451612903
 40
0.3548387096774194
 40
0.3548387096774194
 40
0.3548387096774194
 40
0.3548387096774194
 40
0.3870967741935484
 40
0.3870967741935484
 40
0.3870967741935484
 40
0.3870967741935484
 40
0.4193548387096774
 40
0.4193548387096774
 40
0.4193548387096774
 40
0.4193548387096774
 40
0.4516129032258064
 40
0.4516129032258064
 40
0.4516129032258064
 40
0.4516129032258064
 40
0.4838709677419355
 40
0.4838709677419355
 40
0.4838709677419355
 40
0.4838709677419355
 40
0.5161290322580645
 40
0.5161290322580645
 40
0.5161290322580645
 40
0.5161290322580645
 40
0.5483870967741935
 40
0.5483870967741935
 40
0.5483870967741935
 40
0.5483870967741935
 40
0.5806451612903226
 40
0.5806451612903226
 40
0.5806451612903226
 40
0.5806451612903226
 40
0.6129032258064516
 40
0.6129032258064516
 40
0.6129032258064516
 40
0.6129032258064516
 40
0.6451612903225806
 40
0.6451612903225806
 40
0.6451612903225806
 40
0.6451612903225806
 40
0.6774193548387096
 40
0.6774193548387096
 40
0.6774193548387096
 40
0.6774193548387096
 40
0.7096774193548387
 40
0.7096774193548387
 40
0.7096774193548387
 40
0.7096774193548387
 40
0.7419354838709677
 40
0.7419354838709677
 40
0.7419354838709677
 40
0.7419354838709677
 40
0.7741935483870968
 40
0.7741935483870968
 40
0.7741935483870968
 40
0.7741935483870968
 40
0.8064516129032258
 40
0.8064516129032258
 40
0.8064516129032258
 40
0.8064516129032258
 40
0.8387096774193549
 40
0.8387096774193549
 40
0.8387096774193549
 40
0.8387096774193549
 40
0.8709677419354839
 40
0.8709677419354839
 40
0.8709677419354839
 40
0.8709677419354839
 40
0.9032258064516129
 40
0.9032258064516129
 40
0.9032258064516129
 40
0.9032258064516129
 40
0.9354838709677419
 40
0.9354838709677419
 40
0.9354838709677419
 40
0.9354838709677419
 40
1.0
 40
1.0
 40
1.0
 40
1.0
 10
-19.678
 20
-6.7534
 30
0.0
 10
-19.6761
 20
-6.7126
 30
0.0
 10
-19.6761
 20
-6.6654
 30
0.0
 10
-19.6793
 20
-6.6124
 30
0.0
 10
-19.6793
 20
-6.6124
 30
0.0
 10
-19.6819
 20
-6.5593
 30
0.0
 10
-19.6877
 20
-6.5011
 30
0.0
 10
-19.6974
 20
-6.4391
 30
0.0
 10
-19.6974
 20
-6.4391
 30
0.0
 10
-19.7077
 20
-6.3479
 30
0.0
 10
-19.7278
 20
-6.2586
 30
0.0
 10
-19.7563
 20
-6.1713
 30
0.0
 10
-19.7563
 20
-6.1713
 30
0.0
 10
-19.7854
 20
-6.084
 30
0.0
 10
-19.8235
 20
-6.0006
 30
0.0
 10
-19.8701
 20
-5.9217
 30
0.0
 10
-19.8701
 20
-5.9217
 30
0.0
 10
-19.9166
 20
-5.8427
 30
0.0
 10
-19.9716
 20
-5.771
 30
0.0
 10
-20.035
 20
-5.7056
 30
0.0
 10
-20.035
 20
-5.7056
 30
0.0
 10
-20.1152
 20
-5.6222
 30
0.0
 10
-20.2116
 20
-5.5478
 30
0.0
 10
-20.3254
 20
-5.4825
 30
0.0
 10
-20.3254
 20
-5.4825
 30
0.0
 10
-20.4386
 20
-5.4172
 30
0.0
 10
-20.5692
 20
-5.3661
 30
0.0
 10
-20.7173
 20
-5.3286
 30
0.0
 10
-20.7173
 20
-5.3286
 30
0.0
 10
-20.8654
 20
-5.2911
 30
0.0
 10
-21.031
 20
-5.2717
 30
0.0
 10
-21.2147
 20
-5.271
 30
0.0
 10
-21.2147
 20
-5.271
 30
0.0
 10
-21.3783
 20
-5.271
 30
0.0
 10
-21.5251
 20
-5.2904
 30
0.0
 10
-21.6564
 20
-5.3286
 30
0.0
 10
-21.6564
 20
-5.3286
 30
0.0
 10
-21.7877
 20
-5.3667
 30
0.0
 10
-21.8996
 20
-5.4224
 30
0.0
 10
-21.9927
 20
-5.4948
 30
0.0
 10
-21.9927
 20
-5.4948
 30
0.0
 10
-22.0858
 20
-5.5672
 30
0.0
 10
-22.157
 20
-5.6545
 30
0.0
 10
-22.2068
 20
-5.7574
 30
0.0
 10
-22.2068
 20
-5.7574
 30
0.0
 10
-22.2566
 20
-5.8602
 30
0.0
 10
-22.2812
 20
-5.976
 30
0.0
 10
-22.2818
 20
-6.1053
 30
0.0
 10
-22.2818
 20
-6.1053
 30
0.0
 10
-22.2812
 20
-6.2347
 30
0.0
 10
-22.2566
 20
-6.3524
 30
0.0
 10
-22.2087
 20
-6.4578
 30
0.0
 10
-22.2087
 20
-6.4578
 30
0.0
 10
-22.1615
 20
-6.5632
 30
0.0
 10
-22.0955
 20
-6.6538
 30
0.0
 10
-22.0128
 20
-6.7294
 30
0.0
 10
-22.0128
 20
-6.7294
 30
0.0
 10
-21.9293
 20
-6.8058
 30
0.0
 10
-21.8343
 20
-6.864
 30
0.0
 10
-21.7269
 20
-6.9047
 30
0.0
 10
-21.7269
 20
-6.9047
 30
0.0
 10
-21.6195
 20
-6.9455
 30
0.0
 10
-21.5057
 20
-6.9662
 30
0.0
 10
-21.3854
 20
-6.9668
 30
0.0
 10
-21.3854
 20
-6.9668
 30
0.0
 10
-21.2774
 20
-6.9662
 30
0.0
 10
-21.1765
 20
-6.9487
 30
0.0
 10
-21.0834
 20
-6.9144
 30
0.0
 10
-21.0834
 20
-6.9144
 30
0.0
 10
-20.9896
 20
-6.8795
 30
0.0
 10
-20.9081
 20
-6.8297
 30
0.0
 10
-20.8376
 20
-6.765
 30
0.0
 10
-20.8376
 20
-6.765
 30
0.0
 10
-20.7678
 20
-6.7003
 30
0.0
 10
-20.7128
 20
-6.6221
 30
0.0
 10
-20.6733
 20
-6.5315
 30
0.0
 10
-20.6733
 20
-6.5315
 30
0.0
 10
-20.6339
 20
-6.4403
 30
0.0
 10
-20.6138
 20
-6.3388
 30
0.0
 10
-20.6132
 20
-6.2256
 30
0.0
 10
-20.6132
 20
-6.2256
 30
0.0
 10
-20.6138
 20
-6.0976
 30
0.0
 10
-20.6371
 20
-5.9831
 30
0.0
 10
-20.683
 20
-5.8828
 30
0.0
 10
-20.683
 20
-5.8828
 30
0.0
 10
-20.729
 20
-5.7832
 30
0.0
 10
-20.7949
 20
-5.6979
 30
0.0
 10
-20.881
 20
-5.628
 30
0.0
 10
-20.881
 20
-5.628
 30
0.0
 10
-20.881
 20
-5.628
 30
0.0
 10
-20.881
 20
-5.6164
 30
0.0
 10
-20.881
 20
-5.6164
 30
0.0
 10
-20.881
 20
-5.6164
 30
0.0
 10
-20.7335
 20
-5.6403
 30
0.0
 10
-20.6041
 20
-5.6811
 30
0.0
 10
-20.4935
 20
-5.738
 30
0.0
 10
-20.4935
 20
-5.738
 30
0.0
 10
-20.3823
 20
-5.7955
 30
0.0
 10
-20.2892
 20
-5.866
 30
0.0
 10
-20.2135
 20
-5.9501
 30
0.0
 10
-20.2135
 20
-5.9501
 30
0.0
 10
-20.1437
 20
-6.0225
 30
0.0
 10
-20.0893
 20
-6.1034
 30
0.0
 10
-20.0492
 20
-6.1933
 30
0.0
 10
-20.0492
 20
-6.1933
 30
0.0
 10
-20.0091
 20
-6.2832
 30
0.0
 10
-19.9826
 20
-6.3783
 30
0.0
 10
-19.969
 20
-6.4779
 30
0.0
 10
-19.969
 20
-6.4779
 30
0.0
 10
-19.9632
 20
-6.5354
 30
0.0
 10
-19.9587
 20
-6.5872
 30
0.0
 10
-19.9561
 20
-6.6318
 30
0.0
 10
-19.9561
 20
-6.6318
 30
0.0
 10
-19.9535
 20
-6.6764
 30
0.0
 10
-19.9535
 20
-6.7172
 30
0.0
 10
-19.9574
 20
-6.7534
 30
0.0
 10
-19.9574
 20
-6.7534
 30
0.0
 10
-19.9574
 20
-6.7534
 30
0.0
 10
-19.678
 20
-6.7534
 30
0.0
 10
-19.678
 20
-6.7534
 30
0.0
  0
SPLINE
  5
9B
330
1F
100
AcDbEntity
  8
DEFAULT_1
 62
   250
100
AcDbSpline
210
0.0
220
0.0
230
1.0
 70
    11
 71
     3
 72
    64
 73
    60
 74
     0
 42
0.0000000001
 43
0.0000000001
 40
0.0
 40
0.0
 40
0.0
 40
0.0
 40
0.0625
 40
0.0625
 40
0.0625
 40
0.0625
 40
0.125
 40
0.125
 40
0.125
 40
0.125
 40
0.1875
 40
0.1875
 40
0.1875
 40
0.1875
 40
0.25
 40
0.25
 40
0.25
 40
0.25
 40
0.3125
 40
0.3125
 40
0.3125
 40
0.3125
 40
0.375
 40
0.375
 40
0.375
 40
0.375
 40
0.4375
 40
0.4375
 40
0.4375
 40
0.4375
 40
0.5
 40
0.5
 40
0.5
 40
0.5
 40
0.5625
 40
0.5625
 40
0.5625
 40
0.5625
 40
0.625
 40
0.625
 40
0.625
 40
0.625
 40
0.6875
 40
0.6875
 40
0.6875
 40
0.6875
 40
0.75
 40
0.75
 40
0.75
 40
0.75
 40
0.8125
 40
0.8125
 40
0.8125
 40
0.8125
 40
0.875
 40
0.875
 40
0.875
 40
0.875
 40
1.0
 40
1.0
 40
1.0
 40
1.0
 10
-22.0218
 20
-6.1364
 30
0.0
 10
-22.0212
 20
-6.0465
 30
0.0
 10
-22.0018
 20
-5.9682
 30
0.0
 10
-21.9636
 20
-5.9029
 30
0.0
 10
-21.9636
 20
-5.9029
 30
0.0
 10
-21.9255
 20
-5.8376
 30
0.0
 10
-21.8718
 20
-5.7832
 30
0.0
 10
-21.8032
 20
-5.7412
 30
0.0
 10
-21.8032
 20
-5.7412
 30
0.0
 10
-21.7347
 20
-5.6985
 30
0.0
 10
-21.6538
 20
-5.6675
 30
0.0
 10
-21.562
 20
-5.6468
 30
0.0
 10
-21.562
 20
-5.6468
 30
0.0
 10
-21.4695
 20
-5.6261
 30
0.0
 10
-21.3692
 20
-5.6164
 30
0.0
 10
-21.2612
 20
-5.6164
 30
0.0
 10
-21.2612
 20
-5.6164
 30
0.0
 10
-21.2328
 20
-5.6164
 30
0.0
 10
-21.2082
 20
-5.619
 30
0.0
 10
-21.1888
 20
-5.6248
 30
0.0
 10
-21.1888
 20
-5.6248
 30
0.0
 10
-21.1688
 20
-5.63
 30
0.0
 10
-21.15
 20
-5.6377
 30
0.0
 10
-21.1332
 20
-5.6474
 30
0.0
 10
-21.1332
 20
-5.6474
 30
0.0
 10
-21.0821
 20
-5.6772
 30
0.0
 10
-21.0368
 20
-5.7166
 30
0.0
 10
-20.9974
 20
-5.7651
 30
0.0
 10
-20.9974
 20
-5.7651
 30
0.0
 10
-20.9579
 20
-5.813
 30
0.0
 10
-20.9269
 20
-5.8693
 30
0.0
 10
-20.9042
 20
-5.9333
 30
0.0
 10
-20.9042
 20
-5.9333
 30
0.0
 10
-20.8816
 20
-5.9973
 30
0.0
 10
-20.87
 20
-6.0678
 30
0.0
 10
-20.8693
 20
-6.1441
 30
0.0
 10
-20.8693
 20
-6.1441
 30
0.0
 10
-20.87
 20
-6.2431
 30
0.0
 10
-20.8932
 20
-6.3285
 30
0.0
 10
-20.9385
 20
-6.4009
 30
0.0
 10
-20.9385
 20
-6.4009
 30
0.0
 10
-20.9838
 20
-6.4733
 30
0.0
 10
-21.0459
 20
-6.5296
 30
0.0
 10
-21.1261
 20
-6.569
 30
0.0
 10
-21.1261
 20
-6.569
 30
0.0
 10
-21.2063
 20
-6.6085
 30
0.0
 10
-21.2994
 20
-6.6285
 30
0.0
 10
-21.4048
 20
-6.6292
 30
0.0
 10
-21.4048
 20
-6.6292
 30
0.0
 10
-21.5264
 20
-6.6285
 30
0.0
 10
-21.6331
 20
-6.6072
 30
0.0
 10
-21.725
 20
-6.5652
 30
0.0
 10
-21.725
 20
-6.5652
 30
0.0
 10
-21.8174
 20
-6.5231
 30
0.0
 10
-21.8899
 20
-6.4656
 30
0.0
 10
-21.9423
 20
-6.3918
 30
0.0
 10
-21.9423
 20
-6.3918
 30
0.0
 10
-21.9947
 20
-6.3181
 30
0.0
 10
-22.0212
 20
-6.2327
 30
0.0
 10
-22.0218
 20
-6.1364
 30
0.0
  0
SPLINE
  5
9C
330
1F
100
AcDbEntity
  8
DEFAULT_1
 62
   250
100
AcDbSpline
210
0.0
220
0.0
230
1.0
 70
    11
 71
     3
 72
    36
 73
    32
 74
     0
 42
0.0000000001
 43
0.0000000001
 40
0.0
 40
0.0
 40
0.0
 40
0.0
 40
0.1111111111111111
 40
0.1111111111111111
 40
0.1111111111111111
 40
0.1111111111111111
 40
0.2222222222222222
 40
0.2222222222222222
 40
0.2222222222222222
 40
0.2222222222222222
 40
0.3333333333333333
 40
0.3333333333333333
 40
0.3333333333333333
 40
0.3333333333333333
 40
0.4444444444444444
 40
0.4444444444444444
 40
0.4444444444444444
 40
0.4444444444444444
 40
0.5555555555555556
 40
0.5555555555555556
 40
0.5555555555555556
 40
0.5555555555555556
 40
0.6666666666666666
 40
0.6666666666666666
 40
0.6666666666666666
 40
0.6666666666666666
 40
0.7777777777777778
 40
0.7777777777777778
 40
0.7777777777777778
 40
0.7777777777777778
 40
1.0
 40
1.0
 40
1.0
 40
1.0
 10
-13.5041
 20
-21.0162
 30
0.0
 10
-13.5041
 20
-21.0162
 30
0.0
 10
-13.5041
 20
-20.6864
 30
0.0
 10
-13.5041
 20
-20.6864
 30
0.0
 10
-13.5041
 20
-20.6864
 30
0.0
 10
-13.5041
 20
-20.6864
 30
0.0
 10
-16.0264
 20
-20.6864
 30
0.0
 10
-16.0264
 20
-20.6864
 30
0.0
 10
-16.0264
 20
-20.6864
 30
0.0
 10
-16.0264
 20
-20.6864
 30
0.0
 10
-16.0264
 20
-20.9774
 30
0.0
 10
-16.0264
 20
-20.9774
 30
0.0
 10
-16.0264
 20
-20.9774
 30
0.0
 10
-16.0264
 20
-20.9774
 30
0.0
 10
-15.7315
 20
-21.5284
 30
0.0
 10
-15.7315
 20
-21.5284
 30
0.0
 10
-15.7315
 20
-21.5284
 30
0.0
 10
-15.7315
 20
-21.5284
 30
0.0
 10
-15.4715
 20
-21.4625
 30
0.0
 10
-15.4715
 20
-21.4625
 30
0.0
 10
-15.4715
 20
-21.4625
 30
0.0
 10
-15.4715
 20
-21.4625
 30
0.0
 10
-15.7082
 20
-21.024
 30
0.0
 10
-15.7082
 20
-21.024
 30
0.0
 10
-15.7082
 20
-21.024
 30
0.0
 10
-15.7082
 20
-21.024
 30
0.0
 10
-15.7082
 20
-21.0162
 30
0.0
 10
-15.7082
 20
-21.0162
 30
0.0
 10
-15.7082
 20
-21.0162
 30
0.0
 10
-15.7082
 20
-21.0162
 30
0.0
 10
-13.5041
 20
-21.0162
 30
0.0
 10
-13.5041
 20
-21.0162
 30
0.0
  0
SPLINE
  5
9D
330
1F
100
AcDbEntity
  8
DEFAULT_1
 62
   250
100
AcDbSpline
210
0.0
220
0.0
230
1.0
 70
    11
 71
     3
 72
    36
 73
    32
 74
     0
 42
0.0000000001
 43
0.0000000001
 40
0.0
 40
0.0
 40
0.0
 40
0.0
 40
0.1111111111111111
 40
0.1111111111111111
 40
0.1111111111111111
 40
0.1111111111111111
 40
0.2222222222222222
 40
0.2222222222222222
 40
0.2222222222222222
 40
0.2222222222222222
 40
0.3333333333333333
 40
0.3333333333333333
 40
0.3333333333333333
 40
0.3333333333333333
 40
0.4444444444444444
 40
0.4444444444444444
 40
0.4444444444444444
 40
0.4444444444444444
 40
0.5555555555555556
 40
0.5555555555555556
 40
0.5555555555555556
 40
0.5555555555555556
 40
0.6666666666666666
 40
0.6666666666666666
 40
0.6666666666666666
 40
0.6666666666666666
 40
0.7777777777777778
 40
0.7777777777777778
 40
0.7777777777777778
 40
0.7777777777777778
 40
1.0
 40
1.0
 40
1.0
 40
1.0
 10
-13.5041
 20
-19.0255
 30
0.0
 10
-13.5041
 20
-19.0255
 30
0.0
 10
-13.5041
 20
-18.6957
 30
0.0
 10
-13.5041
 20
-18.6957
 30
0.0
 10
-13.5041
 20
-18.6957
 30
0.0
 10
-13.5041
 20
-18.6957
 30
0.0
 10
-16.0264
 20
-18.6957
 30
0.0
 10
-16.0264
 20
-18.6957
 30
0.0
 10
-16.0264
 20
-18.6957
 30
0.0
 10
-16.0264
 20
-18.6957
 30
0.0
 10
-16.0264
 20
-18.9867
 30
0.0
 10
-16.0264
 20
-18.9867
 30
0.0
 10
-16.0264
 20
-18.9867
 30
0.0
 10
-16.0264
 20
-18.9867
 30
0.0
 10
-15.7315
 20
-19.5377
 30
0.0
 10
-15.7315
 20
-19.5377
 30
0.0
 10
-15.7315
 20
-19.5377
 30
0.0
 10
-15.7315
 20
-19.5377
 30
0.0
 10
-15.4715
 20
-19.4718
 30
0.0
 10
-15.4715
 20
-19.4718
 30
0.0
 10
-15.4715
 20
-19.4718
 30
0.0
 10
-15.4715
 20
-19.4718
 30
0.0
 10
-15.7082
 20
-19.0333
 30
0.0
 10
-15.7082
 20
-19.0333
 30
0.0
 10
-15.7082
 20
-19.0333
 30
0.0
 10
-15.7082
 20
-19.0333
 30
0.0
 10
-15.7082
 20
-19.0255
 30
0.0
 10
-15.7082
 20
-19.0255
 30
0.0
 10
-15.7082
 20
-19.0255
 30
0.0
 10
-15.7082
 20
-19.0255
 30
0.0
 10
-13.5041
 20
-19.0255
 30
0.0
 10
-13.5041
 20
-19.0255
 30
0.0
  0
SPLINE
  5
9E
330
1F
100
AcDbEntity
  8
DEFAULT_1
 62
   250
100
AcDbSpline
210
0.0
220
0.0
230
1.0
 70
    11
 71
     3
 72
    36
 73
    32
 74
     0
 42
0.0000000001
 43
0.0000000001
 40
0.0
 40
0.0
 40
0.0
 40
0.0
 40
0.1111111111111111
 40
0.1111111111111111
 40
0.1111111111111111
 40
0.1111111111111111
 40
0.2222222222222222
 40
0.2222222222222222
 40
0.2222222222222222
 40
0.2222222222222222
 40
0.3333333333333333
 40
0.3333333333333333
 40
0.3333333333333333
 40
0.3333333333333333
 40
0.4444444444444444
 40
0.4444444444444444
 40
0.4444444444444444
 40
0.4444444444444444
 40
0.5555555555555556
 40
0.5555555555555556
 40
0.5555555555555556
 40
0.5555555555555556
 40
0.6666666666666666
 40
0.6666666666666666
 40
0.6666666666666666
 40
0.6666666666666666
 40
0.7777777777777778
 40
0.7777777777777778
 40
0.7777777777777778
 40
0.7777777777777778
 40
1.0
 40
1.0
 40
1.0
 40
1.0
 10
18.917
 20
25.5123
 30
0.0
 10
18.917
 20
25.5123
 30
0.0
 10
19.2003
 20
25.5123
 30
0.0
 10
19.2003
 20
25.5123
 30
0.0
 10
19.2003
 20
25.5123
 30
0.0
 10
19.2003
 20
25.5123
 30
0.0
 10
19.2003
 20
26.7463
 30
0.0
 10
19.2003
 20
26.7463
 30
0.0
 10
19.2003
 20
26.7463
 30
0.0
 10
19.2003
 20
26.7463
 30
0.0
 10
19.208
 20
26.7463
 30
0.0
 10
19.208
 20
26.7463
 30
0.0
 10
19.208
 20
26.7463
 30
0.0
 10
19.208
 20
26.7463
 30
0.0
 10
21.4393
 20
25.652
 30
0.0
 10
21.4393
 20
25.652
 30
0.0
 10
21.4393
 20
25.652
 30
0.0
 10
21.4393
 20
25.652
 30
0.0
 10
21.4393
 20
26.0051
 30
0.0
 10
21.4393
 20
26.0051
 30
0.0
 10
21.4393
 20
26.0051
 30
0.0
 10
21.4393
 20
26.0051
 30
0.0
 10
19.142
 20
27.1033
 30
0.0
 10
19.142
 20
27.1033
 30
0.0
 10
19.142
 20
27.1033
 30
0.0
 10
19.142
 20
27.1033
 30
0.0
 10
18.917
 20
27.1033
 30
0.0
 10
18.917
 20
27.1033
 30
0.0
 10
18.917
 20
27.1033
 30
0.0
 10
18.917
 20
27.1033
 30
0.0
 10
18.917
 20
25.5123
 30
0.0
 10
18.917
 20
25.5123
 30
0.0
  0
SPLINE
  5
9F
330
1F
100
AcDbEntity
  8
DEFAULT_1
 62
   250
100
AcDbSpline
210
0.0
220
0.0
230
1.0
 70
    11
 71
     3
 72
   104
 73
   100
 74
     0
 42
0.0000000001
 43
0.0000000001
 40
0.0
 40
0.0
 40
0.0
 40
0.0
 40
0.0384615384615385
 40
0.0384615384615385
 40
0.0384615384615385
 40
0.0384615384615385
 40
0.0769230769230769
 40
0.0769230769230769
 40
0.0769230769230769
 40
0.0769230769230769
 40
0.1153846153846154
 40
0.1153846153846154
 40
0.1153846153846154
 40
0.1153846153846154
 40
0.1538461538461539
 40
0.1538461538461539
 40
0.1538461538461539
 40
0.1538461538461539
 40
0.1923076923076923
 40
0.1923076923076923
 40
0.1923076923076923
 40
0.1923076923076923
 40
0.2307692307692308
 40
0.2307692307692308
 40
0.2307692307692308
 40
0.2307692307692308
 40
0.2692307692307692
 40
0.2692307692307692
 40
0.2692307692307692
 40
0.2692307692307692
 40
0.3076923076923077
 40
0.3076923076923077
 40
0.3076923076923077
 40
0.3076923076923077
 40
0.3461538461538461
 40
0.3461538461538461
 40
0.3461538461538461
 40
0.3461538461538461
 40
0.3846153846153846
 40
0.3846153846153846
 40
0.3846153846153846
 40
0.3846153846153846
 40
0.4230769230769231
 40
0.4230769230769231
 40
0.4230769230769231
 40
0.4230769230769231
 40
0.4615384615384616
 40
0.4615384615384616
 40
0.4615384615384616
 40
0.4615384615384616
 40
0.5
 40
0.5
 40
0.5
 40
0.5
 40
0.5384615384615384
 40
0.5384615384615384
 40
0.5384615384615384
 40
0.5384615384615384
 40
0.5769230769230769
 40
0.5769230769230769
 40
0.5769230769230769
 40
0.5769230769230769
 40
0.6153846153846154
 40
0.6153846153846154
 40
0.6153846153846154
 40
0.6153846153846154
 40
0.6538461538461539
 40
0.6538461538461539
 40
0.6538461538461539
 40
0.6538461538461539
 40
0.6923076923076923
 40
0.6923076923076923
 40
0.6923076923076923
 40
0.6923076923076923
 40
0.7307692307692307
 40
0.7307692307692307
 40
0.7307692307692307
 40
0.7307692307692307
 40
0.7692307692307693
 40
0.7692307692307693
 40
0.7692307692307693
 40
0.7692307692307693
 40
0.8076923076923077
 40
0.8076923076923077
 40
0.8076923076923077
 40
0.8076923076923077
 40
0.8461538461538461
 40
0.8461538461538461
 40
0.8461538461538461
 40
0.8461538461538461
 40
0.8846153846153846
 40
0.8846153846153846
 40
0.8846153846153846
 40
0.8846153846153846
 40
0.9230769230769231
 40
0.9230769230769231
 40
0.9230769230769231
 40
0.9230769230769231
 40
1.0
 40
1.0
 40
1.0
 40
1.0
 10
-0.9757
 20
32.9077
 30
0.0
 10
-0.9757
 20
32.9077
 30
0.0
 10
-0.7312
 20
33.2415
 30
0.0
 10
-0.7312
 20
33.2415
 30
0.0
 10
-0.7312
 20
33.2415
 30
0.0
 10
-0.6374
 20
33.1736
 30
0.0
 10
-0.5346
 20
33.1212
 30
0.0
 10
-0.4234
 20
33.0856
 30
0.0
 10
-0.4234
 20
33.0856
 30
0.0
 10
-0.3115
 20
33.05
 30
0.0
 10
-0.1944
 20
33.0319
 30
0.0
 10
-0.0715
 20
33.0319
 30
0.0
 10
-0.0715
 20
33.0319
 30
0.0
 10
0.0546
 20
33.0319
 30
0.0
 10
0.1768
 20
33.0507
 30
0.0
 10
0.2939
 20
33.0875
 30
0.0
 10
0.2939
 20
33.0875
 30
0.0
 10
0.4109
 20
33.1244
 30
0.0
 10
0.5196
 20
33.1794
 30
0.0
 10
0.6192
 20
33.2531
 30
0.0
 10
0.6192
 20
33.2531
 30
0.0
 10
0.7194
 20
33.3262
 30
0.0
 10
0.8068
 20
33.418
 30
0.0
 10
0.8818
 20
33.528
 30
0.0
 10
0.8818
 20
33.528
 30
0.0
 10
0.9562
 20
33.6379
 30
0.0
 10
1.0144
 20
33.766
 30
0.0
 10
1.0564
 20
33.9128
 30
0.0
 10
1.0564
 20
33.9128
 30
0.0
 10
1.0978
 20
34.059
 30
0.0
 10
1.1191
 20
34.2232
 30
0.0
 10
1.1198
 20
34.4056
 30
0.0
 10
1.1198
 20
34.4056
 30
0.0
 10
1.1198
 20
34.5343
 30
0.0
 10
1.1069
 20
34.6566
 30
0.0
 10
1.0803
 20
34.773
 30
0.0
 10
1.0803
 20
34.773
 30
0.0
 10
1.0545
 20
34.89
 30
0.0
 10
1.0163
 20
34.9987
 30
0.0
 10
0.9665
 20
35.0989
 30
0.0
 10
0.9665
 20
35.0989
 30
0.0
 10
0.9161
 20
35.1992
 30
0.0
 10
0.8546
 20
35.2884
 30
0.0
 10
0.7822
 20
35.368
 30
0.0
 10
0.7822
 20
35.368
 30
0.0
 10
0.7822
 20
35.368
 30
0.0
 10
1.0228
 20
35.7017
 30
0.0
 10
1.0228
 20
35.7017
 30
0.0
 10
1.0228
 20
35.7017
 30
0.0
 10
1.0228
 20
35.7017
 30
0.0
 10
0.8171
 20
35.8414
 30
0.0
 10
0.8171
 20
35.8414
 30
0.0
 10
0.8171
 20
35.8414
 30
0.0
 10
0.8171
 20
35.8414
 30
0.0
 10
0.5882
 20
35.5271
 30
0.0
 10
0.5882
 20
35.5271
 30
0.0
 10
0.5882
 20
35.5271
 30
0.0
 10
0.4944
 20
35.5969
 30
0.0
 10
0.3928
 20
35.6493
 30
0.0
 10
0.2829
 20
35.6842
 30
0.0
 10
0.2829
 20
35.6842
 30
0.0
 10
0.1723
 20
35.7192
 30
0.0
 10
0.0572
 20
35.7366
 30
0.0
 10
-0.0638
 20
35.7366
 30
0.0
 10
-0.0638
 20
35.7366
 30
0.0
 10
-0.2364
 20
35.736
 30
0.0
 10
-0.3955
 20
35.7036
 30
0.0
 10
-0.5424
 20
35.6396
 30
0.0
 10
-0.5424
 20
35.6396
 30
0.0
 10
-0.6885
 20
35.5756
 30
0.0
 10
-0.8159
 20
35.4831
 30
0.0
 10
-0.9246
 20
35.3634
 30
0.0
 10
-0.9246
 20
35.3634
 30
0.0
 10
-1.0339
 20
35.2438
 30
0.0
 10
-1.118
 20
35.1002
 30
0.0
 10
-1.1788
 20
34.9327
 30
0.0
 10
-1.1788
 20
34.9327
 30
0.0
 10
-1.2389
 20
34.7652
 30
0.0
 10
-1.27
 20
34.5783
 30
0.0
 10
-1.2706
 20
34.3707
 30
0.0
 10
-1.2706
 20
34.3707
 30
0.0
 10
-1.2706
 20
34.24
 30
0.0
 10
-1.2564
 20
34.1152
 30
0.0
 10
-1.2292
 20
33.9975
 30
0.0
 10
-1.2292
 20
33.9975
 30
0.0
 10
-1.202
 20
33.8798
 30
0.0
 10
-1.1626
 20
33.7705
 30
0.0
 10
-1.1115
 20
33.6703
 30
0.0
 10
-1.1115
 20
33.6703
 30
0.0
 10
-1.0598
 20
33.57
 30
0.0
 10
-0.9977
 20
33.4801
 30
0.0
 10
-0.9252
 20
33.4006
 30
0.0
 10
-0.9252
 20
33.4006
 30
0.0
 10
-0.9252
 20
33.4006
 30
0.0
 10
-1.1658
 20
33.063
 30
0.0
 10
-1.1658
 20
33.063
 30
0.0
 10
-1.1658
 20
33.063
 30
0.0
 10
-1.1658
 20
33.063
 30
0.0
 10
-0.9757
 20
32.9077
 30
0.0
 10
-0.9757
 20
32.9077
 30
0.0
  0
SPLINE
  5
A0
330
1F
100
AcDbEntity
  8
DEFAULT_1
 62
   250
100
AcDbSpline
210
0.0
220
0.0
230
1.0
 70
    11
 71
     3
 72
    52
 73
    48
 74
     0
 42
0.0000000001
 43
0.0000000001
 40
0.0
 40
0.0
 40
0.0
 40
0.0
 40
0.0769230769230769
 40
0.0769230769230769
 40
0.0769230769230769
 40
0.0769230769230769
 40
0.1538461538461539
 40
0.1538461538461539
 40
0.1538461538461539
 40
0.1538461538461539
 40
0.2307692307692308
 40
0.2307692307692308
 40
0.2307692307692308
 40
0.2307692307692308
 40
0.3076923076923077
 40
0.3076923076923077
 40
0.3076923076923077
 40
0.3076923076923077
 40
0.3846153846153846
 40
0.3846153846153846
 40
0.3846153846153846
 40
0.3846153846153846
 40
0.4615384615384616
 40
0.4615384615384616
 40
0.4615384615384616
 40
0.4615384615384616
 40
0.5384615384615384
 40
0.5384615384615384
 40
0.5384615384615384
 40
0.5384615384615384
 40
0.6153846153846154
 40
0.6153846153846154
 40
0.6153846153846154
 40
0.6153846153846154
 40
0.6923076923076923
 40
0.6923076923076923
 40
0.6923076923076923
 40
0.6923076923076923
 40
0.7692307692307693
 40
0.7692307692307693
 40
0.7692307692307693
 40
0.7692307692307693
 40
0.8461538461538461
 40
0.8461538461538461
 40
0.8461538461538461
 40
0.8461538461538461
 40
1.0
 40
1.0
 40
1.0
 40
1.0
 10
-0.7273
 20
33.6877
 30
0.0
 10
-0.7273
 20
33.6877
 30
0.0
 10
-0.7351
 20
33.6838
 30
0.0
 10
-0.7351
 20
33.6838
 30
0.0
 10
-0.7351
 20
33.6838
 30
0.0
 10
-0.7739
 20
33.7505
 30
0.0
 10
-0.8075
 20
33.8197
 30
0.0
 10
-0.836
 20
33.8908
 30
0.0
 10
-0.836
 20
33.8908
 30
0.0
 10
-0.8644
 20
33.9626
 30
0.0
 10
-0.8864
 20
34.0383
 30
0.0
 10
-0.902
 20
34.1197
 30
0.0
 10
-0.902
 20
34.1197
 30
0.0
 10
-0.9175
 20
34.2006
 30
0.0
 10
-0.9252
 20
34.2898
 30
0.0
 10
-0.9252
 20
34.3862
 30
0.0
 10
-0.9252
 20
34.3862
 30
0.0
 10
-0.9252
 20
34.4975
 30
0.0
 10
-0.9136
 20
34.6048
 30
0.0
 10
-0.891
 20
34.7102
 30
0.0
 10
-0.891
 20
34.7102
 30
0.0
 10
-0.8677
 20
34.815
 30
0.0
 10
-0.8334
 20
34.9133
 30
0.0
 10
-0.7881
 20
35.0039
 30
0.0
 10
-0.7881
 20
35.0039
 30
0.0
 10
-0.7422
 20
35.095
 30
0.0
 10
-0.6853
 20
35.1752
 30
0.0
 10
-0.6167
 20
35.2438
 30
0.0
 10
-0.6167
 20
35.2438
 30
0.0
 10
-0.5482
 20
35.313
 30
0.0
 10
-0.4686
 20
35.3667
 30
0.0
 10
-0.3781
 20
35.4055
 30
0.0
 10
-0.3781
 20
35.4055
 30
0.0
 10
-0.2869
 20
35.4449
 30
0.0
 10
-0.1847
 20
35.4643
 30
0.0
 10
-0.0715
 20
35.465
 30
0.0
 10
-0.0715
 20
35.465
 30
0.0
 10
0.0274
 20
35.4643
 30
0.0
 10
0.118
 20
35.4482
 30
0.0
 10
0.1995
 20
35.4158
 30
0.0
 10
0.1995
 20
35.4158
 30
0.0
 10
0.2816
 20
35.3841
 30
0.0
 10
0.3553
 20
35.3395
 30
0.0
 10
0.4213
 20
35.2826
 30
0.0
 10
0.4213
 20
35.2826
 30
0.0
 10
0.4213
 20
35.2826
 30
0.0
 10
-0.7273
 20
33.6877
 30
0.0
 10
-0.7273
 20
33.6877
 30
0.0
  0
SPLINE
  5
A1
330
1F
100
AcDbEntity
  8
DEFAULT_1
 62
   250
100
AcDbSpline
210
0.0
220
0.0
230
1.0
 70
    11
 71
     3
 72
    48
 73
    44
 74
     0
 42
0.0000000001
 43
0.0000000001
 40
0.0
 40
0.0
 40
0.0
 40
0.0
 40
0.0833333333333333
 40
0.0833333333333333
 40
0.0833333333333333
 40
0.0833333333333333
 40
0.1666666666666667
 40
0.1666666666666667
 40
0.1666666666666667
 40
0.1666666666666667
 40
0.25
 40
0.25
 40
0.25
 40
0.25
 40
0.3333333333333333
 40
0.3333333333333333
 40
0.3333333333333333
 40
0.3333333333333333
 40
0.4166666666666667
 40
0.4166666666666667
 40
0.4166666666666667
 40
0.4166666666666667
 40
0.5
 40
0.5
 40
0.5
 40
0.5
 40
0.5833333333333334
 40
0.5833333333333334
 40
0.5833333333333334
 40
0.5833333333333334
 40
0.6666666666666666
 40
0.6666666666666666
 40
0.6666666666666666
 40
0.6666666666666666
 40
0.75
 40
0.75
 40
0.75
 40
0.75
 40
0.8333333333333334
 40
0.8333333333333334
 40
0.8333333333333334
 40
0.8333333333333334
 40
1.0
 40
1.0
 40
1.0
 40
1.0
 10
0.5804
 20
35.0769
 30
0.0
 10
0.5804
 20
35.0769
 30
0.0
 10
0.592
 20
35.0769
 30
0.0
 10
0.592
 20
35.0769
 30
0.0
 10
0.592
 20
35.0769
 30
0.0
 10
0.6593
 20
34.9644
 30
0.0
 10
0.7065
 20
34.8506
 30
0.0
 10
0.7343
 20
34.7355
 30
0.0
 10
0.7343
 20
34.7355
 30
0.0
 10
0.7621
 20
34.621
 30
0.0
 10
0.7757
 20
34.5072
 30
0.0
 10
0.7744
 20
34.394
 30
0.0
 10
0.7744
 20
34.394
 30
0.0
 10
0.7744
 20
34.2763
 30
0.0
 10
0.7621
 20
34.1637
 30
0.0
 10
0.7382
 20
34.0557
 30
0.0
 10
0.7382
 20
34.0557
 30
0.0
 10
0.7143
 20
33.9477
 30
0.0
 10
0.6787
 20
33.8481
 30
0.0
 10
0.6321
 20
33.7569
 30
0.0
 10
0.6321
 20
33.7569
 30
0.0
 10
0.5849
 20
33.6657
 30
0.0
 10
0.5274
 20
33.5862
 30
0.0
 10
0.4588
 20
33.5189
 30
0.0
 10
0.4588
 20
33.5189
 30
0.0
 10
0.3896
 20
33.451
 30
0.0
 10
0.3107
 20
33.398
 30
0.0
 10
0.2215
 20
33.3605
 30
0.0
 10
0.2215
 20
33.3605
 30
0.0
 10
0.1322
 20
33.323
 30
0.0
 10
0.0332
 20
33.3042
 30
0.0
 10
-0.0754
 20
33.3035
 30
0.0
 10
-0.0754
 20
33.3035
 30
0.0
 10
-0.1808
 20
33.3035
 30
0.0
 10
-0.2733
 20
33.3197
 30
0.0
 10
-0.3516
 20
33.3514
 30
0.0
 10
-0.3516
 20
33.3514
 30
0.0
 10
-0.4305
 20
33.3831
 30
0.0
 10
-0.501
 20
33.4297
 30
0.0
 10
-0.5644
 20
33.4898
 30
0.0
 10
-0.5644
 20
33.4898
 30
0.0
 10
-0.5644
 20
33.4898
 30
0.0
 10
0.5804
 20
35.0769
 30
0.0
 10
0.5804
 20
35.0769
 30
0.0
  0
SPLINE
  5
A2
330
1F
100
AcDbEntity
  8
DEFAULT_1
 62
   250
100
AcDbSpline
210
0.0
220
0.0
230
1.0
 70
    11
 71
     3
 72
   124
 73
   120
 74
     0
 42
0.0000000001
 43
0.0000000001
 40
0.0
 40
0.0
 40
0.0
 40
0.0
 40
0.032258064516129
 40
0.032258064516129
 40
0.032258064516129
 40
0.032258064516129
 40
0.0645161290322581
 40
0.0645161290322581
 40
0.0645161290322581
 40
0.0645161290322581
 40
0.0967741935483871
 40
0.0967741935483871
 40
0.0967741935483871
 40
0.0967741935483871
 40
0.1290322580645161
 40
0.1290322580645161
 40
0.1290322580645161
 40
0.1290322580645161
 40
0.1612903225806452
 40
0.1612903225806452
 40
0.1612903225806452
 40
0.1612903225806452
 40
0.1935483870967742
 40
0.1935483870967742
 40
0.1935483870967742
 40
0.1935483870967742
 40
0.2258064516129032
 40
0.2258064516129032
 40
0.2258064516129032
 40
0.2258064516129032
 40
0.2580645161290323
 40
0.2580645161290323
 40
0.2580645161290323
 40
0.2580645161290323
 40
0.2903225806451613
 40
0.2903225806451613
 40
0.2903225806451613
 40
0.2903225806451613
 40
0.3225806451612903
 40
0.3225806451612903
 40
0.3225806451612903
 40
0.3225806451612903
 40
0.3548387096774194
 40
0.3548387096774194
 40
0.3548387096774194
 40
0.3548387096774194
 40
0.3870967741935484
 40
0.3870967741935484
 40
0.3870967741935484
 40
0.3870967741935484
 40
0.4193548387096774
 40
0.4193548387096774
 40
0.4193548387096774
 40
0.4193548387096774
 40
0.4516129032258064
 40
0.4516129032258064
 40
0.4516129032258064
 40
0.4516129032258064
 40
0.4838709677419355
 40
0.4838709677419355
 40
0.4838709677419355
 40
0.4838709677419355
 40
0.5161290322580645
 40
0.5161290322580645
 40
0.5161290322580645
 40
0.5161290322580645
 40
0.5483870967741935
 40
0.5483870967741935
 40
0.5483870967741935
 40
0.5483870967741935
 40
0.5806451612903226
 40
0.5806451612903226
 40
0.5806451612903226
 40
0.5806451612903226
 40
0.6129032258064516
 40
0.6129032258064516
 40
0.6129032258064516
 40
0.6129032258064516
 40
0.6451612903225806
 40
0.6451612903225806
 40
0.6451612903225806
 40
0.6451612903225806
 40
0.6774193548387096
 40
0.6774193548387096
 40
0.6774193548387096
 40
0.6774193548387096
 40
0.7096774193548387
 40
0.7096774193548387
 40
0.7096774193548387
 40
0.7096774193548387
 40
0.7419354838709677
 40
0.7419354838709677
 40
0.7419354838709677
 40
0.7419354838709677
 40
0.7741935483870968
 40
0.7741935483870968
 40
0.7741935483870968
 40
0.7741935483870968
 40
0.8064516129032258
 40
0.8064516129032258
 40
0.8064516129032258
 40
0.8064516129032258
 40
0.8387096774193549
 40
0.8387096774193549
 40
0.8387096774193549
 40
0.8387096774193549
 40
0.8709677419354839
 40
0.8709677419354839
 40
0.8709677419354839
 40
0.8709677419354839
 40
0.9032258064516129
 40
0.9032258064516129
 40
0.9032258064516129
 40
0.9032258064516129
 40
0.9354838709677419
 40
0.9354838709677419
 40
0.9354838709677419
 40
0.9354838709677419
 40
1.0
 40
1.0
 40
1.0
 40
1.0
 10
2.8777
 20
35.6357
 30
0.0
 10
2.8466
 20
35.6357
 30
0.0
 10
2.8098
 20
35.6344
 30
0.0
 10
2.7684
 20
35.6318
 30
0.0
 10
2.7684
 20
35.6318
 30
0.0
 10
2.7263
 20
35.6293
 30
0.0
 10
2.6798
 20
35.6241
 30
0.0
 10
2.6293
 20
35.6163
 30
0.0
 10
2.6293
 20
35.6163
 30
0.0
 10
2.4696
 20
35.5969
 30
0.0
 10
2.3215
 20
35.5555
 30
0.0
 10
2.185
 20
35.4928
 30
0.0
 10
2.185
 20
35.4928
 30
0.0
 10
2.0486
 20
35.4301
 30
0.0
 10
1.9276
 20
35.3473
 30
0.0
 10
1.8222
 20
35.2438
 30
0.0
 10
1.8222
 20
35.2438
 30
0.0
 10
1.7375
 20
35.161
 30
0.0
 10
1.6631
 20
35.0627
 30
0.0
 10
1.5997
 20
34.9489
 30
0.0
 10
1.5997
 20
34.9489
 30
0.0
 10
1.5357
 20
34.8357
 30
0.0
 10
1.4859
 20
34.7083
 30
0.0
 10
1.4497
 20
34.5673
 30
0.0
 10
1.4497
 20
34.5673
 30
0.0
 10
1.4141
 20
34.4263
 30
0.0
 10
1.396
 20
34.2724
 30
0.0
 10
1.3953
 20
34.1068
 30
0.0
 10
1.3953
 20
34.1068
 30
0.0
 10
1.396
 20
33.9425
 30
0.0
 10
1.4173
 20
33.7944
 30
0.0
 10
1.4587
 20
33.6625
 30
0.0
 10
1.4587
 20
33.6625
 30
0.0
 10
1.5008
 20
33.5299
 30
0.0
 10
1.5609
 20
33.4174
 30
0.0
 10
1.6392
 20
33.3236
 30
0.0
 10
1.6392
 20
33.3236
 30
0.0
 10
1.7168
 20
33.2298
 30
0.0
 10
1.8106
 20
33.1574
 30
0.0
 10
1.9192
 20
33.1076
 30
0.0
 10
1.9192
 20
33.1076
 30
0.0
 10
2.0279
 20
33.0578
 30
0.0
 10
2.1494
 20
33.0326
 30
0.0
 10
2.284
 20
33.0319
 30
0.0
 10
2.284
 20
33.0319
 30
0.0
 10
2.4159
 20
33.0332
 30
0.0
 10
2.5343
 20
33.0578
 30
0.0
 10
2.6384
 20
33.1056
 30
0.0
 10
2.6384
 20
33.1056
 30
0.0
 10
2.7419
 20
33.1542
 30
0.0
 10
2.8305
 20
33.2201
 30
0.0
 10
2.9029
 20
33.3035
 30
0.0
 10
2.9029
 20
33.3035
 30
0.0
 10
2.9753
 20
33.387
 30
0.0
 10
3.031
 20
33.4821
 30
0.0
 10
3.0685
 20
33.5888
 30
0.0
 10
3.0685
 20
33.5888
 30
0.0
 10
3.1066
 20
33.6948
 30
0.0
 10
3.126
 20
33.8067
 30
0.0
 10
3.126
 20
33.9244
 30
0.0
 10
3.126
 20
33.9244
 30
0.0
 10
3.1254
 20
34.0473
 30
0.0
 10
3.1066
 20
34.1586
 30
0.0
 10
3.0698
 20
34.2582
 30
0.0
 10
3.0698
 20
34.2582
 30
0.0
 10
3.0329
 20
34.3578
 30
0.0
 10
2.9805
 20
34.4438
 30
0.0
 10
2.9133
 20
34.5156
 30
0.0
 10
2.9133
 20
34.5156
 30
0.0
 10
2.8454
 20
34.5867
 30
0.0
 10
2.7652
 20
34.6423
 30
0.0
 10
2.6727
 20
34.6805
 30
0.0
 10
2.6727
 20
34.6805
 30
0.0
 10
2.5802
 20
34.7193
 30
0.0
 10
2.4773
 20
34.7387
 30
0.0
 10
2.3655
 20
34.7393
 30
0.0
 10
2.3655
 20
34.7393
 30
0.0
 10
2.2723
 20
34.7387
 30
0.0
 10
2.187
 20
34.7251
 30
0.0
 10
2.1093
 20
34.6992
 30
0.0
 10
2.1093
 20
34.6992
 30
0.0
 10
2.0317
 20
34.6727
 30
0.0
 10
1.9625
 20
34.6378
 30
0.0
 10
1.9024
 20
34.5932
 30
0.0
 10
1.9024
 20
34.5932
 30
0.0
 10
1.8429
 20
34.5492
 30
0.0
 10
1.7924
 20
34.4994
 30
0.0
 10
1.7523
 20
34.4444
 30
0.0
 10
1.7523
 20
34.4444
 30
0.0
 10
1.7523
 20
34.4444
 30
0.0
 10
1.7446
 20
34.4444
 30
0.0
 10
1.7446
 20
34.4444
 30
0.0
 10
1.7446
 20
34.4444
 30
0.0
 10
1.7588
 20
34.5498
 30
0.0
 10
1.7873
 20
34.6514
 30
0.0
 10
1.8306
 20
34.749
 30
0.0
 10
1.8306
 20
34.749
 30
0.0
 10
1.8733
 20
34.846
 30
0.0
 10
1.9302
 20
34.9353
 30
0.0
 10
2.0026
 20
35.0161
 30
0.0
 10
2.0026
 20
35.0161
 30
0.0
 10
2.0751
 20
35.0963
 30
0.0
 10
2.1624
 20
35.1649
 30
0.0
 10
2.2652
 20
35.2205
 30
0.0
 10
2.2652
 20
35.2205
 30
0.0
 10
2.368
 20
35.2761
 30
0.0
 10
2.4871
 20
35.3149
 30
0.0
 10
2.6216
 20
35.3369
 30
0.0
 10
2.6216
 20
35.3369
 30
0.0
 10
2.6701
 20
35.3447
 30
0.0
 10
2.7166
 20
35.3505
 30
0.0
 10
2.76
 20
35.3537
 30
0.0
 10
2.76
 20
35.3537
 30
0.0
 10
2.8033
 20
35.3576
 30
0.0
 10
2.8428
 20
35.3583
 30
0.0
 10
2.8777
 20
35.3563
 30
0.0
 10
2.8777
 20
35.3563
 30
0.0
 10
2.8777
 20
35.3563
 30
0.0
 10
2.8777
 20
35.6357
 30
0.0
 10
2.8777
 20
35.6357
 30
0.0
  0
SPLINE
  5
A3
330
1F
100
AcDbEntity
  8
DEFAULT_1
 62
   250
100
AcDbSpline
210
0.0
220
0.0
230
1.0
 70
    11
 71
     3
 72
    64
 73
    60
 74
     0
 42
0.0000000001
 43
0.0000000001
 40
0.0
 40
0.0
 40
0.0
 40
0.0
 40
0.0625
 40
0.0625
 40
0.0625
 40
0.0625
 40
0.125
 40
0.125
 40
0.125
 40
0.125
 40
0.1875
 40
0.1875
 40
0.1875
 40
0.1875
 40
0.25
 40
0.25
 40
0.25
 40
0.25
 40
0.3125
 40
0.3125
 40
0.3125
 40
0.3125
 40
0.375
 40
0.375
 40
0.375
 40
0.375
 40
0.4375
 40
0.4375
 40
0.4375
 40
0.4375
 40
0.5
 40
0.5
 40
0.5
 40
0.5
 40
0.5625
 40
0.5625
 40
0.5625
 40
0.5625
 40
0.625
 40
0.625
 40
0.625
 40
0.625
 40
0.6875
 40
0.6875
 40
0.6875
 40
0.6875
 40
0.75
 40
0.75
 40
0.75
 40
0.75
 40
0.8125
 40
0.8125
 40
0.8125
 40
0.8125
 40
0.875
 40
0.875
 40
0.875
 40
0.875
 40
1.0
 40
1.0
 40
1.0
 40
1.0
 10
2.2917
 20
33.2958
 30
0.0
 10
2.2012
 20
33.2964
 30
0.0
 10
2.1216
 20
33.3145
 30
0.0
 10
2.0524
 20
33.3508
 30
0.0
 10
2.0524
 20
33.3508
 30
0.0
 10
1.9839
 20
33.387
 30
0.0
 10
1.9257
 20
33.4374
 30
0.0
 10
1.8785
 20
33.5027
 30
0.0
 10
1.8785
 20
33.5027
 30
0.0
 10
1.8312
 20
33.5681
 30
0.0
 10
1.7957
 20
33.645
 30
0.0
 10
1.7711
 20
33.733
 30
0.0
 10
1.7711
 20
33.733
 30
0.0
 10
1.7465
 20
33.8209
 30
0.0
 10
1.7342
 20
33.9173
 30
0.0
 10
1.7329
 20
34.0214
 30
0.0
 10
1.7329
 20
34.0214
 30
0.0
 10
1.7329
 20
34.0525
 30
0.0
 10
1.7368
 20
34.0796
 30
0.0
 10
1.7433
 20
34.1042
 30
0.0
 10
1.7433
 20
34.1042
 30
0.0
 10
1.7498
 20
34.1282
 30
0.0
 10
1.7582
 20
34.1495
 30
0.0
 10
1.7679
 20
34.1689
 30
0.0
 10
1.7679
 20
34.1689
 30
0.0
 10
1.7996
 20
34.2316
 30
0.0
 10
1.8403
 20
34.286
 30
0.0
 10
1.8914
 20
34.3325
 30
0.0
 10
1.8914
 20
34.3325
 30
0.0
 10
1.9418
 20
34.3784
 30
0.0
 10
1.9988
 20
34.4147
 30
0.0
 10
2.0621
 20
34.4405
 30
0.0
 10
2.0621
 20
34.4405
 30
0.0
 10
2.1255
 20
34.4658
 30
0.0
 10
2.1915
 20
34.4793
 30
0.0
 10
2.2607
 20
34.4793
 30
0.0
 10
2.2607
 20
34.4793
 30
0.0
 10
2.3661
 20
34.4787
 30
0.0
 10
2.4573
 20
34.4554
 30
0.0
 10
2.5356
 20
34.4095
 30
0.0
 10
2.5356
 20
34.4095
 30
0.0
 10
2.6132
 20
34.3636
 30
0.0
 10
2.6733
 20
34.2976
 30
0.0
 10
2.716
 20
34.2116
 30
0.0
 10
2.716
 20
34.2116
 30
0.0
 10
2.7587
 20
34.1256
 30
0.0
 10
2.78
 20
34.0221
 30
0.0
 10
2.7807
 20
33.9011
 30
0.0
 10
2.7807
 20
33.9011
 30
0.0
 10
2.78
 20
33.7802
 30
0.0
 10
2.7593
 20
33.6741
 30
0.0
 10
2.7186
 20
33.5836
 30
0.0
 10
2.7186
 20
33.5836
 30
0.0
 10
2.6778
 20
33.493
 30
0.0
 10
2.6209
 20
33.4232
 30
0.0
 10
2.5478
 20
33.3728
 30
0.0
 10
2.5478
 20
33.3728
 30
0.0
 10
2.4748
 20
33.3223
 30
0.0
 10
2.3894
 20
33.2964
 30
0.0
 10
2.2917
 20
33.2958
 30
0.0
  0
SPLINE
  5
A4
330
1F
100
AcDbEntity
  8
DEFAULT_1
 62
   250
100
AcDbSpline
210
0.0
220
0.0
230
1.0
 70
    11
 71
     3
 72
    48
 73
    44
 74
     0
 42
0.0000000001
 43
0.0000000001
 40
0.0
 40
0.0
 40
0.0
 40
0.0
 40
0.0833333333333333
 40
0.0833333333333333
 40
0.0833333333333333
 40
0.0833333333333333
 40
0.1666666666666667
 40
0.1666666666666667
 40
0.1666666666666667
 40
0.1666666666666667
 40
0.25
 40
0.25
 40
0.25
 40
0.25
 40
0.3333333333333333
 40
0.3333333333333333
 40
0.3333333333333333
 40
0.3333333333333333
 40
0.4166666666666667
 40
0.4166666666666667
 40
0.4166666666666667
 40
0.4166666666666667
 40
0.5
 40
0.5
 40
0.5
 40
0.5
 40
0.5833333333333334
 40
0.5833333333333334
 40
0.5833333333333334
 40
0.5833333333333334
 40
0.6666666666666666
 40
0.6666666666666666
 40
0.6666666666666666
 40
0.6666666666666666
 40
0.75
 40
0.75
 40
0.75
 40
0.75
 40
0.8333333333333334
 40
0.8333333333333334
 40
0.8333333333333334
 40
0.8333333333333334
 40
1.0
 40
1.0
 40
1.0
 40
1.0
 10
4.8063
 20
33.0746
 30
0.0
 10
4.8063
 20
33.0746
 30
0.0
 10
4.8063
 20
33.7653
 30
0.0
 10
4.8063
 20
33.7653
 30
0.0
 10
4.8063
 20
33.7653
 30
0.0
 10
4.8063
 20
33.7653
 30
0.0
 10
5.1594
 20
33.7653
 30
0.0
 10
5.1594
 20
33.7653
 30
0.0
 10
5.1594
 20
33.7653
 30
0.0
 10
5.1594
 20
33.7653
 30
0.0
 10
5.1594
 20
34.0292
 30
0.0
 10
5.1594
 20
34.0292
 30
0.0
 10
5.1594
 20
34.0292
 30
0.0
 10
5.1594
 20
34.0292
 30
0.0
 10
4.8063
 20
34.0292
 30
0.0
 10
4.8063
 20
34.0292
 30
0.0
 10
4.8063
 20
34.0292
 30
0.0
 10
4.8063
 20
34.0292
 30
0.0
 10
4.8063
 20
35.5969
 30
0.0
 10
4.8063
 20
35.5969
 30
0.0
 10
4.8063
 20
35.5969
 30
0.0
 10
4.8063
 20
35.5969
 30
0.0
 10
4.4377
 20
35.5969
 30
0.0
 10
4.4377
 20
35.5969
 30
0.0
 10
4.4377
 20
35.5969
 30
0.0
 10
4.4377
 20
35.5969
 30
0.0
 10
3.3123
 20
33.9865
 30
0.0
 10
3.3123
 20
33.9865
 30
0.0
 10
3.3123
 20
33.9865
 30
0.0
 10
3.3123
 20
33.9865
 30
0.0
 10
3.3123
 20
33.7653
 30
0.0
 10
3.3123
 20
33.7653
 30
0.0
 10
3.3123
 20
33.7653
 30
0.0
 10
3.3123
 20
33.7653
 30
0.0
 10
4.4842
 20
33.7653
 30
0.0
 10
4.4842
 20
33.7653
 30
0.0
 10
4.4842
 20
33.7653
 30
0.0
 10
4.4842
 20
33.7653
 30
0.0
 10
4.4842
 20
33.0746
 30
0.0
 10
4.4842
 20
33.0746
 30
0.0
 10
4.4842
 20
33.0746
 30
0.0
 10
4.4842
 20
33.0746
 30
0.0
 10
4.8063
 20
33.0746
 30
0.0
 10
4.8063
 20
33.0746
 30
0.0
  0
SPLINE
  5
A5
330
1F
100
AcDbEntity
  8
DEFAULT_1
 62
   250
100
AcDbSpline
210
0.0
220
0.0
230
1.0
 70
    11
 71
     3
 72
    36
 73
    32
 74
     0
 42
0.0000000001
 43
0.0000000001
 40
0.0
 40
0.0
 40
0.0
 40
0.0
 40
0.1111111111111111
 40
0.1111111111111111
 40
0.1111111111111111
 40
0.1111111111111111
 40
0.2222222222222222
 40
0.2222222222222222
 40
0.2222222222222222
 40
0.2222222222222222
 40
0.3333333333333333
 40
0.3333333333333333
 40
0.3333333333333333
 40
0.3333333333333333
 40
0.4444444444444444
 40
0.4444444444444444
 40
0.4444444444444444
 40
0.4444444444444444
 40
0.5555555555555556
 40
0.5555555555555556
 40
0.5555555555555556
 40
0.5555555555555556
 40
0.6666666666666666
 40
0.6666666666666666
 40
0.6666666666666666
 40
0.6666666666666666
 40
0.7777777777777778
 40
0.7777777777777778
 40
0.7777777777777778
 40
0.7777777777777778
 40
1.0
 40
1.0
 40
1.0
 40
1.0
 10
3.6577
 20
34.0292
 30
0.0
 10
3.6577
 20
34.0292
 30
0.0
 10
3.6577
 20
34.037
 30
0.0
 10
3.6577
 20
34.037
 30
0.0
 10
3.6577
 20
34.037
 30
0.0
 10
3.6577
 20
34.037
 30
0.0
 10
4.2747
 20
34.8946
 30
0.0
 10
4.2747
 20
34.8946
 30
0.0
 10
4.2747
 20
34.8946
 30
0.0
 10
4.3089
 20
34.9521
 30
0.0
 10
4.3432
 20
35.0103
 30
0.0
 10
4.3769
 20
35.0692
 30
0.0
 10
4.3769
 20
35.0692
 30
0.0
 10
4.4098
 20
35.1287
 30
0.0
 10
4.4461
 20
35.1946
 30
0.0
 10
4.4842
 20
35.2671
 30
0.0
 10
4.4842
 20
35.2671
 30
0.0
 10
4.4842
 20
35.2671
 30
0.0
 10
4.4959
 20
35.2671
 30
0.0
 10
4.4959
 20
35.2671
 30
0.0
 10
4.4959
 20
35.2671
 30
0.0
 10
4.4881
 20
35.1351
 30
0.0
 10
4.4842
 20
35.0032
 30
0.0
 10
4.4842
 20
34.8713
 30
0.0
 10
4.4842
 20
34.8713
 30
0.0
 10
4.4842
 20
34.8713
 30
0.0
 10
4.4842
 20
34.0292
 30
0.0
 10
4.4842
 20
34.0292
 30
0.0
 10
4.4842
 20
34.0292
 30
0.0
 10
4.4842
 20
34.0292
 30
0.0
 10
3.6577
 20
34.0292
 30
0.0
 10
3.6577
 20
34.0292
 30
0.0
  0
SPLINE
  5
A6
330
1F
100
AcDbEntity
  8
DEFAULT_1
 62
   250
100
AcDbSpline
210
0.0
220
0.0
230
1.0
 70
    11
 71
     3
 72
   104
 73
   100
 74
     0
 42
0.0000000001
 43
0.0000000001
 40
0.0
 40
0.0
 40
0.0
 40
0.0
 40
0.0384615384615385
 40
0.0384615384615385
 40
0.0384615384615385
 40
0.0384615384615385
 40
0.0769230769230769
 40
0.0769230769230769
 40
0.0769230769230769
 40
0.0769230769230769
 40
0.1153846153846154
 40
0.1153846153846154
 40
0.1153846153846154
 40
0.1153846153846154
 40
0.1538461538461539
 40
0.1538461538461539
 40
0.1538461538461539
 40
0.1538461538461539
 40
0.1923076923076923
 40
0.1923076923076923
 40
0.1923076923076923
 40
0.1923076923076923
 40
0.2307692307692308
 40
0.2307692307692308
 40
0.2307692307692308
 40
0.2307692307692308
 40
0.2692307692307692
 40
0.2692307692307692
 40
0.2692307692307692
 40
0.2692307692307692
 40
0.3076923076923077
 40
0.3076923076923077
 40
0.3076923076923077
 40
0.3076923076923077
 40
0.3461538461538461
 40
0.3461538461538461
 40
0.3461538461538461
 40
0.3461538461538461
 40
0.3846153846153846
 40
0.3846153846153846
 40
0.3846153846153846
 40
0.3846153846153846
 40
0.4230769230769231
 40
0.4230769230769231
 40
0.4230769230769231
 40
0.4230769230769231
 40
0.4615384615384616
 40
0.4615384615384616
 40
0.4615384615384616
 40
0.4615384615384616
 40
0.5
 40
0.5
 40
0.5
 40
0.5
 40
0.5384615384615384
 40
0.5384615384615384
 40
0.5384615384615384
 40
0.5384615384615384
 40
0.5769230769230769
 40
0.5769230769230769
 40
0.5769230769230769
 40
0.5769230769230769
 40
0.6153846153846154
 40
0.6153846153846154
 40
0.6153846153846154
 40
0.6153846153846154
 40
0.6538461538461539
 40
0.6538461538461539
 40
0.6538461538461539
 40
0.6538461538461539
 40
0.6923076923076923
 40
0.6923076923076923
 40
0.6923076923076923
 40
0.6923076923076923
 40
0.7307692307692307
 40
0.7307692307692307
 40
0.7307692307692307
 40
0.7307692307692307
 40
0.7692307692307693
 40
0.7692307692307693
 40
0.7692307692307693
 40
0.7692307692307693
 40
0.8076923076923077
 40
0.8076923076923077
 40
0.8076923076923077
 40
0.8076923076923077
 40
0.8461538461538461
 40
0.8461538461538461
 40
0.8461538461538461
 40
0.8461538461538461
 40
0.8846153846153846
 40
0.8846153846153846
 40
0.8846153846153846
 40
0.8846153846153846
 40
0.9230769230769231
 40
0.9230769230769231
 40
0.9230769230769231
 40
0.9230769230769231
 40
1.0
 40
1.0
 40
1.0
 40
1.0
 10
-0.6059
 20
-34.558
 30
0.0
 10
-0.6059
 20
-34.558
 30
0.0
 10
-0.3614
 20
-34.2242
 30
0.0
 10
-0.3614
 20
-34.2242
 30
0.0
 10
-0.3614
 20
-34.2242
 30
0.0
 10
-0.2676
 20
-34.2921
 30
0.0
 10
-0.1648
 20
-34.3445
 30
0.0
 10
-0.0536
 20
-34.3801
 30
0.0
 10
-0.0536
 20
-34.3801
 30
0.0
 10
0.0583
 20
-34.4157
 30
0.0
 10
0.1754
 20
-34.4338
 30
0.0
 10
0.2983
 20
-34.4338
 30
0.0
 10
0.2983
 20
-34.4338
 30
0.0
 10
0.4244
 20
-34.4338
 30
0.0
 10
0.5466
 20
-34.415
 30
0.0
 10
0.6637
 20
-34.3782
 30
0.0
 10
0.6637
 20
-34.3782
 30
0.0
 10
0.7807
 20
-34.3413
 30
0.0
 10
0.8894
 20
-34.2863
 30
0.0
 10
0.989
 20
-34.2126
 30
0.0
 10
0.989
 20
-34.2126
 30
0.0
 10
1.0892
 20
-34.1395
 30
0.0
 10
1.1766
 20
-34.0477
 30
0.0
 10
1.2516
 20
-33.9377
 30
0.0
 10
1.2516
 20
-33.9377
 30
0.0
 10
1.326
 20
-33.8278
 30
0.0
 10
1.3842
 20
-33.6997
 30
0.0
 10
1.4262
 20
-33.5529
 30
0.0
 10
1.4262
 20
-33.5529
 30
0.0
 10
1.4676
 20
-33.4067
 30
0.0
 10
1.4889
 20
-33.2425
 30
0.0
 10
1.4896
 20
-33.0601
 30
0.0
 10
1.4896
 20
-33.0601
 30
0.0
 10
1.4896
 20
-32.9314
 30
0.0
 10
1.4767
 20
-32.8091
 30
0.0
 10
1.4501
 20
-32.6927
 30
0.0
 10
1.4501
 20
-32.6927
 30
0.0
 10
1.4243
 20
-32.5757
 30
0.0
 10
1.3861
 20
-32.467
 30
0.0
 10
1.3363
 20
-32.3668
 30
0.0
 10
1.3363
 20
-32.3668
 30
0.0
 10
1.2859
 20
-32.2665
 30
0.0
 10
1.2244
 20
-32.1773
 30
0.0
 10
1.152
 20
-32.0977
 30
0.0
 10
1.152
 20
-32.0977
 30
0.0
 10
1.152
 20
-32.0977
 30
0.0
 10
1.3926
 20
-31.764
 30
0.0
 10
1.3926
 20
-31.764
 30
0.0
 10
1.3926
 20
-31.764
 30
0.0
 10
1.3926
 20
-31.764
 30
0.0
 10
1.1869
 20
-31.6243
 30
0.0
 10
1.1869
 20
-31.6243
 30
0.0
 10
1.1869
 20
-31.6243
 30
0.0
 10
1.1869
 20
-31.6243
 30
0.0
 10
0.958
 20
-31.9386
 30
0.0
 10
0.958
 20
-31.9386
 30
0.0
 10
0.958
 20
-31.9386
 30
0.0
 10
0.8642
 20
-31.8688
 30
0.0
 10
0.7626
 20
-31.8164
 30
0.0
 10
0.6527
 20
-31.7815
 30
0.0
 10
0.6527
 20
-31.7815
 30
0.0
 10
0.5421
 20
-31.7465
 30
0.0
 10
0.427
 20
-31.7291
 30
0.0
 10
0.306
 20
-31.7291
 30
0.0
 10
0.306
 20
-31.7291
 30
0.0
 10
0.1334
 20
-31.7297
 30
0.0
 10
-0.0257
 20
-31.7621
 30
0.0
 10
-0.1726
 20
-31.8261
 30
0.0
 10
-0.1726
 20
-31.8261
 30
0.0
 10
-0.3187
 20
-31.8901
 30
0.0
 10
-0.4461
 20
-31.9826
 30
0.0
 10
-0.5548
 20
-32.1023
 30
0.0
 10
-0.5548
 20
-32.1023
 30
0.0
 10
-0.6641
 20
-32.2219
 30
0.0
 10
-0.7482
 20
-32.3655
 30
0.0
 10
-0.809
 20
-32.533
 30
0.0
 10
-0.809
 20
-32.533
 30
0.0
 10
-0.8691
 20
-32.7005
 30
0.0
 10
-0.9002
 20
-32.8874
 30
0.0
 10
-0.9008
 20
-33.095
 30
0.0
 10
-0.9008
 20
-33.095
 30
0.0
 10
-0.9008
 20
-33.2257
 30
0.0
 10
-0.8866
 20
-33.3505
 30
0.0
 10
-0.8594
 20
-33.4682
 30
0.0
 10
-0.8594
 20
-33.4682
 30
0.0
 10
-0.8322
 20
-33.5859
 30
0.0
 10
-0.7928
 20
-33.6952
 30
0.0
 10
-0.7417
 20
-33.7954
 30
0.0
 10
-0.7417
 20
-33.7954
 30
0.0
 10
-0.69
 20
-33.8957
 30
0.0
 10
-0.6279
 20
-33.9856
 30
0.0
 10
-0.5554
 20
-34.0651
 30
0.0
 10
-0.5554
 20
-34.0651
 30
0.0
 10
-0.5554
 20
-34.0651
 30
0.0
 10
-0.796
 20
-34.4027
 30
0.0
 10
-0.796
 20
-34.4027
 30
0.0
 10
-0.796
 20
-34.4027
 30
0.0
 10
-0.796
 20
-34.4027
 30
0.0
 10
-0.6059
 20
-34.558
 30
0.0
 10
-0.6059
 20
-34.558
 30
0.0
  0
SPLINE
  5
A7
330
1F
100
AcDbEntity
  8
DEFAULT_1
 62
   250
100
AcDbSpline
210
0.0
220
0.0
230
1.0
 70
    11
 71
     3
 72
    52
 73
    48
 74
     0
 42
0.0000000001
 43
0.0000000001
 40
0.0
 40
0.0
 40
0.0
 40
0.0
 40
0.0769230769230769
 40
0.0769230769230769
 40
0.0769230769230769
 40
0.0769230769230769
 40
0.1538461538461539
 40
0.1538461538461539
 40
0.1538461538461539
 40
0.1538461538461539
 40
0.2307692307692308
 40
0.2307692307692308
 40
0.2307692307692308
 40
0.2307692307692308
 40
0.3076923076923077
 40
0.3076923076923077
 40
0.3076923076923077
 40
0.3076923076923077
 40
0.3846153846153846
 40
0.3846153846153846
 40
0.3846153846153846
 40
0.3846153846153846
 40
0.4615384615384616
 40
0.4615384615384616
 40
0.4615384615384616
 40
0.4615384615384616
 40
0.5384615384615384
 40
0.5384615384615384
 40
0.5384615384615384
 40
0.5384615384615384
 40
0.6153846153846154
 40
0.6153846153846154
 40
0.6153846153846154
 40
0.6153846153846154
 40
0.6923076923076923
 40
0.6923076923076923
 40
0.6923076923076923
 40
0.6923076923076923
 40
0.7692307692307693
 40
0.7692307692307693
 40
0.7692307692307693
 40
0.7692307692307693
 40
0.8461538461538461
 40
0.8461538461538461
 40
0.8461538461538461
 40
0.8461538461538461
 40
1.0
 40
1.0
 40
1.0
 40
1.0
 10
-0.3575
 20
-33.778
 30
0.0
 10
-0.3575
 20
-33.778
 30
0.0
 10
-0.3653
 20
-33.7819
 30
0.0
 10
-0.3653
 20
-33.7819
 30
0.0
 10
-0.3653
 20
-33.7819
 30
0.0
 10
-0.4041
 20
-33.7152
 30
0.0
 10
-0.4377
 20
-33.646
 30
0.0
 10
-0.4662
 20
-33.5749
 30
0.0
 10
-0.4662
 20
-33.5749
 30
0.0
 10
-0.4946
 20
-33.5031
 30
0.0
 10
-0.5166
 20
-33.4274
 30
0.0
 10
-0.5322
 20
-33.346
 30
0.0
 10
-0.5322
 20
-33.346
 30
0.0
 10
-0.5477
 20
-33.2651
 30
0.0
 10
-0.5554
 20
-33.1759
 30
0.0
 10
-0.5554
 20
-33.0795
 30
0.0
 10
-0.5554
 20
-33.0795
 30
0.0
 10
-0.5554
 20
-32.9682
 30
0.0
 10
-0.5438
 20
-32.8609
 30
0.0
 10
-0.5212
 20
-32.7555
 30
0.0
 10
-0.5212
 20
-32.7555
 30
0.0
 10
-0.4979
 20
-32.6507
 30
0.0
 10
-0.4636
 20
-32.5524
 30
0.0
 10
-0.4183
 20
-32.4618
 30
0.0
 10
-0.4183
 20
-32.4618
 30
0.0
 10
-0.3724
 20
-32.3707
 30
0.0
 10
-0.3155
 20
-32.2905
 30
0.0
 10
-0.2469
 20
-32.2219
 30
0.0
 10
-0.2469
 20
-32.2219
 30
0.0
 10
-0.1784
 20
-32.1527
 30
0.0
 10
-0.0988
 20
-32.099
 30
0.0
 10
-0.0083
 20
-32.0602
 30
0.0
 10
-0.0083
 20
-32.0602
 30
0.0
 10
0.0829
 20
-32.0208
 30
0.0
 10
0.1851
 20
-32.0014
 30
0.0
 10
0.2983
 20
-32.0007
 30
0.0
 10
0.2983
 20
-32.0007
 30
0.0
 10
0.3972
 20
-32.0014
 30
0.0
 10
0.4878
 20
-32.0175
 30
0.0
 10
0.5693
 20
-32.0499
 30
0.0
 10
0.5693
 20
-32.0499
 30
0.0
 10
0.6514
 20
-32.0816
 30
0.0
 10
0.7251
 20
-32.1262
 30
0.0
 10
0.7911
 20
-32.1831
 30
0.0
 10
0.7911
 20
-32.1831
 30
0.0
 10
0.7911
 20
-32.1831
 30
0.0
 10
-0.3575
 20
-33.778
 30
0.0
 10
-0.3575
 20
-33.778
 30
0.0
  0
SPLINE
  5
A8
330
1F
100
AcDbEntity
  8
DEFAULT_1
 62
   250
100
AcDbSpline
210
0.0
220
0.0
230
1.0
 70
    11
 71
     3
 72
    48
 73
    44
 74
     0
 42
0.0000000001
 43
0.0000000001
 40
0.0
 40
0.0
 40
0.0
 40
0.0
 40
0.0833333333333333
 40
0.0833333333333333
 40
0.0833333333333333
 40
0.0833333333333333
 40
0.1666666666666667
 40
0.1666666666666667
 40
0.1666666666666667
 40
0.1666666666666667
 40
0.25
 40
0.25
 40
0.25
 40
0.25
 40
0.3333333333333333
 40
0.3333333333333333
 40
0.3333333333333333
 40
0.3333333333333333
 40
0.4166666666666667
 40
0.4166666666666667
 40
0.4166666666666667
 40
0.4166666666666667
 40
0.5
 40
0.5
 40
0.5
 40
0.5
 40
0.5833333333333334
 40
0.5833333333333334
 40
0.5833333333333334
 40
0.5833333333333334
 40
0.6666666666666666
 40
0.6666666666666666
 40
0.6666666666666666
 40
0.6666666666666666
 40
0.75
 40
0.75
 40
0.75
 40
0.75
 40
0.8333333333333334
 40
0.8333333333333334
 40
0.8333333333333334
 40
0.8333333333333334
 40
1.0
 40
1.0
 40
1.0
 40
1.0
 10
0.9502
 20
-32.3888
 30
0.0
 10
0.9502
 20
-32.3888
 30
0.0
 10
0.9618
 20
-32.3888
 30
0.0
 10
0.9618
 20
-32.3888
 30
0.0
 10
0.9618
 20
-32.3888
 30
0.0
 10
1.0291
 20
-32.5013
 30
0.0
 10
1.0763
 20
-32.6151
 30
0.0
 10
1.1041
 20
-32.7302
 30
0.0
 10
1.1041
 20
-32.7302
 30
0.0
 10
1.1319
 20
-32.8447
 30
0.0
 10
1.1455
 20
-32.9585
 30
0.0
 10
1.1442
 20
-33.0717
 30
0.0
 10
1.1442
 20
-33.0717
 30
0.0
 10
1.1442
 20
-33.1894
 30
0.0
 10
1.1319
 20
-33.302
 30
0.0
 10
1.108
 20
-33.41
 30
0.0
 10
1.108
 20
-33.41
 30
0.0
 10
1.0841
 20
-33.518
 30
0.0
 10
1.0485
 20
-33.6176
 30
0.0
 10
1.0019
 20
-33.7088
 30
0.0
 10
1.0019
 20
-33.7088
 30
0.0
 10
0.9547
 20
-33.8
 30
0.0
 10
0.8972
 20
-33.8795
 30
0.0
 10
0.8286
 20
-33.9468
 30
0.0
 10
0.8286
 20
-33.9468
 30
0.0
 10
0.7594
 20
-34.0147
 30
0.0
 10
0.6805
 20
-34.0677
 30
0.0
 10
0.5913
 20
-34.1052
 30
0.0
 10
0.5913
 20
-34.1052
 30
0.0
 10
0.502
 20
-34.1427
 30
0.0
 10
0.403
 20
-34.1615
 30
0.0
 10
0.2944
 20
-34.1622
 30
0.0
 10
0.2944
 20
-34.1622
 30
0.0
 10
0.189
 20
-34.1622
 30
0.0
 10
0.0965
 20
-34.146
 30
0.0
 10
0.0182
 20
-34.1143
 30
0.0
 10
0.0182
 20
-34.1143
 30
0.0
 10
-0.0607
 20
-34.0826
 30
0.0
 10
-0.1312
 20
-34.036
 30
0.0
 10
-0.1946
 20
-33.9759
 30
0.0
 10
-0.1946
 20
-33.9759
 30
0.0
 10
-0.1946
 20
-33.9759
 30
0.0
 10
0.9502
 20
-32.3888
 30
0.0
 10
0.9502
 20
-32.3888
 30
0.0
  0
SPLINE
  5
A9
330
1F
100
AcDbEntity
  8
DEFAULT_1
 62
   250
100
AcDbSpline
210
0.0
220
0.0
230
1.0
 70
    11
 71
     3
 72
    48
 73
    44
 74
     0
 42
0.0000000001
 43
0.0000000001
 40
0.0
 40
0.0
 40
0.0
 40
0.0
 40
0.0833333333333333
 40
0.0833333333333333
 40
0.0833333333333333
 40
0.0833333333333333
 40
0.1666666666666667
 40
0.1666666666666667
 40
0.1666666666666667
 40
0.1666666666666667
 40
0.25
 40
0.25
 40
0.25
 40
0.25
 40
0.3333333333333333
 40
0.3333333333333333
 40
0.3333333333333333
 40
0.3333333333333333
 40
0.4166666666666667
 40
0.4166666666666667
 40
0.4166666666666667
 40
0.4166666666666667
 40
0.5
 40
0.5
 40
0.5
 40
0.5
 40
0.5833333333333334
 40
0.5833333333333334
 40
0.5833333333333334
 40
0.5833333333333334
 40
0.6666666666666666
 40
0.6666666666666666
 40
0.6666666666666666
 40
0.6666666666666666
 40
0.75
 40
0.75
 40
0.75
 40
0.75
 40
0.8333333333333334
 40
0.8333333333333334
 40
0.8333333333333334
 40
0.8333333333333334
 40
1.0
 40
1.0
 40
1.0
 40
1.0
 10
3.1854
 20
-34.3911
 30
0.0
 10
3.1854
 20
-34.3911
 30
0.0
 10
3.1854
 20
-33.7004
 30
0.0
 10
3.1854
 20
-33.7004
 30
0.0
 10
3.1854
 20
-33.7004
 30
0.0
 10
3.1854
 20
-33.7004
 30
0.0
 10
3.5385
 20
-33.7004
 30
0.0
 10
3.5385
 20
-33.7004
 30
0.0
 10
3.5385
 20
-33.7004
 30
0.0
 10
3.5385
 20
-33.7004
 30
0.0
 10
3.5385
 20
-33.4365
 30
0.0
 10
3.5385
 20
-33.4365
 30
0.0
 10
3.5385
 20
-33.4365
 30
0.0
 10
3.5385
 20
-33.4365
 30
0.0
 10
3.1854
 20
-33.4365
 30
0.0
 10
3.1854
 20
-33.4365
 30
0.0
 10
3.1854
 20
-33.4365
 30
0.0
 10
3.1854
 20
-33.4365
 30
0.0
 10
3.1854
 20
-31.8688
 30
0.0
 10
3.1854
 20
-31.8688
 30
0.0
 10
3.1854
 20
-31.8688
 30
0.0
 10
3.1854
 20
-31.8688
 30
0.0
 10
2.8168
 20
-31.8688
 30
0.0
 10
2.8168
 20
-31.8688
 30
0.0
 10
2.8168
 20
-31.8688
 30
0.0
 10
2.8168
 20
-31.8688
 30
0.0
 10
1.6914
 20
-33.4792
 30
0.0
 10
1.6914
 20
-33.4792
 30
0.0
 10
1.6914
 20
-33.4792
 30
0.0
 10
1.6914
 20
-33.4792
 30
0.0
 10
1.6914
 20
-33.7004
 30
0.0
 10
1.6914
 20
-33.7004
 30
0.0
 10
1.6914
 20
-33.7004
 30
0.0
 10
1.6914
 20
-33.7004
 30
0.0
 10
2.8633
 20
-33.7004
 30
0.0
 10
2.8633
 20
-33.7004
 30
0.0
 10
2.8633
 20
-33.7004
 30
0.0
 10
2.8633
 20
-33.7004
 30
0.0
 10
2.8633
 20
-34.3911
 30
0.0
 10
2.8633
 20
-34.3911
 30
0.0
 10
2.8633
 20
-34.3911
 30
0.0
 10
2.8633
 20
-34.3911
 30
0.0
 10
3.1854
 20
-34.3911
 30
0.0
 10
3.1854
 20
-34.3911
 30
0.0
  0
SPLINE
  5
AA
330
1F
100
AcDbEntity
  8
DEFAULT_1
 62
   250
100
AcDbSpline
210
0.0
220
0.0
230
1.0
 70
    11
 71
     3
 72
    36
 73
    32
 74
     0
 42
0.0000000001
 43
0.0000000001
 40
0.0
 40
0.0
 40
0.0
 40
0.0
 40
0.1111111111111111
 40
0.1111111111111111
 40
0.1111111111111111
 40
0.1111111111111111
 40
0.2222222222222222
 40
0.2222222222222222
 40
0.2222222222222222
 40
0.2222222222222222
 40
0.3333333333333333
 40
0.3333333333333333
 40
0.3333333333333333
 40
0.3333333333333333
 40
0.4444444444444444
 40
0.4444444444444444
 40
0.4444444444444444
 40
0.4444444444444444
 40
0.5555555555555556
 40
0.5555555555555556
 40
0.5555555555555556
 40
0.5555555555555556
 40
0.6666666666666666
 40
0.6666666666666666
 40
0.6666666666666666
 40
0.6666666666666666
 40
0.7777777777777778
 40
0.7777777777777778
 40
0.7777777777777778
 40
0.7777777777777778
 40
1.0
 40
1.0
 40
1.0
 40
1.0
 10
2.0368
 20
-33.4365
 30
0.0
 10
2.0368
 20
-33.4365
 30
0.0
 10
2.0368
 20
-33.4287
 30
0.0
 10
2.0368
 20
-33.4287
 30
0.0
 10
2.0368
 20
-33.4287
 30
0.0
 10
2.0368
 20
-33.4287
 30
0.0
 10
2.6538
 20
-32.5711
 30
0.0
 10
2.6538
 20
-32.5711
 30
0.0
 10
2.6538
 20
-32.5711
 30
0.0
 10
2.688
 20
-32.5136
 30
0.0
 10
2.7223
 20
-32.4554
 30
0.0
 10
2.756
 20
-32.3965
 30
0.0
 10
2.756
 20
-32.3965
 30
0.0
 10
2.7889
 20
-32.337
 30
0.0
 10
2.8252
 20
-32.2711
 30
0.0
 10
2.8633
 20
-32.1986
 30
0.0
 10
2.8633
 20
-32.1986
 30
0.0
 10
2.8633
 20
-32.1986
 30
0.0
 10
2.875
 20
-32.1986
 30
0.0
 10
2.875
 20
-32.1986
 30
0.0
 10
2.875
 20
-32.1986
 30
0.0
 10
2.8672
 20
-32.3306
 30
0.0
 10
2.8633
 20
-32.4625
 30
0.0
 10
2.8633
 20
-32.5944
 30
0.0
 10
2.8633
 20
-32.5944
 30
0.0
 10
2.8633
 20
-32.5944
 30
0.0
 10
2.8633
 20
-33.4365
 30
0.0
 10
2.8633
 20
-33.4365
 30
0.0
 10
2.8633
 20
-33.4365
 30
0.0
 10
2.8633
 20
-33.4365
 30
0.0
 10
2.0368
 20
-33.4365
 30
0.0
 10
2.0368
 20
-33.4365
 30
0.0
  0
SPLINE
  5
AB
330
1F
100
AcDbEntity
  8
DEFAULT_1
 62
   250
100
AcDbSpline
210
0.0
220
0.0
230
1.0
 70
    11
 71
     3
 72
   196
 73
   192
 74
     0
 42
0.0000000001
 43
0.0000000001
 40
0.0
 40
0.0
 40
0.0
 40
0.0
 40
0.0204081632653061
 40
0.0204081632653061
 40
0.0204081632653061
 40
0.0204081632653061
 40
0.0408163265306122
 40
0.0408163265306122
 40
0.0408163265306122
 40
0.0408163265306122
 40
0.0612244897959184
 40
0.0612244897959184
 40
0.0612244897959184
 40
0.0612244897959184
 40
0.0816326530612245
 40
0.0816326530612245
 40
0.0816326530612245
 40
0.0816326530612245
 40
0.1020408163265306
 40
0.1020408163265306
 40
0.1020408163265306
 40
0.1020408163265306
 40
0.1224489795918367
 40
0.1224489795918367
 40
0.1224489795918367
 40
0.1224489795918367
 40
0.1428571428571428
 40
0.1428571428571428
 40
0.1428571428571428
 40
0.1428571428571428
 40
0.163265306122449
 40
0.163265306122449
 40
0.163265306122449
 40
0.163265306122449
 40
0.1836734693877551
 40
0.1836734693877551
 40
0.1836734693877551
 40
0.1836734693877551
 40
0.2040816326530612
 40
0.2040816326530612
 40
0.2040816326530612
 40
0.2040816326530612
 40
0.2244897959183673
 40
0.2244897959183673
 40
0.2244897959183673
 40
0.2244897959183673
 40
0.2448979591836735
 40
0.2448979591836735
 40
0.2448979591836735
 40
0.2448979591836735
 40
0.2653061224489796
 40
0.2653061224489796
 40
0.2653061224489796
 40
0.2653061224489796
 40
0.2857142857142857
 40
0.2857142857142857
 40
0.2857142857142857
 40
0.2857142857142857
 40
0.3061224489795918
 40
0.3061224489795918
 40
0.3061224489795918
 40
0.3061224489795918
 40
0.3265306122448979
 40
0.3265306122448979
 40
0.3265306122448979
 40
0.3265306122448979
 40
0.3469387755102041
 40
0.3469387755102041
 40
0.3469387755102041
 40
0.3469387755102041
 40
0.3673469387755102
 40
0.3673469387755102
 40
0.3673469387755102
 40
0.3673469387755102
 40
0.3877551020408163
 40
0.3877551020408163
 40
0.3877551020408163
 40
0.3877551020408163
 40
0.4081632653061225
 40
0.4081632653061225
 40
0.4081632653061225
 40
0.4081632653061225
 40
0.4285714285714285
 40
0.4285714285714285
 40
0.4285714285714285
 40
0.4285714285714285
 40
0.4489795918367347
 40
0.4489795918367347
 40
0.4489795918367347
 40
0.4489795918367347
 40
0.4693877551020408
 40
0.4693877551020408
 40
0.4693877551020408
 40
0.4693877551020408
 40
0.4897959183673469
 40
0.4897959183673469
 40
0.4897959183673469
 40
0.4897959183673469
 40
0.5102040816326531
 40
0.5102040816326531
 40
0.5102040816326531
 40
0.5102040816326531
 40
0.5306122448979592
 40
0.5306122448979592
 40
0.5306122448979592
 40
0.5306122448979592
 40
0.5510204081632653
 40
0.5510204081632653
 40
0.5510204081632653
 40
0.5510204081632653
 40
0.5714285714285714
 40
0.5714285714285714
 40
0.5714285714285714
 40
0.5714285714285714
 40
0.5918367346938775
 40
0.5918367346938775
 40
0.5918367346938775
 40
0.5918367346938775
 40
0.6122448979591837
 40
0.6122448979591837
 40
0.6122448979591837
 40
0.6122448979591837
 40
0.6326530612244898
 40
0.6326530612244898
 40
0.6326530612244898
 40
0.6326530612244898
 40
0.6530612244897959
 40
0.6530612244897959
 40
0.6530612244897959
 40
0.6530612244897959
 40
0.673469387755102
 40
0.673469387755102
 40
0.673469387755102
 40
0.673469387755102
 40
0.6938775510204082
 40
0.6938775510204082
 40
0.6938775510204082
 40
0.6938775510204082
 40
0.7142857142857143
 40
0.7142857142857143
 40
0.7142857142857143
 40
0.7142857142857143
 40
0.7346938775510204
 40
0.7346938775510204
 40
0.7346938775510204
 40
0.7346938775510204
 40
0.7551020408163265
 40
0.7551020408163265
 40
0.7551020408163265
 40
0.7551020408163265
 40
0.7755102040816326
 40
0.7755102040816326
 40
0.7755102040816326
 40
0.7755102040816326
 40
0.7959183673469388
 40
0.7959183673469388
 40
0.7959183673469388
 40
0.7959183673469388
 40
0.8163265306122449
 40
0.8163265306122449
 40
0.8163265306122449
 40
0.8163265306122449
 40
0.8367346938775511
 40
0.8367346938775511
 40
0.8367346938775511
 40
0.8367346938775511
 40
0.8571428571428571
 40
0.8571428571428571
 40
0.8571428571428571
 40
0.8571428571428571
 40
0.8775510204081632
 40
0.8775510204081632
 40
0.8775510204081632
 40
0.8775510204081632
 40
0.8979591836734694
 40
0.8979591836734694
 40
0.8979591836734694
 40
0.8979591836734694
 40
0.9183673469387755
 40
0.9183673469387755
 40
0.9183673469387755
 40
0.9183673469387755
 40
0.9387755102040817
 40
0.9387755102040817
 40
0.9387755102040817
 40
0.9387755102040817
 40
0.9591836734693877
 40
0.9591836734693877
 40
0.9591836734693877
 40
0.9591836734693877
 40
1.0
 40
1.0
 40
1.0
 40
1.0
 10
3.7869
 20
-34.263
 30
0.0
 10
3.8289
 20
-34.2909
 30
0.0
 10
3.8832
 20
-34.3174
 30
0.0
 10
3.9492
 20
-34.3432
 30
0.0
 10
3.9492
 20
-34.3432
 30
0.0
 10
4.0152
 20
-34.3691
 30
0.0
 10
4.0902
 20
-34.3905
 30
0.0
 10
4.1743
 20
-34.4079
 30
0.0
 10
4.1743
 20
-34.4079
 30
0.0
 10
4.2584
 20
-34.4247
 30
0.0
 10
4.3476
 20
-34.4331
 30
0.0
 10
4.4427
 20
-34.4338
 30
0.0
 10
4.4427
 20
-34.4338
 30
0.0
 10
4.5934
 20
-34.4331
 30
0.0
 10
4.726
 20
-34.4124
 30
0.0
 10
4.8404
 20
-34.3723
 30
0.0
 10
4.8404
 20
-34.3723
 30
0.0
 10
4.9549
 20
-34.3322
 30
0.0
 10
5.0506
 20
-34.2766
 30
0.0
 10
5.1282
 20
-34.2068
 30
0.0
 10
5.1282
 20
-34.2068
 30
0.0
 10
5.2059
 20
-34.1369
 30
0.0
 10
5.2641
 20
-34.0561
 30
0.0
 10
5.3035
 20
-33.9655
 30
0.0
 10
5.3035
 20
-33.9655
 30
0.0
 10
5.3423
 20
-33.875
 30
0.0
 10
5.3624
 20
-33.7786
 30
0.0
 10
5.3624
 20
-33.6771
 30
0.0
 10
5.3624
 20
-33.6771
 30
0.0
 10
5.3611
 20
-33.5885
 30
0.0
 10
5.3455
 20
-33.5083
 30
0.0
 10
5.3164
 20
-33.4359
 30
0.0
 10
5.3164
 20
-33.4359
 30
0.0
 10
5.2873
 20
-33.3628
 30
0.0
 10
5.2472
 20
-33.2994
 30
0.0
 10
5.1961
 20
-33.2444
 30
0.0
 10
5.1961
 20
-33.2444
 30
0.0
 10
5.1451
 20
-33.1894
 30
0.0
 10
5.0856
 20
-33.1442
 30
0.0
 10
5.0183
 20
-33.1086
 30
0.0
 10
5.0183
 20
-33.1086
 30
0.0
 10
4.9504
 20
-33.073
 30
0.0
 10
4.8779
 20
-33.0478
 30
0.0
 10
4.7997
 20
-33.0329
 30
0.0
 10
4.7997
 20
-33.0329
 30
0.0
 10
4.7997
 20
-33.0329
 30
0.0
 10
4.7997
 20
-33.0252
 30
0.0
 10
4.7997
 20
-33.0252
 30
0.0
 10
4.7997
 20
-33.0252
 30
0.0
 10
4.9019
 20
-32.987
 30
0.0
 10
4.9879
 20
-32.9385
 30
0.0
 10
5.0565
 20
-32.879
 30
0.0
 10
5.0565
 20
-32.879
 30
0.0
 10
5.1257
 20
-32.8195
 30
0.0
 10
5.178
 20
-32.7509
 30
0.0
 10
5.213
 20
-32.6746
 30
0.0
 10
5.213
 20
-32.6746
 30
0.0
 10
5.2479
 20
-32.5983
 30
0.0
 10
5.2654
 20
-32.5162
 30
0.0
 10
5.2654
 20
-32.4276
 30
0.0
 10
5.2654
 20
-32.4276
 30
0.0
 10
5.2654
 20
-32.35
 30
0.0
 10
5.2511
 20
-32.2756
 30
0.0
 10
5.2227
 20
-32.2044
 30
0.0
 10
5.2227
 20
-32.2044
 30
0.0
 10
5.1936
 20
-32.1326
 30
0.0
 10
5.1496
 20
-32.0686
 30
0.0
 10
5.0907
 20
-32.0117
 30
0.0
 10
5.0907
 20
-32.0117
 30
0.0
 10
5.0319
 20
-31.9548
 30
0.0
 10
4.9569
 20
-31.9102
 30
0.0
 10
4.8657
 20
-31.8772
 30
0.0
 10
4.8657
 20
-31.8772
 30
0.0
 10
4.7751
 20
-31.8436
 30
0.0
 10
4.6678
 20
-31.8267
 30
0.0
 10
4.5436
 20
-31.8261
 30
0.0
 10
4.5436
 20
-31.8261
 30
0.0
 10
4.4524
 20
-31.8267
 30
0.0
 10
4.3651
 20
-31.8364
 30
0.0
 10
4.281
 20
-31.8545
 30
0.0
 10
4.281
 20
-31.8545
 30
0.0
 10
4.1969
 20
-31.8733
 30
0.0
 10
4.1206
 20
-31.8972
 30
0.0
 10
4.052
 20
-31.9263
 30
0.0
 10
4.052
 20
-31.9263
 30
0.0
 10
3.9835
 20
-31.9561
 30
0.0
 10
3.9259
 20
-31.9871
 30
0.0
 10
3.88
 20
-32.0201
 30
0.0
 10
3.88
 20
-32.0201
 30
0.0
 10
3.88
 20
-32.0201
 30
0.0
 10
3.9731
 20
-32.2685
 30
0.0
 10
3.9731
 20
-32.2685
 30
0.0
 10
3.9731
 20
-32.2685
 30
0.0
 10
4.01
 20
-32.2419
 30
0.0
 10
4.0546
 20
-32.2161
 30
0.0
 10
4.1077
 20
-32.1909
 30
0.0
 10
4.1077
 20
-32.1909
 30
0.0
 10
4.1601
 20
-32.165
 30
0.0
 10
4.2183
 20
-32.1443
 30
0.0
 10
4.2816
 20
-32.1275
 30
0.0
 10
4.2816
 20
-32.1275
 30
0.0
 10
4.3444
 20
-32.1107
 30
0.0
 10
4.4097
 20
-32.1023
 30
0.0
 10
4.4776
 20
-32.1016
 30
0.0
 10
4.4776
 20
-32.1016
 30
0.0
 10
4.5824
 20
-32.1023
 30
0.0
 10
4.6671
 20
-32.1204
 30
0.0
 10
4.7318
 20
-32.1553
 30
0.0
 10
4.7318
 20
-32.1553
 30
0.0
 10
4.7971
 20
-32.1902
 30
0.0
 10
4.845
 20
-32.2361
 30
0.0
 10
4.8754
 20
-32.2937
 30
0.0
 10
4.8754
 20
-32.2937
 30
0.0
 10
4.9058
 20
-32.3506
 30
0.0
 10
4.9206
 20
-32.4133
 30
0.0
 10
4.92
 20
-32.4819
 30
0.0
 10
4.92
 20
-32.4819
 30
0.0
 10
4.9193
 20
-32.5563
 30
0.0
 10
4.9012
 20
-32.6209
 30
0.0
 10
4.867
 20
-32.6746
 30
0.0
 10
4.867
 20
-32.6746
 30
0.0
 10
4.8327
 20
-32.7283
 30
0.0
 10
4.7874
 20
-32.7729
 30
0.0
 10
4.7318
 20
-32.8072
 30
0.0
 10
4.7318
 20
-32.8072
 30
0.0
 10
4.6762
 20
-32.8421
 30
0.0
 10
4.6154
 20
-32.8674
 30
0.0
 10
4.55
 20
-32.8842
 30
0.0
 10
4.55
 20
-32.8842
 30
0.0
 10
4.4847
 20
-32.9003
 30
0.0
 10
4.4207
 20
-32.9087
 30
0.0
 10
4.3573
 20
-32.9087
 30
0.0
 10
4.3573
 20
-32.9087
 30
0.0
 10
4.3573
 20
-32.9087
 30
0.0
 10
4.1672
 20
-32.9087
 30
0.0
 10
4.1672
 20
-32.9087
 30
0.0
 10
4.1672
 20
-32.9087
 30
0.0
 10
4.1672
 20
-32.9087
 30
0.0
 10
4.1672
 20
-33.1649
 30
0.0
 10
4.1672
 20
-33.1649
 30
0.0
 10
4.1672
 20
-33.1649
 30
0.0
 10
4.1672
 20
-33.1649
 30
0.0
 10
4.3573
 20
-33.1649
 30
0.0
 10
4.3573
 20
-33.1649
 30
0.0
 10
4.3573
 20
-33.1649
 30
0.0
 10
4.4407
 20
-33.1649
 30
0.0
 10
4.5209
 20
-33.1746
 30
0.0
 10
4.5979
 20
-33.194
 30
0.0
 10
4.5979
 20
-33.194
 30
0.0
 10
4.6749
 20
-33.2134
 30
0.0
 10
4.7441
 20
-33.2438
 30
0.0
 10
4.8055
 20
-33.2845
 30
0.0
 10
4.8055
 20
-33.2845
 30
0.0
 10
4.867
 20
-33.3253
 30
0.0
 10
4.9161
 20
-33.3776
 30
0.0
 10
4.9523
 20
-33.4417
 30
0.0
 10
4.9523
 20
-33.4417
 30
0.0
 10
4.9885
 20
-33.5051
 30
0.0
 10
5.0073
 20
-33.5814
 30
0.0
 10
5.0092
 20
-33.6693
 30
0.0
 10
5.0092
 20
-33.6693
 30
0.0
 10
5.0105
 20
-33.7237
 30
0.0
 10
5.0021
 20
-33.7793
 30
0.0
 10
4.9827
 20
-33.8355
 30
0.0
 10
4.9827
 20
-33.8355
 30
0.0
 10
4.964
 20
-33.8925
 30
0.0
 10
4.9323
 20
-33.9455
 30
0.0
 10
4.8883
 20
-33.994
 30
0.0
 10
4.8883
 20
-33.994
 30
0.0
 10
4.8443
 20
-34.0425
 30
0.0
 10
4.7855
 20
-34.082
 30
0.0
 10
4.7117
 20
-34.1117
 30
0.0
 10
4.7117
 20
-34.1117
 30
0.0
 10
4.638
 20
-34.1421
 30
0.0
 10
4.5475
 20
-34.1576
 30
0.0
 10
4.4388
 20
-34.1583
 30
0.0
 10
4.4388
 20
-34.1583
 30
0.0
 10
4.358
 20
-34.1576
 30
0.0
 10
4.281
 20
-34.1486
 30
0.0
 10
4.2086
 20
-34.1311
 30
0.0
 10
4.2086
 20
-34.1311
 30
0.0
 10
4.1361
 20
-34.1136
 30
0.0
 10
4.0715
 20
-34.0929
 30
0.0
 10
4.0145
 20
-34.069
 30
0.0
 10
4.0145
 20
-34.069
 30
0.0
 10
3.9576
 20
-34.0451
 30
0.0
 10
3.913
 20
-34.0231
 30
0.0
 10
3.88
 20
-34.003
 30
0.0
 10
3.88
 20
-34.003
 30
0.0
 10
3.88
 20
-34.003
 30
0.0
 10
3.7869
 20
-34.263
 30
0.0
 10
3.7869
 20
-34.263
 30
0.0
  0
SPLINE
  5
AC
330
1F
100
AcDbEntity
  8
DEFAULT_1
 62
   250
370
    15
100
AcDbSpline
210
0.0
220
0.0
230
1.0
 70
    24
 71
     3
 72
     8
 73
     4
 74
     0
 42
0.0000000001
 43
0.0000000001
 40
0.0
 40
0.0
 40
0.0
 40
0.0
 40
1.0
 40
1.0
 40
1.0
 40
1.0
 10
-11.6595
 20
32.5378
 30
0.0
 10
-11.6595
 20
32.5378
 30
0.0
 10
17.5587
 20
32.5378
 30
0.0
 10
17.5587
 20
32.5378
 30
0.0
  0
SPLINE
  5
AD
330
1F
100
AcDbEntity
  8
DEFAULT_1
 62
   250
370
     9
100
AcDbSpline
210
0.0
220
0.0
230
1.0
 70
    11
 71
     3
 72
    32
 73
    28
 74
     0
 42
0.0000000001
 43
0.0000000001
 40
0.0
 40
0.0
 40
0.0
 40
0.0
 40
0.125
 40
0.125
 40
0.125
 40
0.125
 40
0.25
 40
0.25
 40
0.25
 40
0.25
 40
0.375
 40
0.375
 40
0.375
 40
0.375
 40
0.5
 40
0.5
 40
0.5
 40
0.5
 40
0.625
 40
0.625
 40
0.625
 40
0.625
 40
0.75
 40
0.75
 40
0.75
 40
0.75
 40
1.0
 40
1.0
 40
1.0
 40
1.0
 10
-11.4585
 20
32.979
 30
0.0
 10
-11.4585
 20
32.979
 30
0.0
 10
-11.4585
 20
32.979
 30
0.0
 10
-11.4585
 20
32.979
 30
0.0
 10
-11.4585
 20
32.979
 30
0.0
 10
-11.4585
 20
32.979
 30
0.0
 10
-11.4585
 20
32.979
 30
0.0
 10
-11.4585
 20
32.979
 30
0.0
 10
-11.4585
 20
32.979
 30
0.0
 10
-11.4585
 20
32.979
 30
0.0
 10
-12.7313
 20
32.5356
 30
0.0
 10
-12.7313
 20
32.5356
 30
0.0
 10
-12.7313
 20
32.5356
 30
0.0
 10
-12.7313
 20
32.5356
 30
0.0
 10
-11.4585
 20
32.0922
 30
0.0
 10
-11.4585
 20
32.0922
 30
0.0
 10
-11.4585
 20
32.0922
 30
0.0
 10
-11.4585
 20
32.0922
 30
0.0
 10
-11.4585
 20
32.0922
 30
0.0
 10
-11.4585
 20
32.0922
 30
0.0
 10
-11.4585
 20
32.0922
 30
0.0
 10
-11.4585
 20
32.0922
 30
0.0
 10
-11.4585
 20
32.0922
 30
0.0
 10
-11.4585
 20
32.0922
 30
0.0
 10
-11.4585
 20
32.0922
 30
0.0
 10
-11.4585
 20
32.0922
 30
0.0
 10
-11.4585
 20
32.979
 30
0.0
 10
-11.4585
 20
32.979
 30
0.0
  0
SPLINE
  5
AE
330
1F
100
AcDbEntity
  8
DEFAULT_1
 62
   250
370
     9
100
AcDbSpline
210
0.0
220
0.0
230
1.0
 70
    11
 71
     3
 72
    32
 73
    28
 74
     0
 42
0.0000000001
 43
0.0000000001
 40
0.0
 40
0.0
 40
0.0
 40
0.0
 40
0.125
 40
0.125
 40
0.125
 40
0.125
 40
0.25
 40
0.25
 40
0.25
 40
0.25
 40
0.375
 40
0.375
 40
0.375
 40
0.375
 40
0.5
 40
0.5
 40
0.5
 40
0.5
 40
0.625
 40
0.625
 40
0.625
 40
0.625
 40
0.75
 40
0.75
 40
0.75
 40
0.75
 40
1.0
 40
1.0
 40
1.0
 40
1.0
 10
-6.0666
 20
-28.456
 30
0.0
 10
-6.0666
 20
-28.456
 30
0.0
 10
-6.0666
 20
-28.456
 30
0.0
 10
-6.0666
 20
-28.456
 30
0.0
 10
-6.0666
 20
-28.456
 30
0.0
 10
-6.0666
 20
-28.456
 30
0.0
 10
-6.0666
 20
-28.456
 30
0.0
 10
-6.0666
 20
-28.456
 30
0.0
 10
-6.0666
 20
-28.456
 30
0.0
 10
-6.0666
 20
-28.456
 30
0.0
 10
-7.3394
 20
-28.8994
 30
0.0
 10
-7.3394
 20
-28.8994
 30
0.0
 10
-7.3394
 20
-28.8994
 30
0.0
 10
-7.3394
 20
-28.8994
 30
0.0
 10
-6.0666
 20
-29.3428
 30
0.0
 10
-6.0666
 20
-29.3428
 30
0.0
 10
-6.0666
 20
-29.3428
 30
0.0
 10
-6.0666
 20
-29.3428
 30
0.0
 10
-6.0666
 20
-29.3428
 30
0.0
 10
-6.0666
 20
-29.3428
 30
0.0
 10
-6.0666
 20
-29.3428
 30
0.0
 10
-6.0666
 20
-29.3428
 30
0.0
 10
-6.0666
 20
-29.3428
 30
0.0
 10
-6.0666
 20
-29.3428
 30
0.0
 10
-6.0666
 20
-29.3428
 30
0.0
 10
-6.0666
 20
-29.3428
 30
0.0
 10
-6.0666
 20
-28.456
 30
0.0
 10
-6.0666
 20
-28.456
 30
0.0
  0
SPLINE
  5
AF
330
1F
100
AcDbEntity
  8
DEFAULT_1
 62
   250
370
     9
100
AcDbSpline
210
0.0
220
0.0
230
1.0
 70
    11
 71
     3
 72
    32
 73
    28
 74
     0
 42
0.0000000001
 43
0.0000000001
 40
0.0
 40
0.0
 40
0.0
 40
0.0
 40
0.125
 40
0.125
 40
0.125
 40
0.125
 40
0.25
 40
0.25
 40
0.25
 40
0.25
 40
0.375
 40
0.375
 40
0.375
 40
0.375
 40
0.5
 40
0.5
 40
0.5
 40
0.5
 40
0.625
 40
0.625
 40
0.625
 40
0.625
 40
0.75
 40
0.75
 40
0.75
 40
0.75
 40
1.0
 40
1.0
 40
1.0
 40
1.0
 10
-7.1245
 20
-34.5244
 30
0.0
 10
-7.1245
 20
-34.5244
 30
0.0
 10
-7.1245
 20
-34.5244
 30
0.0
 10
-7.1245
 20
-34.5244
 30
0.0
 10
-7.1245
 20
-34.5244
 30
0.0
 10
-7.1245
 20
-34.5244
 30
0.0
 10
-7.1245
 20
-34.5244
 30
0.0
 10
-7.1245
 20
-34.5244
 30
0.0
 10
-7.1245
 20
-34.5244
 30
0.0
 10
-7.1245
 20
-34.5244
 30
0.0
 10
-8.3973
 20
-34.9678
 30
0.0
 10
-8.3973
 20
-34.9678
 30
0.0
 10
-8.3973
 20
-34.9678
 30
0.0
 10
-8.3973
 20
-34.9678
 30
0.0
 10
-7.1245
 20
-35.4112
 30
0.0
 10
-7.1245
 20
-35.4112
 30
0.0
 10
-7.1245
 20
-35.4112
 30
0.0
 10
-7.1245
 20
-35.4112
 30
0.0
 10
-7.1245
 20
-35.4112
 30
0.0
 10
-7.1245
 20
-35.4112
 30
0.0
 10
-7.1245
 20
-35.4112
 30
0.0
 10
-7.1245
 20
-35.4112
 30
0.0
 10
-7.1245
 20
-35.4112
 30
0.0
 10
-7.1245
 20
-35.4112
 30
0.0
 10
-7.1245
 20
-35.4112
 30
0.0
 10
-7.1245
 20
-35.4112
 30
0.0
 10
-7.1245
 20
-34.5244
 30
0.0
 10
-7.1245
 20
-34.5244
 30
0.0
  0
SPLINE
  5
B0
330
1F
100
AcDbEntity
  8
DEFAULT_1
 62
   250
370
     9
100
AcDbSpline
210
0.0
220
0.0
230
1.0
 70
    11
 71
     3
 72
    32
 73
    28
 74
     0
 42
0.0000000001
 43
0.0000000001
 40
0.0
 40
0.0
 40
0.0
 40
0.0
 40
0.125
 40
0.125
 40
0.125
 40
0.125
 40
0.25
 40
0.25
 40
0.25
 40
0.25
 40
0.375
 40
0.375
 40
0.375
 40
0.375
 40
0.5
 40
0.5
 40
0.5
 40
0.5
 40
0.625
 40
0.625
 40
0.625
 40
0.625
 40
0.75
 40
0.75
 40
0.75
 40
0.75
 40
1.0
 40
1.0
 40
1.0
 40
1.0
 10
16.4723
 20
32.9848
 30
0.0
 10
16.4723
 20
32.9848
 30
0.0
 10
16.4723
 20
32.9848
 30
0.0
 10
16.4723
 20
32.9848
 30
0.0
 10
16.4723
 20
32.9848
 30
0.0
 10
16.4723
 20
32.9848
 30
0.0
 10
16.4723
 20
32.9848
 30
0.0
 10
16.4723
 20
32.9848
 30
0.0
 10
16.4723
 20
32.9848
 30
0.0
 10
16.4723
 20
32.9848
 30
0.0
 10
17.7451
 20
32.5414
 30
0.0
 10
17.7451
 20
32.5414
 30
0.0
 10
17.7451
 20
32.5414
 30
0.0
 10
17.7451
 20
32.5414
 30
0.0
 10
16.4723
 20
32.098
 30
0.0
 10
16.4723
 20
32.098
 30
0.0
 10
16.4723
 20
32.098
 30
0.0
 10
16.4723
 20
32.098
 30
0.0
 10
16.4723
 20
32.098
 30
0.0
 10
16.4723
 20
32.098
 30
0.0
 10
16.4723
 20
32.098
 30
0.0
 10
16.4723
 20
32.098
 30
0.0
 10
16.4723
 20
32.098
 30
0.0
 10
16.4723
 20
32.098
 30
0.0
 10
16.4723
 20
32.098
 30
0.0
 10
16.4723
 20
32.098
 30
0.0
 10
16.4723
 20
32.9848
 30
0.0
 10
16.4723
 20
32.9848
 30
0.0
  0
SPLINE
  5
B1
330
1F
100
AcDbEntity
  8
DEFAULT_1
 62
   250
370
     9
100
AcDbSpline
210
0.0
220
0.0
230
1.0
 70
    11
 71
     3
 72
    32
 73
    28
 74
     0
 42
0.0000000001
 43
0.0000000001
 40
0.0
 40
0.0
 40
0.0
 40
0.0
 40
0.125
 40
0.125
 40
0.125
 40
0.125
 40
0.25
 40
0.25
 40
0.25
 40
0.25
 40
0.375
 40
0.375
 40
0.375
 40
0.375
 40
0.5
 40
0.5
 40
0.5
 40
0.5
 40
0.625
 40
0.625
 40
0.625
 40
0.625
 40
0.75
 40
0.75
 40
0.75
 40
0.75
 40
1.0
 40
1.0
 40
1.0
 40
1.0
 10
10.2447
 20
-28.4281
 30
0.0
 10
10.2447
 20
-28.4281
 30
0.0
 10
10.2447
 20
-28.4281
 30
0.0
 10
10.2447
 20
-28.4281
 30
0.0
 10
10.2447
 20
-28.4281
 30
0.0
 10
10.2447
 20
-28.4281
 30
0.0
 10
10.2447
 20
-28.4281
 30
0.0
 10
10.2447
 20
-28.4281
 30
0.0
 10
10.2447
 20
-28.4281
 30
0.0
 10
10.2447
 20
-28.4281
 30
0.0
 10
11.5175
 20
-28.8715
 30
0.0
 10
11.5175
 20
-28.8715
 30
0.0
 10
11.5175
 20
-28.8715
 30
0.0
 10
11.5175
 20
-28.8715
 30
0.0
 10
10.2447
 20
-29.3149
 30
0.0
 10
10.2447
 20
-29.3149
 30
0.0
 10
10.2447
 20
-29.3149
 30
0.0
 10
10.2447
 20
-29.3149
 30
0.0
 10
10.2447
 20
-29.3149
 30
0.0
 10
10.2447
 20
-29.3149
 30
0.0
 10
10.2447
 20
-29.3149
 30
0.0
 10
10.2447
 20
-29.3149
 30
0.0
 10
10.2447
 20
-29.3149
 30
0.0
 10
10.2447
 20
-29.3149
 30
0.0
 10
10.2447
 20
-29.3149
 30
0.0
 10
10.2447
 20
-29.3149
 30
0.0
 10
10.2447
 20
-28.4281
 30
0.0
 10
10.2447
 20
-28.4281
 30
0.0
  0
SPLINE
  5
B2
330
1F
100
AcDbEntity
  8
DEFAULT_1
 62
   250
370
     9
100
AcDbSpline
210
0.0
220
0.0
230
1.0
 70
    11
 71
     3
 72
    32
 73
    28
 74
     0
 42
0.0000000001
 43
0.0000000001
 40
0.0
 40
0.0
 40
0.0
 40
0.0
 40
0.125
 40
0.125
 40
0.125
 40
0.125
 40
0.25
 40
0.25
 40
0.25
 40
0.25
 40
0.375
 40
0.375
 40
0.375
 40
0.375
 40
0.5
 40
0.5
 40
0.5
 40
0.5
 40
0.625
 40
0.625
 40
0.625
 40
0.625
 40
0.75
 40
0.75
 40
0.75
 40
0.75
 40
1.0
 40
1.0
 40
1.0
 40
1.0
 10
11.1712
 20
-34.4855
 30
0.0
 10
11.1712
 20
-34.4855
 30
0.0
 10
11.1712
 20
-34.4855
 30
0.0
 10
11.1712
 20
-34.4855
 30
0.0
 10
11.1712
 20
-34.4855
 30
0.0
 10
11.1712
 20
-34.4855
 30
0.0
 10
11.1712
 20
-34.4855
 30
0.0
 10
11.1712
 20
-34.4855
 30
0.0
 10
11.1712
 20
-34.4855
 30
0.0
 10
11.1712
 20
-34.4855
 30
0.0
 10
12.444
 20
-34.9289
 30
0.0
 10
12.444
 20
-34.9289
 30
0.0
 10
12.444
 20
-34.9289
 30
0.0
 10
12.444
 20
-34.9289
 30
0.0
 10
11.1712
 20
-35.3723
 30
0.0
 10
11.1712
 20
-35.3723
 30
0.0
 10
11.1712
 20
-35.3723
 30
0.0
 10
11.1712
 20
-35.3723
 30
0.0
 10
11.1712
 20
-35.3723
 30
0.0
 10
11.1712
 20
-35.3723
 30
0.0
 10
11.1712
 20
-35.3723
 30
0.0
 10
11.1712
 20
-35.3723
 30
0.0
 10
11.1712
 20
-35.3723
 30
0.0
 10
11.1712
 20
-35.3723
 30
0.0
 10
11.1712
 20
-35.3723
 30
0.0
 10
11.1712
 20
-35.3723
 30
0.0
 10
11.1712
 20
-34.4855
 30
0.0
 10
11.1712
 20
-34.4855
 30
0.0
  0
SPLINE
  5
B3
330
1F
100
AcDbEntity
  8
DEFAULT_1
 62
   250
370
     9
100
AcDbSpline
210
0.0
220
0.0
230
1.0
 70
    11
 71
     3
 72
    32
 73
    28
 74
     0
 42
0.0000000001
 43
0.0000000001
 40
0.0
 40
0.0
 40
0.0
 40
0.0
 40
0.125
 40
0.125
 40
0.125
 40
0.125
 40
0.25
 40
0.25
 40
0.25
 40
0.25
 40
0.375
 40
0.375
 40
0.375
 40
0.375
 40
0.5
 40
0.5
 40
0.5
 40
0.5
 40
0.625
 40
0.625
 40
0.625
 40
0.625
 40
0.75
 40
0.75
 40
0.75
 40
0.75
 40
1.0
 40
1.0
 40
1.0
 40
1.0
 10
-18.9745
 20
23.1559
 30
0.0
 10
-18.9745
 20
23.1559
 30
0.0
 10
-18.9745
 20
23.1559
 30
0.0
 10
-18.9745
 20
23.1559
 30
0.0
 10
-18.9745
 20
23.1559
 30
0.0
 10
-18.9745
 20
23.1559
 30
0.0
 10
-18.9745
 20
23.1559
 30
0.0
 10
-18.9745
 20
23.1559
 30
0.0
 10
-18.9745
 20
23.1559
 30
0.0
 10
-18.9745
 20
23.1559
 30
0.0
 10
-19.4179
 20
24.4287
 30
0.0
 10
-19.4179
 20
24.4287
 30
0.0
 10
-19.4179
 20
24.4287
 30
0.0
 10
-19.4179
 20
24.4287
 30
0.0
 10
-19.8613
 20
23.1559
 30
0.0
 10
-19.8613
 20
23.1559
 30
0.0
 10
-19.8613
 20
23.1559
 30
0.0
 10
-19.8613
 20
23.1559
 30
0.0
 10
-19.8613
 20
23.1559
 30
0.0
 10
-19.8613
 20
23.1559
 30
0.0
 10
-19.8613
 20
23.1559
 30
0.0
 10
-19.8613
 20
23.1559
 30
0.0
 10
-19.8613
 20
23.1559
 30
0.0
 10
-19.8613
 20
23.1559
 30
0.0
 10
-19.8613
 20
23.1559
 30
0.0
 10
-19.8613
 20
23.1559
 30
0.0
 10
-18.9745
 20
23.1559
 30
0.0
 10
-18.9745
 20
23.1559
 30
0.0
  0
SPLINE
  5
B4
330
1F
100
AcDbEntity
  8
DEFAULT_1
 62
   250
370
     9
100
AcDbSpline
210
0.0
220
0.0
230
1.0
 70
    11
 71
     3
 72
    32
 73
    28
 74
     0
 42
0.0000000001
 43
0.0000000001
 40
0.0
 40
0.0
 40
0.0
 40
0.0
 40
0.125
 40
0.125
 40
0.125
 40
0.125
 40
0.25
 40
0.25
 40
0.25
 40
0.25
 40
0.375
 40
0.375
 40
0.375
 40
0.375
 40
0.5
 40
0.5
 40
0.5
 40
0.5
 40
0.625
 40
0.625
 40
0.625
 40
0.625
 40
0.75
 40
0.75
 40
0.75
 40
0.75
 40
1.0
 40
1.0
 40
1.0
 40
1.0
 10
-12.4974
 20
-23.9113
 30
0.0
 10
-12.4974
 20
-23.9113
 30
0.0
 10
-12.4974
 20
-23.9113
 30
0.0
 10
-12.4974
 20
-23.9113
 30
0.0
 10
-12.4974
 20
-23.9113
 30
0.0
 10
-12.4974
 20
-23.9113
 30
0.0
 10
-12.4974
 20
-23.9113
 30
0.0
 10
-12.4974
 20
-23.9113
 30
0.0
 10
-12.4974
 20
-23.9113
 30
0.0
 10
-12.4974
 20
-23.9113
 30
0.0
 10
-12.9408
 20
-22.6385
 30
0.0
 10
-12.9408
 20
-22.6385
 30
0.0
 10
-12.9408
 20
-22.6385
 30
0.0
 10
-12.9408
 20
-22.6385
 30
0.0
 10
-13.3842
 20
-23.9113
 30
0.0
 10
-13.3842
 20
-23.9113
 30
0.0
 10
-13.3842
 20
-23.9113
 30
0.0
 10
-13.3842
 20
-23.9113
 30
0.0
 10
-13.3842
 20
-23.9113
 30
0.0
 10
-13.3842
 20
-23.9113
 30
0.0
 10
-13.3842
 20
-23.9113
 30
0.0
 10
-13.3842
 20
-23.9113
 30
0.0
 10
-13.3842
 20
-23.9113
 30
0.0
 10
-13.3842
 20
-23.9113
 30
0.0
 10
-13.3842
 20
-23.9113
 30
0.0
 10
-13.3842
 20
-23.9113
 30
0.0
 10
-12.4974
 20
-23.9113
 30
0.0
 10
-12.4974
 20
-23.9113
 30
0.0
  0
SPLINE
  5
B5
330
1F
100
AcDbEntity
  8
DEFAULT_1
 62
   250
370
     9
100
AcDbSpline
210
0.0
220
0.0
230
1.0
 70
    11
 71
     3
 72
    32
 73
    28
 74
     0
 42
0.0000000001
 43
0.0000000001
 40
0.0
 40
0.0
 40
0.0
 40
0.0
 40
0.125
 40
0.125
 40
0.125
 40
0.125
 40
0.25
 40
0.25
 40
0.25
 40
0.25
 40
0.375
 40
0.375
 40
0.375
 40
0.375
 40
0.5
 40
0.5
 40
0.5
 40
0.5
 40
0.625
 40
0.625
 40
0.625
 40
0.625
 40
0.75
 40
0.75
 40
0.75
 40
0.75
 40
1.0
 40
1.0
 40
1.0
 40
1.0
 10
22.3137
 20
23.2016
 30
0.0
 10
22.3137
 20
23.2016
 30
0.0
 10
22.3137
 20
23.2016
 30
0.0
 10
22.3137
 20
23.2016
 30
0.0
 10
22.3137
 20
23.2016
 30
0.0
 10
22.3137
 20
23.2016
 30
0.0
 10
22.3137
 20
23.2016
 30
0.0
 10
22.3137
 20
23.2016
 30
0.0
 10
22.3137
 20
23.2016
 30
0.0
 10
22.3137
 20
23.2016
 30
0.0
 10
21.8703
 20
24.4744
 30
0.0
 10
21.8703
 20
24.4744
 30
0.0
 10
21.8703
 20
24.4744
 30
0.0
 10
21.8703
 20
24.4744
 30
0.0
 10
21.4269
 20
23.2016
 30
0.0
 10
21.4269
 20
23.2016
 30
0.0
 10
21.4269
 20
23.2016
 30
0.0
 10
21.4269
 20
23.2016
 30
0.0
 10
21.4269
 20
23.2016
 30
0.0
 10
21.4269
 20
23.2016
 30
0.0
 10
21.4269
 20
23.2016
 30
0.0
 10
21.4269
 20
23.2016
 30
0.0
 10
21.4269
 20
23.2016
 30
0.0
 10
21.4269
 20
23.2016
 30
0.0
 10
21.4269
 20
23.2016
 30
0.0
 10
21.4269
 20
23.2016
 30
0.0
 10
22.3137
 20
23.2016
 30
0.0
 10
22.3137
 20
23.2016
 30
0.0
  0
SPLINE
  5
B6
330
1F
100
AcDbEntity
  8
DEFAULT_1
 62
   250
370
     9
100
AcDbSpline
210
0.0
220
0.0
230
1.0
 70
    11
 71
     3
 72
    32
 73
    28
 74
     0
 42
0.0000000001
 43
0.0000000001
 40
0.0
 40
0.0
 40
0.0
 40
0.0
 40
0.125
 40
0.125
 40
0.125
 40
0.125
 40
0.25
 40
0.25
 40
0.25
 40
0.25
 40
0.375
 40
0.375
 40
0.375
 40
0.375
 40
0.5
 40
0.5
 40
0.5
 40
0.5
 40
0.625
 40
0.625
 40
0.625
 40
0.625
 40
0.75
 40
0.75
 40
0.75
 40
0.75
 40
1.0
 40
1.0
 40
1.0
 40
1.0
 10
-18.9693
 20
11.0063
 30
0.0
 10
-18.9693
 20
11.0063
 30
0.0
 10
-18.9693
 20
11.0063
 30
0.0
 10
-18.9693
 20
11.0063
 30
0.0
 10
-18.9693
 20
11.0063
 30
0.0
 10
-18.9693
 20
11.0063
 30
0.0
 10
-18.9693
 20
11.0063
 30
0.0
 10
-18.9693
 20
11.0063
 30
0.0
 10
-18.9693
 20
11.0063
 30
0.0
 10
-18.9693
 20
11.0063
 30
0.0
 10
-19.4127
 20
9.7335
 30
0.0
 10
-19.4127
 20
9.7335
 30
0.0
 10
-19.4127
 20
9.7335
 30
0.0
 10
-19.4127
 20
9.7335
 30
0.0
 10
-19.8561
 20
11.0063
 30
0.0
 10
-19.8561
 20
11.0063
 30
0.0
 10
-19.8561
 20
11.0063
 30
0.0
 10
-19.8561
 20
11.0063
 30
0.0
 10
-19.8561
 20
11.0063
 30
0.0
 10
-19.8561
 20
11.0063
 30
0.0
 10
-19.8561
 20
11.0063
 30
0.0
 10
-19.8561
 20
11.0063
 30
0.0
 10
-19.8561
 20
11.0063
 30
0.0
 10
-19.8561
 20
11.0063
 30
0.0
 10
-19.8561
 20
11.0063
 30
0.0
 10
-19.8561
 20
11.0063
 30
0.0
 10
-18.9693
 20
11.0063
 30
0.0
 10
-18.9693
 20
11.0063
 30
0.0
  0
SPLINE
  5
B7
330
1F
100
AcDbEntity
  8
DEFAULT_1
 62
   250
370
     9
100
AcDbSpline
210
0.0
220
0.0
230
1.0
 70
    11
 71
     3
 72
    32
 73
    28
 74
     0
 42
0.0000000001
 43
0.0000000001
 40
0.0
 40
0.0
 40
0.0
 40
0.0
 40
0.125
 40
0.125
 40
0.125
 40
0.125
 40
0.25
 40
0.25
 40
0.25
 40
0.25
 40
0.375
 40
0.375
 40
0.375
 40
0.375
 40
0.5
 40
0.5
 40
0.5
 40
0.5
 40
0.625
 40
0.625
 40
0.625
 40
0.625
 40
0.75
 40
0.75
 40
0.75
 40
0.75
 40
1.0
 40
1.0
 40
1.0
 40
1.0
 10
-18.9523
 20
-21.2332
 30
0.0
 10
-18.9523
 20
-21.2332
 30
0.0
 10
-18.9523
 20
-21.2332
 30
0.0
 10
-18.9523
 20
-21.2332
 30
0.0
 10
-18.9523
 20
-21.2332
 30
0.0
 10
-18.9523
 20
-21.2332
 30
0.0
 10
-18.9523
 20
-21.2332
 30
0.0
 10
-18.9523
 20
-21.2332
 30
0.0
 10
-18.9523
 20
-21.2332
 30
0.0
 10
-18.9523
 20
-21.2332
 30
0.0
 10
-19.3957
 20
-22.506
 30
0.0
 10
-19.3957
 20
-22.506
 30
0.0
 10
-19.3957
 20
-22.506
 30
0.0
 10
-19.3957
 20
-22.506
 30
0.0
 10
-19.8391
 20
-21.2332
 30
0.0
 10
-19.8391
 20
-21.2332
 30
0.0
 10
-19.8391
 20
-21.2332
 30
0.0
 10
-19.8391
 20
-21.2332
 30
0.0
 10
-19.8391
 20
-21.2332
 30
0.0
 10
-19.8391
 20
-21.2332
 30
0.0
 10
-19.8391
 20
-21.2332
 30
0.0
 10
-19.8391
 20
-21.2332
 30
0.0
 10
-19.8391
 20
-21.2332
 30
0.0
 10
-19.8391
 20
-21.2332
 30
0.0
 10
-19.8391
 20
-21.2332
 30
0.0
 10
-19.8391
 20
-21.2332
 30
0.0
 10
-18.9523
 20
-21.2332
 30
0.0
 10
-18.9523
 20
-21.2332
 30
0.0
  0
SPLINE
  5
B8
330
1F
100
AcDbEntity
  8
DEFAULT_1
 62
   250
370
     9
100
AcDbSpline
210
0.0
220
0.0
230
1.0
 70
    11
 71
     3
 72
    32
 73
    28
 74
     0
 42
0.0000000001
 43
0.0000000001
 40
0.0
 40
0.0
 40
0.0
 40
0.0
 40
0.125
 40
0.125
 40
0.125
 40
0.125
 40
0.25
 40
0.25
 40
0.25
 40
0.25
 40
0.375
 40
0.375
 40
0.375
 40
0.375
 40
0.5
 40
0.5
 40
0.5
 40
0.5
 40
0.625
 40
0.625
 40
0.625
 40
0.625
 40
0.75
 40
0.75
 40
0.75
 40
0.75
 40
1.0
 40
1.0
 40
1.0
 40
1.0
 10
-18.9738
 20
8.3287
 30
0.0
 10
-18.9738
 20
8.3287
 30
0.0
 10
-18.9738
 20
8.3287
 30
0.0
 10
-18.9738
 20
8.3287
 30
0.0
 10
-18.9738
 20
8.3287
 30
0.0
 10
-18.9738
 20
8.3287
 30
0.0
 10
-18.9738
 20
8.3287
 30
0.0
 10
-18.9738
 20
8.3287
 30
0.0
 10
-18.9738
 20
8.3287
 30
0.0
 10
-18.9738
 20
8.3287
 30
0.0
 10
-19.4172
 20
9.6015
 30
0.0
 10
-19.4172
 20
9.6015
 30
0.0
 10
-19.4172
 20
9.6015
 30
0.0
 10
-19.4172
 20
9.6015
 30
0.0
 10
-19.8606
 20
8.3287
 30
0.0
 10
-19.8606
 20
8.3287
 30
0.0
 10
-19.8606
 20
8.3287
 30
0.0
 10
-19.8606
 20
8.3287
 30
0.0
 10
-19.8606
 20
8.3287
 30
0.0
 10
-19.8606
 20
8.3287
 30
0.0
 10
-19.8606
 20
8.3287
 30
0.0
 10
-19.8606
 20
8.3287
 30
0.0
 10
-19.8606
 20
8.3287
 30
0.0
 10
-19.8606
 20
8.3287
 30
0.0
 10
-19.8606
 20
8.3287
 30
0.0
 10
-19.8606
 20
8.3287
 30
0.0
 10
-18.9738
 20
8.3287
 30
0.0
 10
-18.9738
 20
8.3287
 30
0.0
  0
SPLINE
  5
B9
330
1F
100
AcDbEntity
  8
DEFAULT_1
 62
   250
370
     9
100
AcDbSpline
210
0.0
220
0.0
230
1.0
 70
    11
 71
     3
 72
    32
 73
    28
 74
     0
 42
0.0000000001
 43
0.0000000001
 40
0.0
 40
0.0
 40
0.0
 40
0.0
 40
0.125
 40
0.125
 40
0.125
 40
0.125
 40
0.25
 40
0.25
 40
0.25
 40
0.25
 40
0.375
 40
0.375
 40
0.375
 40
0.375
 40
0.5
 40
0.5
 40
0.5
 40
0.5
 40
0.625
 40
0.625
 40
0.625
 40
0.625
 40
0.75
 40
0.75
 40
0.75
 40
0.75
 40
1.0
 40
1.0
 40
1.0
 40
1.0
 10
-12.464
 20
-16.1339
 30
0.0
 10
-12.464
 20
-16.1339
 30
0.0
 10
-12.464
 20
-16.1339
 30
0.0
 10
-12.464
 20
-16.1339
 30
0.0
 10
-12.464
 20
-16.1339
 30
0.0
 10
-12.464
 20
-16.1339
 30
0.0
 10
-12.464
 20
-16.1339
 30
0.0
 10
-12.464
 20
-16.1339
 30
0.0
 10
-12.464
 20
-16.1339
 30
0.0
 10
-12.464
 20
-16.1339
 30
0.0
 10
-12.9074
 20
-17.4067
 30
0.0
 10
-12.9074
 20
-17.4067
 30
0.0
 10
-12.9074
 20
-17.4067
 30
0.0
 10
-12.9074
 20
-17.4067
 30
0.0
 10
-13.3508
 20
-16.1339
 30
0.0
 10
-13.3508
 20
-16.1339
 30
0.0
 10
-13.3508
 20
-16.1339
 30
0.0
 10
-13.3508
 20
-16.1339
 30
0.0
 10
-13.3508
 20
-16.1339
 30
0.0
 10
-13.3508
 20
-16.1339
 30
0.0
 10
-13.3508
 20
-16.1339
 30
0.0
 10
-13.3508
 20
-16.1339
 30
0.0
 10
-13.3508
 20
-16.1339
 30
0.0
 10
-13.3508
 20
-16.1339
 30
0.0
 10
-13.3508
 20
-16.1339
 30
0.0
 10
-13.3508
 20
-16.1339
 30
0.0
 10
-12.464
 20
-16.1339
 30
0.0
 10
-12.464
 20
-16.1339
 30
0.0
  0
SPLINE
  5
BA
330
1F
100
AcDbEntity
  8
DEFAULT_1
 62
   250
370
     9
100
AcDbSpline
210
0.0
220
0.0
230
1.0
 70
    11
 71
     3
 72
    32
 73
    28
 74
     0
 42
0.0000000001
 43
0.0000000001
 40
0.0
 40
0.0
 40
0.0
 40
0.0
 40
0.125
 40
0.125
 40
0.125
 40
0.125
 40
0.25
 40
0.25
 40
0.25
 40
0.25
 40
0.375
 40
0.375
 40
0.375
 40
0.375
 40
0.5
 40
0.5
 40
0.5
 40
0.5
 40
0.625
 40
0.625
 40
0.625
 40
0.625
 40
0.75
 40
0.75
 40
0.75
 40
0.75
 40
1.0
 40
1.0
 40
1.0
 40
1.0
 10
22.3692
 20
29.1269
 30
0.0
 10
22.3692
 20
29.1269
 30
0.0
 10
22.3692
 20
29.1269
 30
0.0
 10
22.3692
 20
29.1269
 30
0.0
 10
22.3692
 20
29.1269
 30
0.0
 10
22.3692
 20
29.1269
 30
0.0
 10
22.3692
 20
29.1269
 30
0.0
 10
22.3692
 20
29.1269
 30
0.0
 10
22.3692
 20
29.1269
 30
0.0
 10
22.3692
 20
29.1269
 30
0.0
 10
21.9258
 20
27.8541
 30
0.0
 10
21.9258
 20
27.8541
 30
0.0
 10
21.9258
 20
27.8541
 30
0.0
 10
21.9258
 20
27.8541
 30
0.0
 10
21.4824
 20
29.1269
 30
0.0
 10
21.4824
 20
29.1269
 30
0.0
 10
21.4824
 20
29.1269
 30
0.0
 10
21.4824
 20
29.1269
 30
0.0
 10
21.4824
 20
29.1269
 30
0.0
 10
21.4824
 20
29.1269
 30
0.0
 10
21.4824
 20
29.1269
 30
0.0
 10
21.4824
 20
29.1269
 30
0.0
 10
21.4824
 20
29.1269
 30
0.0
 10
21.4824
 20
29.1269
 30
0.0
 10
21.4824
 20
29.1269
 30
0.0
 10
21.4824
 20
29.1269
 30
0.0
 10
22.3692
 20
29.1269
 30
0.0
 10
22.3692
 20
29.1269
 30
0.0
  0
ENDSEC
  0
SECTION
  2
OBJECTS
  0
DICTIONARY
  5
C
330
0
100
AcDbDictionary
281
     1
  3
ACAD_GROUP
350
D
  3
ACAD_LAYOUT
350
1A
  3
ACAD_MATERIAL
350
3B
  3
ACAD_MLEADERSTYLE
350
BD
  3
ACAD_MLINESTYLE
350
17
  3
ACAD_PLOTSETTINGS
350
19
  3
ACAD_PLOTSTYLENAME
350
E
  3
ACAD_VISUALSTYLE
350
2A
  3
AcDbVariableDictionary
350
BB
  0
DICTIONARY
  5
D
102
{ACAD_REACTORS
330
C
102
}
330
C
100
AcDbDictionary
281
     1
  0
DICTIONARY
  5
1A
102
{ACAD_REACTORS
330
C
102
}
330
C
100
AcDbDictionary
281
     1
  3
Layout1
350
1E
  3
Layout2
350
26
  3
Model
350
22
  0
DICTIONARY
  5
3B
102
{ACAD_REACTORS
330
C
102
}
330
C
100
AcDbDictionary
281
     1
  3
ByBlock
350
3D
  3
ByLayer
350
3C
  3
Global
350
3E
  0
DICTIONARY
  5
BD
102
{ACAD_REACTORS
330
C
102
}
330
C
100
AcDbDictionary
281
     1
  0
DICTIONARY
  5
17
102
{ACAD_REACTORS
330
C
102
}
330
C
100
AcDbDictionary
281
     1
  3
Standard
350
18
  0
DICTIONARY
  5
19
102
{ACAD_REACTORS
330
C
102
}
330
C
100
AcDbDictionary
281
     1
  0
ACDBDICTIONARYWDFLT
  5
E
102
{ACAD_REACTORS
330
C
102
}
330
C
100
AcDbDictionary
281
     1
  3
Normal
350
F
100
AcDbDictionaryWithDefault
340
F
  0
DICTIONARY
  5
2A
102
{ACAD_REACTORS
330
C
102
}
330
C
100
AcDbDictionary
281
     1
  3
2dWireframe
350
2F
  3
3D Hidden
350
31
  3
3dWireframe
350
30
  3
Basic
350
32
  3
Brighten
350
36
  3
ColorChange
350
3A
  3
Conceptual
350
34
  3
Dim
350
35
  3
Facepattern
350
39
  3
Flat
350
2B
  3
FlatWithEdges
350
2C
  3
Gouraud
350
2D
  3
GouraudWithEdges
350
2E
  3
Linepattern
350
38
  3
Realistic
350
33
  3
Thicken
350
37
  0
DICTIONARY
  5
BB
102
{ACAD_REACTORS
330
C
102
}
330
C
100
AcDbDictionary
281
     1
  3
DIMASSOC
350
BE
  3
HIDETEXT
350
BF
  0
LAYOUT
  5
1E
102
{ACAD_REACTORS
330
1A
102
}
330
1A
100
AcDbPlotSettings
  1

  2
none_device
  4

  6

 40
0.0
 41
0.0
 42
0.0
 43
0.0
 44
0.0
 45
0.0
 46
0.0
 47
0.0
 48
0.0
 49
0.0
140
0.0
141
0.0
142
1.0
143
1.0
 70
   688
 72
     0
 73
     0
 74
     5
  7

 75
    16
147
1.0
148
0.0
149
0.0
100
AcDbLayout
  1
Layout1
 70
     1
 71
     1
 10
0.0
 20
0.0
 11
12.0
 21
9.0
 12
0.0
 22
0.0
 32
0.0
 14
1.000000000000000E+20
 24
1.000000000000000E+20
 34
1.000000000000000E+20
 15
-1.000000000000000E+20
 25
-1.000000000000000E+20
 35
-1.000000000000000E+20
146
0.0
 13
0.0
 23
0.0
 33
0.0
 16
1.0
 26
0.0
 36
0.0
 17
0.0
 27
1.0
 37
0.0
 76
     0
330
1B
  0
LAYOUT
  5
26
102
{ACAD_REACTORS
330
1A
102
}
330
1A
100
AcDbPlotSettings
  1

  2
none_device
  4

  6

 40
0.0
 41
0.0
 42
0.0
 43
0.0
 44
0.0
 45
0.0
 46
0.0
 47
0.0
 48
0.0
 49
0.0
140
0.0
141
0.0
142
1.0
143
1.0
 70
   688
 72
     0
 73
     0
 74
     5
  7

 75
    16
147
1.0
148
0.0
149
0.0
100
AcDbLayout
  1
Layout2
 70
     1
 71
     2
 10
0.0
 20
0.0
 11
0.0
 21
0.0
 12
0.0
 22
0.0
 32
0.0
 14
0.0
 24
0.0
 34
0.0
 15
0.0
 25
0.0
 35
0.0
146
0.0
 13
0.0
 23
0.0
 33
0.0
 16
1.0
 26
0.0
 36
0.0
 17
0.0
 27
1.0
 37
0.0
 76
     0
330
23
  0
LAYOUT
  5
22
102
{ACAD_REACTORS
330
1A
102
}
330
1A
100
AcDbPlotSettings
  1

  2
none_device
  4

  6

 40
0.0
 41
0.0
 42
0.0
 43
0.0
 44
0.0
 45
0.0
 46
0.0
 47
0.0
 48
0.0
 49
0.0
140
0.0
141
0.0
142
1.0
143
1.0
 70
  1712
 72
     0
 73
     0
 74
     0
  7

 75
     0
147
1.0
148
0.0
149
0.0
100
AcDbLayout
  1
Model
 70
     1
 71
     0
 10
0.0
 20
0.0
 11
12.0
 21
9.0
 12
0.0
 22
0.0
 32
0.0
 14
-22.4972
 24
-35.8415
 34
0.0
 15
22.4973
 25
35.8414
 35
0.0
146
0.0
 13
0.0
 23
0.0
 33
0.0
 16
1.0
 26
0.0
 36
0.0
 17
0.0
 27
1.0
 37
0.0
 76
     0
330
1F
331
29
  0
MATERIAL
  5
3D
102
{ACAD_REACTORS
330
3B
102
}
102
{ACAD_XDICTIONARY
360
E2
102
}
330
3B
100
AcDbMaterial
  1
ByBlock
  0
MATERIAL
  5
3C
102
{ACAD_REACTORS
330
3B
102
}
102
{ACAD_XDICTIONARY
360
E0
102
}
330
3B
100
AcDbMaterial
  1
ByLayer
  0
MATERIAL
  5
3E
102
{ACAD_REACTORS
330
3B
102
}
102
{ACAD_XDICTIONARY
360
E4
102
}
330
3B
100
AcDbMaterial
  1
Global
  0
MLINESTYLE
  5
18
102
{ACAD_REACTORS
330
17
102
}
330
17
100
AcDbMlineStyle
  2
Standard
 70
     0
  3

 62
   256
 51
90.0
 52
90.0
 71
     2
 49
0.5
 62
   256
  6
BYLAYER
 49
-0.5
 62
   256
  6
BYLAYER
  0
ACDBPLACEHOLDER
  5
F
102
{ACAD_REACTORS
330
E
102
}
330
E
  0
VISUALSTYLE
  5
2F
102
{ACAD_REACTORS
330
2A
102
}
102
{ACAD_XDICTIONARY
360
C8
102
}
330
2A
100
AcDbVisualStyle
  2
2dWireframe
 70
     4
 71
     0
 72
     2
 73
     0
 90
        0
 40
-0.6
 41
-30.0
 62
     5
 63
     7
 74
     1
 91
        4
 64
     7
 65
   257
 75
     1
175
     1
 42
1.0
 92
        0
 66
   257
 43
1.0
 76
     1
 77
     6
 78
     2
 67
     7
 79
     5
170
     0
171
     0
290
     0
174
     0
 93
        1
 44
0.0
173
     0
291
     0
 45
0.0
1001
ACAD
1000
AcDbSavedByObjectVersion
1070
     0
  0
VISUALSTYLE
  5
31
102
{ACAD_REACTORS
330
2A
102
}
102
{ACAD_XDICTIONARY
360
CC
102
}
330
2A
100
AcDbVisualStyle
  2
3D Hidden
 70
     6
 71
     1
 72
     2
 73
     2
 90
        0
 40
-0.6
 41
-30.0
 62
     5
 63
     7
 74
     2
 91
        2
 64
     7
 65
   257
 75
     2
175
     1
 42
40.0
 92
        0
 66
   257
 43
1.0
 76
     1
 77
     6
 78
     2
 67
     7
 79
     3
170
     0
171
     0
290
     0
174
     0
 93
        1
 44
0.0
173
     0
291
     0
 45
0.0
1001
ACAD
1000
AcDbSavedByObjectVersion
1070
     0
  0
VISUALSTYLE
  5
30
102
{ACAD_REACTORS
330
2A
102
}
102
{ACAD_XDICTIONARY
360
CA
102
}
330
2A
100
AcDbVisualStyle
  2
3dWireframe
 70
     5
 71
     0
 72
     2
 73
     0
 90
        0
 40
-0.6
 41
-30.0
 62
     5
 63
     7
 74
     1
 91
        4
 64
     7
 65
   257
 75
     1
175
     1
 42
1.0
 92
        0
 66
   257
 43
1.0
 76
     1
 77
     6
 78
     2
 67
     7
 79
     5
170
     0
171
     0
290
     0
174
     0
 93
        1
 44
0.0
173
     0
291
     0
 45
0.0
1001
ACAD
1000
AcDbSavedByObjectVersion
1070
     0
  0
VISUALSTYLE
  5
32
102
{ACAD_REACTORS
330
2A
102
}
102
{ACAD_XDICTIONARY
360
CE
102
}
330
2A
100
AcDbVisualStyle
  2
Basic
 70
     7
 71
     1
 72
     0
 73
     1
 90
        0
 40
-0.6
 41
-30.0
 62
     5
 63
     7
 74
     0
 91
        4
 64
     7
 65
   257
 75
     1
175
     1
 42
1.0
 92
        8
 66
     7
 43
1.0
 76
     1
 77
     6
 78
     2
 67
     7
 79
     5
170
     0
171
     0
290
     0
174
     0
 93
        1
 44
0.0
173
     0
291
     1
 45
0.0
1001
ACAD
1000
AcDbSavedByObjectVersion
1070
     0
  0
VISUALSTYLE
  5
36
102
{ACAD_REACTORS
330
2A
102
}
102
{ACAD_XDICTIONARY
360
D6
102
}
330
2A
100
AcDbVisualStyle
  2
Brighten
 70
    12
 71
     2
 72
     2
 73
     0
 90
        0
 40
-0.6
 41
-30.0
 62
     5
 63
     7
 74
     1
 91
        4
 64
     7
 65
   257
 75
     1
175
     1
 42
1.0
 92
        8
 66
     7
 43
1.0
 76
     1
 77
     6
 78
     2
 67
     7
 79
     5
170
     0
171
     0
290
     0
174
     0
 93
        1
 44
50.0
173
     0
291
     1
 45
0.0
1001
ACAD
1000
AcDbSavedByObjectVersion
1070
     0
  0
VISUALSTYLE
  5
3A
102
{ACAD_REACTORS
330
2A
102
}
102
{ACAD_XDICTIONARY
360
DE
102
}
330
2A
100
AcDbVisualStyle
  2
ColorChange
 70
    16
 71
     2
 72
     2
 73
     3
 90
        0
 40
-0.6
 41
-30.0
 62
     5
 63
     8
 74
     1
 91
        4
 64
     7
 65
   257
 75
     1
175
     1
 42
1.0
 92
        8
 66
     8
 43
1.0
 76
     1
 77
     6
 78
     2
 67
     7
 79
     5
170
     0
171
     0
290
     0
174
     0
 93
        1
 44
0.0
173
     0
291
     1
 45
0.0
1001
ACAD
1000
AcDbSavedByObjectVersion
1070
     0
  0
VISUALSTYLE
  5
34
102
{ACAD_REACTORS
330
2A
102
}
102
{ACAD_XDICTIONARY
360
D2
102
}
330
2A
100
AcDbVisualStyle
  2
Conceptual
 70
     9
 71
     3
 72
     2
 73
     0
 90
        0
 40
-0.6
 41
-30.0
 62
     5
 63
     7
 74
     2
 91
        2
 64
     7
 65
   257
 75
     1
175
     1
 42
40.0
 92
        8
 66
     7
 43
1.0
 76
     1
 77
     6
 78
     2
 67
     7
 79
     3
170
     0
171
     0
290
     0
174
     0
 93
        1
 44
0.0
173
     0
291
     0
 45
0.0
1001
ACAD
1000
AcDbSavedByObjectVersion
1070
     0
  0
VISUALSTYLE
  5
35
102
{ACAD_REACTORS
330
2A
102
}
102
{ACAD_XDICTIONARY
360
D4
102
}
330
2A
100
AcDbVisualStyle
  2
Dim
 70
    11
 71
     2
 72
     2
 73
     0
 90
        0
 40
-0.6
 41
-30.0
 62
     5
 63
     7
 74
     1
 91
        4
 64
     7
 65
   257
 75
     1
175
     1
 42
1.0
 92
        8
 66
     7
 43
1.0
 76
     1
 77
     6
 78
     2
 67
     7
 79
     5
170
     0
171
     0
290
     0
174
     0
 93
        1
 44
-50.0
173
     0
291
     1
 45
0.0
1001
ACAD
1000
AcDbSavedByObjectVersion
1070
     0
  0
VISUALSTYLE
  5
39
102
{ACAD_REACTORS
330
2A
102
}
102
{ACAD_XDICTIONARY
360
DC
102
}
330
2A
100
AcDbVisualStyle
  2
Facepattern
 70
    15
 71
     2
 72
     2
 73
     0
 90
        0
 40
-0.6
 41
-30.0
 62
     5
 63
     7
 74
     1
 91
        4
 64
     7
 65
   257
 75
     1
175
     1
 42
1.0
 92
        8
 66
     7
 43
1.0
 76
     1
 77
     6
 78
     2
 67
     7
 79
     5
170
     0
171
     0
290
     0
174
     0
 93
        1
 44
0.0
173
     0
291
     1
 45
0.0
1001
ACAD
1000
AcDbSavedByObjectVersion
1070
     0
  0
VISUALSTYLE
  5
2B
102
{ACAD_REACTORS
330
2A
102
}
102
{ACAD_XDICTIONARY
360
C0
102
}
330
2A
100
AcDbVisualStyle
  2
Flat
 70
     0
 71
     2
 72
     1
 73
     1
 90
        2
 40
-0.6
 41
30.0
 62
     5
 63
     7
 74
     0
 91
        4
 64
     7
 65
   257
 75
     1
175
     1
 42
1.0
 92
        8
 66
     7
 43
1.0
 76
     1
 77
     6
 78
     2
 67
     7
 79
     5
170
     0
171
     0
290
     0
174
     0
 93
       13
 44
0.0
173
     0
291
     1
 45
0.0
1001
ACAD
1000
AcDbSavedByObjectVersion
1070
     0
  0
VISUALSTYLE
  5
2C
102
{ACAD_REACTORS
330
2A
102
}
102
{ACAD_XDICTIONARY
360
C2
102
}
330
2A
100
AcDbVisualStyle
  2
FlatWithEdges
 70
     1
 71
     2
 72
     1
 73
     1
 90
        2
 40
-0.6
 41
30.0
 62
     5
 63
     7
 74
     1
 91
        4
 64
     7
 65
   257
 75
     1
175
     1
 42
1.0
 92
        0
 66
   257
 43
1.0
 76
     1
 77
     6
 78
     2
 67
     7
 79
     5
170
     0
171
     0
290
     0
174
     0
 93
       13
 44
0.0
173
     0
291
     1
 45
0.0
1001
ACAD
1000
AcDbSavedByObjectVersion
1070
     0
  0
VISUALSTYLE
  5
2D
102
{ACAD_REACTORS
330
2A
102
}
102
{ACAD_XDICTIONARY
360
C4
102
}
330
2A
100
AcDbVisualStyle
  2
Gouraud
 70
     2
 71
     2
 72
     2
 73
     1
 90
        2
 40
-0.6
 41
30.0
 62
     5
 63
     7
 74
     0
 91
        4
 64
     7
 65
   257
 75
     1
175
     1
 42
1.0
 92
        0
 66
     7
 43
1.0
 76
     1
 77
     6
 78
     2
 67
     7
 79
     5
170
     0
171
     0
290
     0
174
     0
 93
       13
 44
0.0
173
     0
291
     1
 45
0.0
1001
ACAD
1000
AcDbSavedByObjectVersion
1070
     0
  0
VISUALSTYLE
  5
2E
102
{ACAD_REACTORS
330
2A
102
}
102
{ACAD_XDICTIONARY
360
C6
102
}
330
2A
100
AcDbVisualStyle
  2
GouraudWithEdges
 70
     3
 71
     2
 72
     2
 73
     1
 90
        2
 40
-0.6
 41
30.0
 62
     5
 63
     7
 74
     1
 91
        4
 64
     7
 65
   257
 75
     1
175
     1
 42
1.0
 92
        0
 66
   257
 43
1.0
 76
     1
 77
     6
 78
     2
 67
     7
 79
     5
170
     0
171
     0
290
     0
174
     0
 93
       13
 44
0.0
173
     0
291
     1
 45
0.0
1001
ACAD
1000
AcDbSavedByObjectVersion
1070
     0
  0
VISUALSTYLE
  5
38
102
{ACAD_REACTORS
330
2A
102
}
102
{ACAD_XDICTIONARY
360
DA
102
}
330
2A
100
AcDbVisualStyle
  2
Linepattern
 70
    14
 71
     2
 72
     2
 73
     0
 90
        0
 40
-0.6
 41
-30.0
 62
     5
 63
     7
 74
     1
 91
        4
 64
     7
 65
   257
 75
     7
175
     7
 42
1.0
 92
        8
 66
     7
 43
1.0
 76
     1
 77
     6
 78
     2
 67
     7
 79
     5
170
     0
171
     0
290
     0
174
     0
 93
        1
 44
0.0
173
     0
291
     1
 45
0.0
1001
ACAD
1000
AcDbSavedByObjectVersion
1070
     0
  0
VISUALSTYLE
  5
33
102
{ACAD_REACTORS
330
2A
102
}
102
{ACAD_XDICTIONARY
360
D0
102
}
330
2A
100
AcDbVisualStyle
  2
Realistic
 70
     8
 71
     2
 72
     2
 73
     0
 90
        0
 40
-0.6
 41
-30.0
 62
     5
 63
     7
 74
     1
 91
        0
 64
     7
 65
   257
 75
     1
175
     1
 42
1.0
 92
        8
 66
     8
 43
1.0
 76
     1
 77
     6
 78
     2
 67
     7
 79
     5
170
     0
171
     0
290
     0
174
     0
 93
       13
 44
0.0
173
     0
291
     0
 45
0.0
1001
ACAD
1000
AcDbSavedByObjectVersion
1070
     0
  0
VISUALSTYLE
  5
37
102
{ACAD_REACTORS
330
2A
102
}
102
{ACAD_XDICTIONARY
360
D8
102
}
330
2A
100
AcDbVisualStyle
  2
Thicken
 70
    13
 71
     2
 72
     2
 73
     0
 90
        0
 40
-0.6
 41
-30.0
 62
     5
 63
     7
 74
     1
 91
        4
 64
     7
 65
   257
 75
     1
175
     1
 42
1.0
 92
       12
 66
     7
 43
1.0
 76
     1
 77
     6
 78
     2
 67
     7
 79
     5
170
     0
171
     0
290
     0
174
     0
 93
        1
 44
0.0
173
     0
291
     1
 45
0.0
1001
ACAD
1000
AcDbSavedByObjectVersion
1070
     0
  0
DICTIONARYVAR
  5
BE
102
{ACAD_REACTORS
330
BB
102
}
330
BB
100
DictionaryVariables
280
     0
  1
2
  0
DICTIONARYVAR
  5
BF
102
{ACAD_REACTORS
330
BB
102
}
330
BB
100
DictionaryVariables
280
     0
  1
1
  0
DICTIONARY
  5
E2
330
3D
100
AcDbDictionary
280
     1
281
     1
  3
ACAD_XREC_ROUNDTRIP
360
E3
  0
DICTIONARY
  5
E0
330
3C
100
AcDbDictionary
280
     1
281
     1
  3
ACAD_XREC_ROUNDTRIP
360
E1
  0
DICTIONARY
  5
E4
330
3E
100
AcDbDictionary
280
     1
281
     1
  3
ACAD_XREC_ROUNDTRIP
360
E5
  0
DICTIONARY
  5
C8
330
2F
100
AcDbDictionary
280
     1
281
     1
  3
ACAD_XREC_ROUNDTRIP
360
C9
  0
DICTIONARY
  5
CC
330
31
100
AcDbDictionary
280
     1
281
     1
  3
ACAD_XREC_ROUNDTRIP
360
CD
  0
DICTIONARY
  5
CA
330
30
100
AcDbDictionary
280
     1
281
     1
  3
ACAD_XREC_ROUNDTRIP
360
CB
  0
DICTIONARY
  5
CE
330
32
100
AcDbDictionary
280
     1
281
     1
  3
ACAD_XREC_ROUNDTRIP
360
CF
  0
DICTIONARY
  5
D6
330
36
100
AcDbDictionary
280
     1
281
     1
  3
ACAD_XREC_ROUNDTRIP
360
D7
  0
DICTIONARY
  5
DE
330
3A
100
AcDbDictionary
280
     1
281
     1
  3
ACAD_XREC_ROUNDTRIP
360
DF
  0
DICTIONARY
  5
D2
330
34
100
AcDbDictionary
280
     1
281
     1
  3
ACAD_XREC_ROUNDTRIP
360
D3
  0
DICTIONARY
  5
D4
330
35
100
AcDbDictionary
280
     1
281
     1
  3
ACAD_XREC_ROUNDTRIP
360
D5
  0
DICTIONARY
  5
DC
330
39
100
AcDbDictionary
280
     1
281
     1
  3
ACAD_XREC_ROUNDTRIP
360
DD
  0
DICTIONARY
  5
C0
330
2B
100
AcDbDictionary
280
     1
281
     1
  3
ACAD_XREC_ROUNDTRIP
360
C1
  0
DICTIONARY
  5
C2
330
2C
100
AcDbDictionary
280
     1
281
     1
  3
ACAD_XREC_ROUNDTRIP
360
C3
  0
DICTIONARY
  5
C4
330
2D
100
AcDbDictionary
280
     1
281
     1
  3
ACAD_XREC_ROUNDTRIP
360
C5
  0
DICTIONARY
  5
C6
330
2E
100
AcDbDictionary
280
     1
281
     1
  3
ACAD_XREC_ROUNDTRIP
360
C7
  0
DICTIONARY
  5
DA
330
38
100
AcDbDictionary
280
     1
281
     1
  3
ACAD_XREC_ROUNDTRIP
360
DB
  0
DICTIONARY
  5
D0
330
33
100
AcDbDictionary
280
     1
281
     1
  3
ACAD_XREC_ROUNDTRIP
360
D1
  0
DICTIONARY
  5
D8
330
37
100
AcDbDictionary
280
     1
281
     1
  3
ACAD_XREC_ROUNDTRIP
360
D9
  0
XRECORD
  5
E3
102
{ACAD_REACTORS
330
E2
102
}
330
E2
100
AcDbXrecord
280
     1
102
MATERIAL
148
0.0
149
0.0
149
0.0
 93
        0
 94
      127
282
     0
 72
     1
 77
     1
171
     1
175
     1
179
     1
273
     0
  0
XRECORD
  5
E1
102
{ACAD_REACTORS
330
E0
102
}
330
E0
100
AcDbXrecord
280
     1
102
MATERIAL
148
0.0
149
0.0
149
0.0
 93
        0
 94
      127
282
     0
 72
     1
 77
     1
171
     1
175
     1
179
     1
273
     0
  0
XRECORD
  5
E5
102
{ACAD_REACTORS
330
E4
102
}
330
E4
100
AcDbXrecord
280
     1
102
MATERIAL
148
0.0
149
0.0
149
0.0
 93
        0
 94
      127
282
     0
 72
     1
 77
     1
171
     1
175
     1
179
     1
273
     0
  0
XRECORD
  5
C9
102
{ACAD_REACTORS
330
C8
102
}
330
C8
100
AcDbXrecord
280
     1
102
RTVSPropertyOp0
 70
     1
102
RTVSPropertyOp1
 70
     1
102
RTVSPropertyOp2
 70
     1
102
RTVSPropertyOp3
 70
     1
102
RTVSPropertyOp4
 70
     1
102
RTVSPropertyOp5
 70
     1
102
RTVSPropertyOp6
 70
     1
102
RTVSPropertyOp7
 70
     1
102
RTVSPropertyOp8
 70
     1
102
RTVSPropertyOp9
 70
     1
102
RTVSPropertyOp10
 70
     1
102
RTVSPropertyOp11
 70
     1
102
RTVSPropertyOp12
 70
     1
102
RTVSPropertyOp13
 70
     1
102
RTVSPropertyOp14
 70
     1
102
RTVSPropertyOp15
 70
     1
102
RTVSPropertyOp16
 70
     1
102
RTVSPropertyOp17
 70
     1
102
RTVSPropertyOp18
 70
     1
102
RTVSPropertyOp19
 70
     1
102
RTVSPropertyOp20
 70
     1
102
RTVSPropertyOp21
 70
     1
102
RTVSPropertyOp22
 70
     1
102
RTVSPropertyOp23
 70
     1
102
RTVSPropertyOp24
 70
     1
102
RTVSPropertyOp25
 70
     1
102
RTVSPropertyOp26
 70
     1
102
RTVSPropertyOp27
 70
     1
  0
XRECORD
  5
CD
102
{ACAD_REACTORS
330
CC
102
}
330
CC
100
AcDbXrecord
280
     1
102
RTVSPropertyOp0
 70
     1
102
RTVSPropertyOp1
 70
     1
102
RTVSPropertyOp2
 70
     1
102
RTVSPropertyOp3
 70
     1
102
RTVSPropertyOp4
 70
     1
102
RTVSPropertyOp5
 70
     1
102
RTVSPropertyOp6
 70
     1
102
RTVSPropertyOp7
 70
     1
102
RTVSPropertyOp8
 70
     1
102
RTVSPropertyOp9
 70
     1
102
RTVSPropertyOp10
 70
     1
102
RTVSPropertyOp11
 70
     1
102
RTVSPropertyOp12
 70
     1
102
RTVSPropertyOp13
 70
     1
102
RTVSPropertyOp14
 70
     1
102
RTVSPropertyOp15
 70
     1
102
RTVSPropertyOp16
 70
     1
102
RTVSPropertyOp17
 70
     1
102
RTVSPropertyOp18
 70
     1
102
RTVSPropertyOp19
 70
     1
102
RTVSPropertyOp20
 70
     1
102
RTVSPropertyOp21
 70
     1
102
RTVSPropertyOp22
 70
     1
102
RTVSPropertyOp23
 70
     1
102
RTVSPropertyOp24
 70
     1
102
RTVSPropertyOp25
 70
     1
102
RTVSPropertyOp26
 70
     1
102
RTVSPropertyOp27
 70
     1
  0
XRECORD
  5
CB
102
{ACAD_REACTORS
330
CA
102
}
330
CA
100
AcDbXrecord
280
     1
102
RTVSPropertyOp0
 70
     1
102
RTVSPropertyOp1
 70
     1
102
RTVSPropertyOp2
 70
     1
102
RTVSPropertyOp3
 70
     1
102
RTVSPropertyOp4
 70
     1
102
RTVSPropertyOp5
 70
     1
102
RTVSPropertyOp6
 70
     1
102
RTVSPropertyOp7
 70
     1
102
RTVSPropertyOp8
 70
     1
102
RTVSPropertyOp9
 70
     1
102
RTVSPropertyOp10
 70
     1
102
RTVSPropertyOp11
 70
     1
102
RTVSPropertyOp12
 70
     1
102
RTVSPropertyOp13
 70
     1
102
RTVSPropertyOp14
 70
     1
102
RTVSPropertyOp15
 70
     1
102
RTVSPropertyOp16
 70
     1
102
RTVSPropertyOp17
 70
     1
102
RTVSPropertyOp18
 70
     1
102
RTVSPropertyOp19
 70
     1
102
RTVSPropertyOp20
 70
     1
102
RTVSPropertyOp21
 70
     1
102
RTVSPropertyOp22
 70
     1
102
RTVSPropertyOp23
 70
     1
102
RTVSPropertyOp24
 70
     1
102
RTVSPropertyOp25
 70
     1
102
RTVSPropertyOp26
 70
     1
102
RTVSPropertyOp27
 70
     1
  0
XRECORD
  5
CF
102
{ACAD_REACTORS
330
CE
102
}
330
CE
100
AcDbXrecord
280
     1
102
RTVSPropertyOp0
 70
     1
102
RTVSPropertyOp1
 70
     1
102
RTVSPropertyOp2
 70
     1
102
RTVSPropertyOp3
 70
     1
102
RTVSPropertyOp4
 70
     1
102
RTVSPropertyOp5
 70
     1
102
RTVSPropertyOp6
 70
     1
102
RTVSPropertyOp7
 70
     1
102
RTVSPropertyOp8
 70
     1
102
RTVSPropertyOp9
 70
     1
102
RTVSPropertyOp10
 70
     1
102
RTVSPropertyOp11
 70
     1
102
RTVSPropertyOp12
 70
     1
102
RTVSPropertyOp13
 70
     1
102
RTVSPropertyOp14
 70
     1
102
RTVSPropertyOp15
 70
     1
102
RTVSPropertyOp16
 70
     1
102
RTVSPropertyOp17
 70
     1
102
RTVSPropertyOp18
 70
     1
102
RTVSPropertyOp19
 70
     1
102
RTVSPropertyOp20
 70
     1
102
RTVSPropertyOp21
 70
     1
102
RTVSPropertyOp22
 70
     1
102
RTVSPropertyOp23
 70
     1
102
RTVSPropertyOp24
 70
     1
102
RTVSPropertyOp25
 70
     1
102
RTVSPropertyOp26
 70
     1
102
RTVSPropertyOp27
 70
     1
  0
XRECORD
  5
D7
102
{ACAD_REACTORS
330
D6
102
}
330
D6
100
AcDbXrecord
280
     1
102
RTVSPropertyOp0
 70
     1
102
RTVSPropertyOp1
 70
     1
102
RTVSPropertyOp2
 70
     1
102
RTVSPropertyOp3
 70
     1
102
RTVSPropertyOp4
 70
     1
102
RTVSPropertyOp5
 70
     1
102
RTVSPropertyOp6
 70
     1
102
RTVSPropertyOp7
 70
     1
102
RTVSPropertyOp8
 70
     1
102
RTVSPropertyOp9
 70
     1
102
RTVSPropertyOp10
 70
     1
102
RTVSPropertyOp11
 70
     1
102
RTVSPropertyOp12
 70
     1
102
RTVSPropertyOp13
 70
     1
102
RTVSPropertyOp14
 70
     1
102
RTVSPropertyOp15
 70
     1
102
RTVSPropertyOp16
 70
     1
102
RTVSPropertyOp17
 70
     1
102
RTVSPropertyOp18
 70
     1
102
RTVSPropertyOp19
 70
     1
102
RTVSPropertyOp20
 70
     1
102
RTVSPropertyOp21
 70
     1
102
RTVSPropertyOp22
 70
     1
102
RTVSPropertyOp23
 70
     1
102
RTVSPropertyOp24
 70
     1
102
RTVSPropertyOp25
 70
     1
102
RTVSPropertyOp26
 70
     1
102
RTVSPropertyOp27
 70
     1
  0
XRECORD
  5
DF
102
{ACAD_REACTORS
330
DE
102
}
330
DE
100
AcDbXrecord
280
     1
102
RTVSPropertyOp0
 70
     1
102
RTVSPropertyOp1
 70
     1
102
RTVSPropertyOp2
 70
     1
102
RTVSPropertyOp3
 70
     1
102
RTVSPropertyOp4
 70
     1
102
RTVSPropertyOp5
 70
     1
102
RTVSPropertyOp6
 70
     1
102
RTVSPropertyOp7
 70
     1
102
RTVSPropertyOp8
 70
     1
102
RTVSPropertyOp9
 70
     1
102
RTVSPropertyOp10
 70
     1
102
RTVSPropertyOp11
 70
     1
102
RTVSPropertyOp12
 70
     1
102
RTVSPropertyOp13
 70
     1
102
RTVSPropertyOp14
 70
     1
102
RTVSPropertyOp15
 70
     1
102
RTVSPropertyOp16
 70
     1
102
RTVSPropertyOp17
 70
     1
102
RTVSPropertyOp18
 70
     1
102
RTVSPropertyOp19
 70
     1
102
RTVSPropertyOp20
 70
     1
102
RTVSPropertyOp21
 70
     1
102
RTVSPropertyOp22
 70
     1
102
RTVSPropertyOp23
 70
     1
102
RTVSPropertyOp24
 70
     1
102
RTVSPropertyOp25
 70
     1
102
RTVSPropertyOp26
 70
     1
102
RTVSPropertyOp27
 70
     1
  0
XRECORD
  5
D3
102
{ACAD_REACTORS
330
D2
102
}
330
D2
100
AcDbXrecord
280
     1
102
RTVSPropertyOp0
 70
     1
102
RTVSPropertyOp1
 70
     1
102
RTVSPropertyOp2
 70
     1
102
RTVSPropertyOp3
 70
     1
102
RTVSPropertyOp4
 70
     1
102
RTVSPropertyOp5
 70
     1
102
RTVSPropertyOp6
 70
     1
102
RTVSPropertyOp7
 70
     1
102
RTVSPropertyOp8
 70
     1
102
RTVSPropertyOp9
 70
     1
102
RTVSPropertyOp10
 70
     1
102
RTVSPropertyOp11
 70
     1
102
RTVSPropertyOp12
 70
     1
102
RTVSPropertyOp13
 70
     1
102
RTVSPropertyOp14
 70
     1
102
RTVSPropertyOp15
 70
     1
102
RTVSPropertyOp16
 70
     1
102
RTVSPropertyOp17
 70
     1
102
RTVSPropertyOp18
 70
     1
102
RTVSPropertyOp19
 70
     1
102
RTVSPropertyOp20
 70
     1
102
RTVSPropertyOp21
 70
     1
102
RTVSPropertyOp22
 70
     1
102
RTVSPropertyOp23
 70
     1
102
RTVSPropertyOp24
 70
     1
102
RTVSPropertyOp25
 70
     1
102
RTVSPropertyOp26
 70
     1
102
RTVSPropertyOp27
 70
     1
  0
XRECORD
  5
D5
102
{ACAD_REACTORS
330
D4
102
}
330
D4
100
AcDbXrecord
280
     1
102
RTVSPropertyOp0
 70
     1
102
RTVSPropertyOp1
 70
     1
102
RTVSPropertyOp2
 70
     1
102
RTVSPropertyOp3
 70
     1
102
RTVSPropertyOp4
 70
     1
102
RTVSPropertyOp5
 70
     1
102
RTVSPropertyOp6
 70
     1
102
RTVSPropertyOp7
 70
     1
102
RTVSPropertyOp8
 70
     1
102
RTVSPropertyOp9
 70
     1
102
RTVSPropertyOp10
 70
     1
102
RTVSPropertyOp11
 70
     1
102
RTVSPropertyOp12
 70
     1
102
RTVSPropertyOp13
 70
     1
102
RTVSPropertyOp14
 70
     1
102
RTVSPropertyOp15
 70
     1
102
RTVSPropertyOp16
 70
     1
102
RTVSPropertyOp17
 70
     1
102
RTVSPropertyOp18
 70
     1
102
RTVSPropertyOp19
 70
     1
102
RTVSPropertyOp20
 70
     1
102
RTVSPropertyOp21
 70
     1
102
RTVSPropertyOp22
 70
     1
102
RTVSPropertyOp23
 70
     1
102
RTVSPropertyOp24
 70
     1
102
RTVSPropertyOp25
 70
     1
102
RTVSPropertyOp26
 70
     1
102
RTVSPropertyOp27
 70
     1
  0
XRECORD
  5
DD
102
{ACAD_REACTORS
330
DC
102
}
330
DC
100
AcDbXrecord
280
     1
102
RTVSPropertyOp0
 70
     1
102
RTVSPropertyOp1
 70
     1
102
RTVSPropertyOp2
 70
     1
102
RTVSPropertyOp3
 70
     1
102
RTVSPropertyOp4
 70
     1
102
RTVSPropertyOp5
 70
     1
102
RTVSPropertyOp6
 70
     1
102
RTVSPropertyOp7
 70
     1
102
RTVSPropertyOp8
 70
     1
102
RTVSPropertyOp9
 70
     1
102
RTVSPropertyOp10
 70
     1
102
RTVSPropertyOp11
 70
     1
102
RTVSPropertyOp12
 70
     1
102
RTVSPropertyOp13
 70
     1
102
RTVSPropertyOp14
 70
     1
102
RTVSPropertyOp15
 70
     1
102
RTVSPropertyOp16
 70
     1
102
RTVSPropertyOp17
 70
     1
102
RTVSPropertyOp18
 70
     1
102
RTVSPropertyOp19
 70
     1
102
RTVSPropertyOp20
 70
     1
102
RTVSPropertyOp21
 70
     1
102
RTVSPropertyOp22
 70
     1
102
RTVSPropertyOp23
 70
     1
102
RTVSPropertyOp24
 70
     1
102
RTVSPropertyOp25
 70
     1
102
RTVSPropertyOp26
 70
     1
102
RTVSPropertyOp27
 70
     1
  0
XRECORD
  5
C1
102
{ACAD_REACTORS
330
C0
102
}
330
C0
100
AcDbXrecord
280
     1
102
RTVSPropertyOp0
 70
     1
102
RTVSPropertyOp1
 70
     1
102
RTVSPropertyOp2
 70
     1
102
RTVSPropertyOp3
 70
     1
102
RTVSPropertyOp4
 70
     1
102
RTVSPropertyOp5
 70
     1
102
RTVSPropertyOp6
 70
     1
102
RTVSPropertyOp7
 70
     1
102
RTVSPropertyOp8
 70
     1
102
RTVSPropertyOp9
 70
     1
102
RTVSPropertyOp10
 70
     1
102
RTVSPropertyOp11
 70
     1
102
RTVSPropertyOp12
 70
     1
102
RTVSPropertyOp13
 70
     1
102
RTVSPropertyOp14
 70
     1
102
RTVSPropertyOp15
 70
     1
102
RTVSPropertyOp16
 70
     1
102
RTVSPropertyOp17
 70
     1
102
RTVSPropertyOp18
 70
     1
102
RTVSPropertyOp19
 70
     1
102
RTVSPropertyOp20
 70
     1
102
RTVSPropertyOp21
 70
     1
102
RTVSPropertyOp22
 70
     1
102
RTVSPropertyOp23
 70
     1
102
RTVSPropertyOp24
 70
     1
102
RTVSPropertyOp25
 70
     1
102
RTVSPropertyOp26
 70
     1
102
RTVSPropertyOp27
 70
     1
  0
XRECORD
  5
C3
102
{ACAD_REACTORS
330
C2
102
}
330
C2
100
AcDbXrecord
280
     1
102
RTVSPropertyOp0
 70
     1
102
RTVSPropertyOp1
 70
     1
102
RTVSPropertyOp2
 70
     1
102
RTVSPropertyOp3
 70
     1
102
RTVSPropertyOp4
 70
     1
102
RTVSPropertyOp5
 70
     1
102
RTVSPropertyOp6
 70
     1
102
RTVSPropertyOp7
 70
     1
102
RTVSPropertyOp8
 70
     1
102
RTVSPropertyOp9
 70
     1
102
RTVSPropertyOp10
 70
     1
102
RTVSPropertyOp11
 70
     1
102
RTVSPropertyOp12
 70
     1
102
RTVSPropertyOp13
 70
     1
102
RTVSPropertyOp14
 70
     1
102
RTVSPropertyOp15
 70
     1
102
RTVSPropertyOp16
 70
     1
102
RTVSPropertyOp17
 70
     1
102
RTVSPropertyOp18
 70
     1
102
RTVSPropertyOp19
 70
     1
102
RTVSPropertyOp20
 70
     1
102
RTVSPropertyOp21
 70
     1
102
RTVSPropertyOp22
 70
     1
102
RTVSPropertyOp23
 70
     1
102
RTVSPropertyOp24
 70
     1
102
RTVSPropertyOp25
 70
     1
102
RTVSPropertyOp26
 70
     1
102
RTVSPropertyOp27
 70
     1
  0
XRECORD
  5
C5
102
{ACAD_REACTORS
330
C4
102
}
330
C4
100
AcDbXrecord
280
     1
102
RTVSPropertyOp0
 70
     1
102
RTVSPropertyOp1
 70
     1
102
RTVSPropertyOp2
 70
     1
102
RTVSPropertyOp3
 70
     1
102
RTVSPropertyOp4
 70
     1
102
RTVSPropertyOp5
 70
     1
102
RTVSPropertyOp6
 70
     1
102
RTVSPropertyOp7
 70
     1
102
RTVSPropertyOp8
 70
     1
102
RTVSPropertyOp9
 70
     1
102
RTVSPropertyOp10
 70
     1
102
RTVSPropertyOp11
 70
     1
102
RTVSPropertyOp12
 70
     1
102
RTVSPropertyOp13
 70
     1
102
RTVSPropertyOp14
 70
     1
102
RTVSPropertyOp15
 70
     1
102
RTVSPropertyOp16
 70
     1
102
RTVSPropertyOp17
 70
     1
102
RTVSPropertyOp18
 70
     1
102
RTVSPropertyOp19
 70
     1
102
RTVSPropertyOp20
 70
     1
102
RTVSPropertyOp21
 70
     1
102
RTVSPropertyOp22
 70
     1
102
RTVSPropertyOp23
 70
     1
102
RTVSPropertyOp24
 70
     1
102
RTVSPropertyOp25
 70
     1
102
RTVSPropertyOp26
 70
     1
102
RTVSPropertyOp27
 70
     1
  0
XRECORD
  5
C7
102
{ACAD_REACTORS
330
C6
102
}
330
C6
100
AcDbXrecord
280
     1
102
RTVSPropertyOp0
 70
     1
102
RTVSPropertyOp1
 70
     1
102
RTVSPropertyOp2
 70
     1
102
RTVSPropertyOp3
 70
     1
102
RTVSPropertyOp4
 70
     1
102
RTVSPropertyOp5
 70
     1
102
RTVSPropertyOp6
 70
     1
102
RTVSPropertyOp7
 70
     1
102
RTVSPropertyOp8
 70
     1
102
RTVSPropertyOp9
 70
     1
102
RTVSPropertyOp10
 70
     1
102
RTVSPropertyOp11
 70
     1
102
RTVSPropertyOp12
 70
     1
102
RTVSPropertyOp13
 70
     1
102
RTVSPropertyOp14
 70
     1
102
RTVSPropertyOp15
 70
     1
102
RTVSPropertyOp16
 70
     1
102
RTVSPropertyOp17
 70
     1
102
RTVSPropertyOp18
 70
     1
102
RTVSPropertyOp19
 70
     1
102
RTVSPropertyOp20
 70
     1
102
RTVSPropertyOp21
 70
     1
102
RTVSPropertyOp22
 70
     1
102
RTVSPropertyOp23
 70
     1
102
RTVSPropertyOp24
 70
     1
102
RTVSPropertyOp25
 70
     1
102
RTVSPropertyOp26
 70
     1
102
RTVSPropertyOp27
 70
     1
  0
XRECORD
  5
DB
102
{ACAD_REACTORS
330
DA
102
}
330
DA
100
AcDbXrecord
280
     1
102
RTVSPropertyOp0
 70
     1
102
RTVSPropertyOp1
 70
     1
102
RTVSPropertyOp2
 70
     1
102
RTVSPropertyOp3
 70
     1
102
RTVSPropertyOp4
 70
     1
102
RTVSPropertyOp5
 70
     1
102
RTVSPropertyOp6
 70
     1
102
RTVSPropertyOp7
 70
     1
102
RTVSPropertyOp8
 70
     1
102
RTVSPropertyOp9
 70
     1
102
RTVSPropertyOp10
 70
     1
102
RTVSPropertyOp11
 70
     1
102
RTVSPropertyOp12
 70
     1
102
RTVSPropertyOp13
 70
     1
102
RTVSPropertyOp14
 70
     1
102
RTVSPropertyOp15
 70
     1
102
RTVSPropertyOp16
 70
     1
102
RTVSPropertyOp17
 70
     1
102
RTVSPropertyOp18
 70
     1
102
RTVSPropertyOp19
 70
     1
102
RTVSPropertyOp20
 70
     1
102
RTVSPropertyOp21
 70
     1
102
RTVSPropertyOp22
 70
     1
102
RTVSPropertyOp23
 70
     1
102
RTVSPropertyOp24
 70
     1
102
RTVSPropertyOp25
 70
     1
102
RTVSPropertyOp26
 70
     1
102
RTVSPropertyOp27
 70
     1
  0
XRECORD
  5
D1
102
{ACAD_REACTORS
330
D0
102
}
330
D0
100
AcDbXrecord
280
     1
102
RTVSPropertyOp0
 70
     1
102
RTVSPropertyOp1
 70
     1
102
RTVSPropertyOp2
 70
     1
102
RTVSPropertyOp3
 70
     1
102
RTVSPropertyOp4
 70
     1
102
RTVSPropertyOp5
 70
     1
102
RTVSPropertyOp6
 70
     1
102
RTVSPropertyOp7
 70
     1
102
RTVSPropertyOp8
 70
     1
102
RTVSPropertyOp9
 70
     1
102
RTVSPropertyOp10
 70
     1
102
RTVSPropertyOp11
 70
     1
102
RTVSPropertyOp12
 70
     1
102
RTVSPropertyOp13
 70
     1
102
RTVSPropertyOp14
 70
     1
102
RTVSPropertyOp15
 70
     1
102
RTVSPropertyOp16
 70
     1
102
RTVSPropertyOp17
 70
     1
102
RTVSPropertyOp18
 70
     1
102
RTVSPropertyOp19
 70
     1
102
RTVSPropertyOp20
 70
     1
102
RTVSPropertyOp21
 70
     1
102
RTVSPropertyOp22
 70
     1
102
RTVSPropertyOp23
 70
     1
102
RTVSPropertyOp24
 70
     1
102
RTVSPropertyOp25
 70
     1
102
RTVSPropertyOp26
 70
     1
102
RTVSPropertyOp27
 70
     1
  0
XRECORD
  5
D9
102
{ACAD_REACTORS
330
D8
102
}
330
D8
100
AcDbXrecord
280
     1
102
RTVSPropertyOp0
 70
     1
102
RTVSPropertyOp1
 70
     1
102
RTVSPropertyOp2
 70
     1
102
RTVSPropertyOp3
 70
     1
102
RTVSPropertyOp4
 70
     1
102
RTVSPropertyOp5
 70
     1
102
RTVSPropertyOp6
 70
     1
102
RTVSPropertyOp7
 70
     1
102
RTVSPropertyOp8
 70
     1
102
RTVSPropertyOp9
 70
     1
102
RTVSPropertyOp10
 70
     1
102
RTVSPropertyOp11
 70
     1
102
RTVSPropertyOp12
 70
     1
102
RTVSPropertyOp13
 70
     1
102
RTVSPropertyOp14
 70
     1
102
RTVSPropertyOp15
 70
     1
102
RTVSPropertyOp16
 70
     1
102
RTVSPropertyOp17
 70
     1
102
RTVSPropertyOp18
 70
     1
102
RTVSPropertyOp19
 70
     1
102
RTVSPropertyOp20
 70
     1
102
RTVSPropertyOp21
 70
     1
102
RTVSPropertyOp22
 70
     1
102
RTVSPropertyOp23
 70
     1
102
RTVSPropertyOp24
 70
     1
102
RTVSPropertyOp25
 70
     1
102
RTVSPropertyOp26
 70
     1
102
RTVSPropertyOp27
 70
     1
  0
ENDSEC
  0
EOF
